  0
SECTION
  2
HEADER
  9
$ACADVER
  1
AC1021
  9
$ACADMAINTVER
 70
    50
  9
$DWGCODEPAGE
  3
ANSI_932
  9
$LASTSAVEDBY
  1
mino-t
  9
$INSBASE
 10
0.0
 20
0.0
 30
0.0
  9
$EXTMIN
 10
80.0
 20
-0.000000000000453
 30
0.0
  9
$EXTMAX
 10
3210.329636721979
 20
2808.0
 30
0.0
  9
$LIMMIN
 10
0.0
 20
0.0
  9
$LIMMAX
 10
2100.0
 20
2970.0
  9
$ORTHOMODE
 70
     1
  9
$REGENMODE
 70
     1
  9
$FILLMODE
 70
     1
  9
$QTEXTMODE
 70
     0
  9
$MIRRTEXT
 70
     0
  9
$LTSCALE
 40
80.0
  9
$ATTMODE
 70
     1
  9
$TEXTSIZE
 40
30.0
  9
$TRACEWID
 40
0.05
  9
$TEXTSTYLE
  7
STANDARD
  9
$CLAYER
  8
0
  9
$CELTYPE
  6
ByLayer
  9
$CECOLOR
 62
   256
  9
$CELTSCALE
 40
1.0
  9
$DISPSILH
 70
     0
  9
$DIMSCALE
 40
10.0
  9
$DIMASZ
 40
0.12
  9
$DIMEXO
 40
0.05
  9
$DIMDLI
 40
0.5
  9
$DIMRND
 40
0.0
  9
$DIMDLE
 40
0.0
  9
$DIMEXE
 40
0.1
  9
$DIMTP
 40
0.1
  9
$DIMTM
 40
0.1
  9
$DIMTXT
 40
0.12
  9
$DIMCEN
 40
0.0
  9
$DIMTSZ
 40
0.0
  9
$DIMTOL
 70
     0
  9
$DIMLIM
 70
     0
  9
$DIMTIH
 70
     1
  9
$DIMTOH
 70
     1
  9
$DIMSE1
 70
     0
  9
$DIMSE2
 70
     0
  9
$DIMTAD
 70
     0
  9
$DIMZIN
 70
     7
  9
$DIMBLK
  1

  9
$DIMASO
 70
     1
  9
$DIMSHO
 70
     0
  9
$DIMPOST
  1

  9
$DIMAPOST
  1
mm
  9
$DIMALT
 70
     0
  9
$DIMALTD
 70
     2
  9
$DIMALTF
 40
25.4
  9
$DIMLFAC
 40
1.0
  9
$DIMTOFL
 70
     0
  9
$DIMTVP
 40
0.0
  9
$DIMTIX
 70
     0
  9
$DIMSOXD
 70
     0
  9
$DIMSAH
 70
     0
  9
$DIMBLK1
  1

  9
$DIMBLK2
  1

  9
$DIMSTYLE
  2
AM_ANSI
  9
$DIMCLRD
 70
   256
  9
$DIMCLRE
 70
   256
  9
$DIMCLRT
 70
     2
  9
$DIMTFAC
 40
0.71
  9
$DIMGAP
 40
0.06
  9
$DIMJUST
 70
     0
  9
$DIMSD1
 70
     0
  9
$DIMSD2
 70
     0
  9
$DIMTOLJ
 70
     1
  9
$DIMTZIN
 70
     0
  9
$DIMALTZ
 70
     0
  9
$DIMALTTZ
 70
     0
  9
$DIMUPT
 70
     0
  9
$DIMDEC
 70
     4
  9
$DIMTDEC
 70
     4
  9
$DIMALTU
 70
     2
  9
$DIMALTTD
 70
     2
  9
$DIMTXSTY
  7
STANDARD
  9
$DIMAUNIT
 70
     0
  9
$DIMADEC
 70
     0
  9
$DIMALTRND
 40
0.0
  9
$DIMAZIN
 70
     0
  9
$DIMDSEP
 70
    46
  9
$DIMATFIT
 70
     3
  9
$DIMFRAC
 70
     0
  9
$DIMLDRBLK
  1

  9
$DIMLUNIT
 70
     2
  9
$DIMLWD
 70
    -2
  9
$DIMLWE
 70
    -2
  9
$DIMTMOVE
 70
     0
  9
$DIMFXL
 40
1.0
  9
$DIMFXLON
 70
     0
  9
$DIMJOGANG
 40
0.7853981633974483
  9
$DIMTFILL
 70
     0
  9
$DIMTFILLCLR
 70
     0
  9
$DIMARCSYM
 70
     0
  9
$DIMLTYPE
  6

  9
$DIMLTEX1
  6

  9
$DIMLTEX2
  6

  9
$LUNITS
 70
     2
  9
$LUPREC
 70
     2
  9
$SKETCHINC
 40
0.1
  9
$FILLETRAD
 40
0.0
  9
$AUNITS
 70
     0
  9
$AUPREC
 70
     0
  9
$MENU
  1
AMECEX
  9
$ELEVATION
 40
0.0
  9
$PELEVATION
 40
0.0
  9
$THICKNESS
 40
0.0
  9
$LIMCHECK
 70
     0
  9
$CHAMFERA
 40
0.0
  9
$CHAMFERB
 40
0.0
  9
$CHAMFERC
 40
0.0
  9
$CHAMFERD
 40
0.0
  9
$SKPOLY
 70
     0
  9
$TDCREATE
 40
2448726.744502315
  9
$TDUCREATE
 40
2448726.369502315
  9
$TDUPDATE
 40
2459529.745891204
  9
$TDUUPDATE
 40
2459529.370891204
  9
$TDINDWG
 40
3.1016901736
  9
$TDUSRTIMER
 40
3.1016896412
  9
$USRTIMER
 70
     1
  9
$ANGBASE
 50
0.0
  9
$ANGDIR
 70
     0
  9
$PDMODE
 70
     0
  9
$PDSIZE
 40
0.0
  9
$PLINEWID
 40
0.0
  9
$SPLFRAME
 70
     0
  9
$SPLINETYPE
 70
     6
  9
$SPLINESEGS
 70
     8
  9
$HANDSEED
  5
C990
  9
$SURFTAB1
 70
     6
  9
$SURFTAB2
 70
     6
  9
$SURFTYPE
 70
     6
  9
$SURFU
 70
     6
  9
$SURFV
 70
     6
  9
$UCSBASE
  2

  9
$UCSNAME
  2

  9
$UCSORG
 10
0.0
 20
0.0
 30
0.0
  9
$UCSXDIR
 10
1.0
 20
0.0
 30
0.0
  9
$UCSYDIR
 10
0.0
 20
1.0
 30
0.0
  9
$UCSORTHOREF
  2

  9
$UCSORTHOVIEW
 70
     0
  9
$UCSORGTOP
 10
0.0
 20
0.0
 30
0.0
  9
$UCSORGBOTTOM
 10
0.0
 20
0.0
 30
0.0
  9
$UCSORGLEFT
 10
0.0
 20
0.0
 30
0.0
  9
$UCSORGRIGHT
 10
0.0
 20
0.0
 30
0.0
  9
$UCSORGFRONT
 10
0.0
 20
0.0
 30
0.0
  9
$UCSORGBACK
 10
0.0
 20
0.0
 30
0.0
  9
$PUCSBASE
  2

  9
$PUCSNAME
  2

  9
$PUCSORG
 10
0.0
 20
0.0
 30
0.0
  9
$PUCSXDIR
 10
1.0
 20
0.0
 30
0.0
  9
$PUCSYDIR
 10
0.0
 20
1.0
 30
0.0
  9
$PUCSORTHOREF
  2

  9
$PUCSORTHOVIEW
 70
     0
  9
$PUCSORGTOP
 10
0.0
 20
0.0
 30
0.0
  9
$PUCSORGBOTTOM
 10
0.0
 20
0.0
 30
0.0
  9
$PUCSORGLEFT
 10
0.0
 20
0.0
 30
0.0
  9
$PUCSORGRIGHT
 10
0.0
 20
0.0
 30
0.0
  9
$PUCSORGFRONT
 10
0.0
 20
0.0
 30
0.0
  9
$PUCSORGBACK
 10
0.0
 20
0.0
 30
0.0
  9
$USERI1
 70
     0
  9
$USERI2
 70
     0
  9
$USERI3
 70
     0
  9
$USERI4
 70
     0
  9
$USERI5
 70
     0
  9
$USERR1
 40
210.0
  9
$USERR2
 40
297.0
  9
$USERR3
 40
20.0
  9
$USERR4
 40
0.0
  9
$USERR5
 40
0.0
  9
$WORLDVIEW
 70
     1
  9
$SHADEDGE
 70
     3
  9
$SHADEDIF
 70
    70
  9
$TILEMODE
 70
     1
  9
$MAXACTVP
 70
    16
  9
$PINSBASE
 10
0.0
 20
0.0
 30
0.0
  9
$PLIMCHECK
 70
     0
  9
$PEXTMIN
 10
1.000000000000000E+20
 20
1.000000000000000E+20
 30
1.000000000000000E+20
  9
$PEXTMAX
 10
-1.000000000000000E+20
 20
-1.000000000000000E+20
 30
-1.000000000000000E+20
  9
$PLIMMIN
 10
0.0
 20
0.0
  9
$PLIMMAX
 10
12.0
 20
9.0
  9
$UNITMODE
 70
     0
  9
$VISRETAIN
 70
     0
  9
$PLINEGEN
 70
     0
  9
$PSLTSCALE
 70
     0
  9
$TREEDEPTH
 70
  3020
  9
$CMLSTYLE
  2
Standard
  9
$CMLJUST
 70
     0
  9
$CMLSCALE
 40
1.0
  9
$PROXYGRAPHICS
 70
     1
  9
$MEASUREMENT
 70
     0
  9
$CELWEIGHT
370
    -1
  9
$ENDCAPS
280
     0
  9
$JOINSTYLE
280
     0
  9
$LWDISPLAY
290
     0
  9
$INSUNITS
 70
     0
  9
$HYPERLINKBASE
  1

  9
$STYLESHEET
  1

  9
$XEDIT
290
     1
  9
$CEPSNTYPE
380
     0
  9
$PSTYLEMODE
290
     1
  9
$FINGERPRINTGUID
  2
{2AB9FAD0-8BDC-C34D-8A16-442306CC6D68}
  9
$VERSIONGUID
  2
{54C15148-AB9A-394C-A182-B407490C2C52}
  9
$EXTNAMES
290
     1
  9
$PSVPSCALE
 40
0.0
  9
$OLESTARTUP
290
     0
  9
$SORTENTS
280
   127
  9
$INDEXCTL
280
     0
  9
$HIDETEXT
280
     0
  9
$XCLIPFRAME
290
     0
  9
$HALOGAP
280
     0
  9
$OBSCOLOR
 70
   257
  9
$OBSLTYPE
280
     0
  9
$INTERSECTIONDISPLAY
280
     0
  9
$INTERSECTIONCOLOR
 70
   257
  9
$DIMASSOC
280
     1
  9
$PROJECTNAME
  1

  9
$CAMERADISPLAY
290
     0
  9
$LENSLENGTH
 40
50.0
  9
$CAMERAHEIGHT
 40
0.0
  9
$STEPSPERSEC
 40
2.0
  9
$STEPSIZE
 40
6.0
  9
$3DDWFPREC
 40
2.0
  9
$PSOLWIDTH
 40
0.25
  9
$PSOLHEIGHT
 40
4.0
  9
$LOFTANG1
 40
1.570796326794896
  9
$LOFTANG2
 40
1.570796326794896
  9
$LOFTMAG1
 40
0.0
  9
$LOFTMAG2
 40
0.0
  9
$LOFTPARAM
 70
     7
  9
$LOFTNORMALS
280
     1
  9
$LATITUDE
 40
37.795
  9
$LONGITUDE
 40
-122.394
  9
$NORTHDIRECTION
 40
0.0
  9
$TIMEZONE
 70
 -8000
  9
$LIGHTGLYPHDISPLAY
280
     1
  9
$TILEMODELIGHTSYNCH
280
     1
  9
$CMATERIAL
347
BFA5
  9
$SOLIDHIST
280
     0
  9
$SHOWHIST
280
     1
  9
$DWFFRAME
280
     2
  9
$DGNFRAME
280
     0
  9
$REALWORLDSCALE
290
     1
  9
$INTERFERECOLOR
 62
     1
  9
$INTERFEREOBJVS
345
BFC7
  9
$INTERFEREVPVS
346
BFC4
  9
$CSHADOW
280
     0
  9
$SHADOWPLANELOCATION
 40
0.0
  0
ENDSEC
  0
SECTION
  2
CLASSES
  0
CLASS
  1
ACDBDICTIONARYWDFLT
  2
AcDbDictionaryWithDefault
  3
ObjectDBX Classes
 90
        0
 91
        1
280
     0
281
     0
  0
CLASS
  1
MATERIAL
  2
AcDbMaterial
  3
ObjectDBX Classes
 90
     1153
 91
        3
280
     0
281
     0
  0
CLASS
  1
VISUALSTYLE
  2
AcDbVisualStyle
  3
ObjectDBX Classes
 90
     4095
 91
       24
280
     0
281
     0
  0
CLASS
  1
SCALE
  2
AcDbScale
  3
ObjectDBX Classes
 90
     1153
 91
       17
280
     0
281
     0
  0
CLASS
  1
TABLESTYLE
  2
AcDbTableStyle
  3
ObjectDBX Classes
 90
     4095
 91
        1
280
     0
281
     0
  0
CLASS
  1
MLEADERSTYLE
  2
AcDbMLeaderStyle
  3
ACDB_MLEADERSTYLE_CLASS
 90
     4095
 91
        1
280
     0
281
     0
  0
CLASS
  1
ACDBSECTIONVIEWSTYLE
  2
AcDbSectionViewStyle
  3
ObjectDBX Classes
 90
     1025
 91
        5
280
     0
281
     0
  0
CLASS
  1
ACDBDETAILVIEWSTYLE
  2
AcDbDetailViewStyle
  3
ObjectDBX Classes
 90
     1025
 91
        5
280
     0
281
     0
  0
CLASS
  1
AMGSETTINGSOBJ
  2
AmgSettingsObj
  3
"AcadM|Product Description: AutoCAD Mechanical|Company: Autodesk, Inc."
 90
     1024
 91
        2
280
     0
281
     0
  0
CLASS
  1
ACME_DOCUMENT
  2
AcMeDbDoc
  3
AcMeServices
 90
     1024
 91
        1
280
     0
281
     0
  0
CLASS
  1
ACMESCOPE
  2
AcMeScope
  3
AcMeServices
 90
     1024
 91
        1
280
     0
281
     0
  0
CLASS
  1
ACMECOMMANDHISTORY
  2
AcMeCommandHistory
  3
AcMeServices
 90
     1024
 91
        1
280
     0
281
     0
  0
CLASS
  1
ACIMSYSVARMAN
  2
AcImSysVarManager
  3
AcMeServices
 90
     1024
 91
        3
280
     0
281
     0
  0
CLASS
  1
ACIMINTSYSVAR
  2
AcImIntSysVar
  3
AcMeServices
 90
     1024
 91
        2
280
     0
281
     0
  0
CLASS
  1
ACMESTATEMGR
  2
AcMeStateMgr
  3
AcMeServices
 90
     1024
 91
        1
280
     0
281
     0
  0
CLASS
  1
ACDBENTITYCACHE
  2
AcMeEntityCache
  3
AcMeServices
 90
     1024
 91
        1
280
     0
281
     0
  0
CLASS
  1
ACGREFMASTER
  2
AcGrefMaster
  3
AcAttribServices
 90
     1024
 91
        1
280
     0
281
     0
  0
CLASS
  1
ACME_DATABASE
  2
AcMeDbDatabase
  3
AcMeServices
 90
     1024
 91
        2
280
     0
281
     0
  0
CLASS
  1
ACRFINSADJUSTERMGR
  2
AcRfInsAdjusterMgr
  3
AcMeServices
 90
     1024
 91
        1
280
     0
281
     0
  0
CLASS
  1
ACGREFACADMASTER
  2
AcGrefacadMaster
  3
AcGrefServices
 90
     1024
 91
        1
280
     0
281
     0
  0
CLASS
  1
AMIMASTER
  2
AmiMaster
  3
AmiServices
 90
     1024
 91
        1
280
     0
281
     0
  0
CLASS
  1
AMDTMENUSTATEMGR
  2
AmdtMenuStateMgr
  3
McadcomServices
 90
     1024
 91
        1
280
     0
281
     0
  0
CLASS
  1
AMDTMCOMMENUSTATE
  2
AmdtMcomMenuState
  3
McadcomServices
 90
     1024
 91
        1
280
     0
281
     0
  0
CLASS
  1
MAPIAMMOUDLE
  2
MApiAmModule
  3
MApiAmServices
 90
     1024
 91
        1
280
     0
281
     0
  0
CLASS
  1
ACIMSTRSYSVAR
  2
AcImStrSysVar
  3
AcMeServices
 90
     1024
 91
        5
280
     0
281
     0
  0
CLASS
  1
AMDTAMMENUSTATE
  2
AmdtAmMenuState
  3
DesignerAssemblies_arx
 90
     1024
 91
        1
280
     0
281
     0
  0
CLASS
  1
ACAMPROJECT
  2
AcAmProject
  3
DesignerAssemblies
 90
     1024
 91
        1
280
     0
281
     0
  0
CLASS
  1
ACAMGRCOMPDEF
  2
AcAmGrCompDef
  3
DesignerAssemblies
 90
     1024
 91
        1
280
     0
281
     0
  0
CLASS
  1
ACAMCOMPDEF
  2
AcAmCompDef
  3
DesignerAssemblies
 90
     1024
 91
        1
280
     0
281
     0
  0
CLASS
  1
ACAMCOMPDEFMGR
  2
AcAmCompDefMgr
  3
DesignerAssemblies
 90
     1024
 91
        1
280
     0
281
     0
  0
CLASS
  1
AMCONTEXTMGR
  2
AcAmContextMgr
  3
DesignerAssemblies
 90
     1024
 91
        1
280
     0
281
     0
  0
CLASS
  1
ACAMCONTEXTMODELER
  2
AcAmContextModeler
  3
DesignerAssemblies
 90
     1024
 91
        1
280
     0
281
     0
  0
CLASS
  1
ACMDATADICTIONARY
  2
AcmDataDictionary
  3
"AcmSymBB|Product Description: AutoCAD Mechanical|Company: Autodesk, Inc."
 90
     1024
 91
        1
280
     0
281
     0
  0
CLASS
  1
ACAMGRCOMPDEFSET
  2
AcAmGrCompDefSet
  3
DesignerAssemblies
 90
     1024
 91
        1
280
     0
281
     0
  0
CLASS
  1
AMDTBROWSERDBTAB
  2
AmdtBrowserDbTab
  3
McadcomServices
 90
     1024
 91
        1
280
     0
281
     0
  0
CLASS
  1
CBROWSERAPPOBJECT
  2
CBrowserAppObject
  3
McadcomServices
 90
     1024
 91
        2
280
     0
281
     0
  0
CLASS
  1
DM_PLACEHOLDER
  2
AcDmSelsetPlaceholder
  3
McadcomServices
 90
     1024
 91
        1
280
     0
281
     0
  0
CLASS
  1
ACMSTANDARDANSI
  2
AcmStandardANSI
  3
"Amdt_StdImp|Product Description: AutoCAD Mechanical|Company: Autodesk, Inc."
 90
     1024
 91
        1
280
     0
281
     0
  0
CLASS
  1
ACMSURFSTANDARDANSI
  2
AcmSurfTextStdANSI
  3
"Amdt_StdImp|Product Description: AutoCAD Mechanical|Company: Autodesk, Inc."
 90
     1024
 91
        1
280
     0
281
     0
  0
CLASS
  1
ACMFCFSTANDARDANSI
  2
AcmFCFStdANSI
  3
"Amdt_StdImp|Product Description: AutoCAD Mechanical|Company: Autodesk, Inc."
 90
     1024
 91
        1
280
     0
281
     0
  0
CLASS
  1
ACMWELDSTANDARDANSI
  2
AcmWeldingStdANSI
  3
"Amdt_StdImp|Product Description: AutoCAD Mechanical|Company: Autodesk, Inc."
 90
     1024
 91
        1
280
     0
281
     0
  0
CLASS
  1
ACMIDSTANDARDANSI
  2
AcmIdStdANSI
  3
"Amdt_StdImp|Product Description: AutoCAD Mechanical|Company: Autodesk, Inc."
 90
     1024
 91
        1
280
     0
281
     0
  0
CLASS
  1
ACMDATUMSTANDARDANSI
  2
AcmDatumStdANSI
  3
"Amdt_StdImp|Product Description: AutoCAD Mechanical|Company: Autodesk, Inc."
 90
     1024
 91
        1
280
     0
281
     0
  0
CLASS
  1
ACMBOMSTANDARDANSI
  2
AcmBOMStdANSI
  3
"Amdt_StdImp|Product Description: AutoCAD Mechanical|Company: Autodesk, Inc."
 90
     1024
 91
        1
280
     0
281
     0
  0
CLASS
  1
ACMDETAILSTANDARDANSI
  2
AmdtDetailSymStdANSI
  3
"Amdt_StdImp|Product Description: AutoCAD Mechanical|Company: Autodesk, Inc."
 90
     1024
 91
        1
280
     0
281
     0
  0
CLASS
  1
ACMSECTIONSTANDARDANSI
  2
AmdtSectionSymStdANSI
  3
"Amdt_StdImp|Product Description: AutoCAD Mechanical|Company: Autodesk, Inc."
 90
     1024
 91
        1
280
     0
281
     0
  0
CLASS
  1
ACMCENTERLINESTANDARDANSI
  2
AmdtCenterLineStdANSI
  3
"Amdt_StdImp|Product Description: AutoCAD Mechanical|Company: Autodesk, Inc."
 90
     1024
 91
        1
280
     0
281
     0
  0
CLASS
  1
ACMTHREADLINESTANDARDANSI
  2
AmdtThreadLineStdANSI
  3
"Amdt_StdImp|Product Description: AutoCAD Mechanical|Company: Autodesk, Inc."
 90
     1024
 91
        1
280
     0
281
     0
  0
CLASS
  1
ACMNOTESTANDARDANSI
  2
AmdtNoteStdANSI
  3
"Amdt_StdImp|Product Description: AutoCAD Mechanical|Company: Autodesk, Inc."
 90
     1024
 91
        1
280
     0
281
     0
  0
CLASS
  1
ACMTAPERSTANDARDANSI
  2
AcmTaperStdANSI
  3
"Amdt_StdImp|Product Description: AutoCAD Mechanical|Company: Autodesk, Inc."
 90
     1024
 91
        1
280
     0
281
     0
  0
CLASS
  1
ACMANOOTATIONVIEWSTANDARDANSI
  2
AmdtAnViewStdANSI
  3
"Amdt_StdImp|Product Description: AutoCAD Mechanical|Company: Autodesk, Inc."
 90
     1024
 91
        1
280
     0
281
     0
  0
CLASS
  1
ACAMGLAYSTD
  2
AcAmgLayStd
  3
"AmgLay|Product Description: AutoCAD Mechanical|Company: Autodesk, Inc."
 90
     1024
 91
        2
280
     0
281
     0
  0
CLASS
  1
ACAMGDIMSTD
  2
AcAmgDimStd
  3
"AmgDim|Product Description: AutoCAD Mechanical|Company: Autodesk, Inc."
 90
     1024
 91
        2
280
     0
281
     0
  0
CLASS
  1
ACAMGHOLECHARTSTDANSI
  2
AcAmgHoleChartStdANSI
  3
"AmgDim" "Product Description: AutoCAD Mechanical|Company: Autodesk, Inc."
 90
     1024
 91
        1
280
     0
281
     0
  0
CLASS
  1
AMGOBJPROPCFG
  2
AmgObjPropCfg
  3
"AmgLay|Product Description: AutoCAD Mechanical|Company: Autodesk, Inc."
 90
     1024
 91
        1
280
     0
281
     0
  0
CLASS
  1
ACAMGTITLESTD
  2
AcAmgTitleStd
  3
"AmgTitle|Product Description: AutoCAD Mechanical|Company: Autodesk, Inc."
 90
     1024
 91
        2
280
     0
281
     0
  0
CLASS
  1
ACMSECTIONSTANDARDCUSTOM
  2
AmdtSectionSymStdCustom
  3
"Amdt_StdImp|Product Description: AutoCAD Mechanical|Company: Autodesk, Inc."
 90
     1024
 91
        6
280
     0
281
     0
  0
CLASS
  1
ACMDETAILTANDARDCUSTOM
  2
AmdtDetailSymStdCustom
  3
"Amdt_StdImp|Product Description: AutoCAD Mechanical|Company: Autodesk, Inc."
 90
     1024
 91
        6
280
     0
281
     0
  0
CLASS
  1
FIELD
  2
AcDbField
  3
ObjectDBX Classes
 90
     1152
 91
       14
280
     0
281
     0
  0
CLASS
  1
FIELDLIST
  2
AcDbFieldList
  3
ObjectDBX Classes
 90
     1152
 91
        1
280
     0
281
     0
  0
CLASS
  1
AMDTNOTETEMPLATEDB
  2
AmdtNoteTemplateDB
  3
"AcmSymBB" "Product Description: AutoCAD Mechanical|Company: Autodesk, Inc."
 90
     1024
 91
       17
280
     0
281
     0
  0
CLASS
  1
CAMSSTRUCTBTNSTATE
  2
StructBtnState
  3
DesignerAssemblies_arx
 90
     1024
 91
        0
280
     0
281
     0
  0
CLASS
  1
DICTIONARYVAR
  2
AcDbDictionaryVar
  3
ObjectDBX Classes
 90
        0
 91
       11
280
     0
281
     0
  0
CLASS
  1
ACAMGFILTERDAT
  2
AcAmgFilterDat
  3
"AcadM|Product Description: AutoCAD Mechanical|Company: Autodesk, Inc."
 90
     1024
 91
        0
280
     0
281
     0
  0
CLASS
  1
CELLSTYLEMAP
  2
AcDbCellStyleMap
  3
ObjectDBX Classes
 90
     1152
 91
        2
280
     0
281
     0
  0
CLASS
  1
SORTENTSTABLE
  2
AcDbSortentsTable
  3
ObjectDBX Classes
 90
        0
 91
        2
280
     0
281
     0
  0
CLASS
  1
ACMSTANDARDJIS
  2
AcmStandardJIS
  3
"Amdt_StdImp|Product Description: AutoCAD Mechanical|Company: Autodesk, Inc."
 90
     1024
 91
        1
280
     0
281
     0
  0
CLASS
  1
ACMSURFSTANDARDJIS2003
  2
AcmSurfTextStdJIS2003
  3
"Amdt_StdImp|Product Description: AutoCAD Mechanical|Company: Autodesk, Inc."
 90
     1024
 91
        1
280
     0
281
     0
  0
CLASS
  1
ACMFCFSTANDARDJIS98
  2
AcmFCFStdJIS98
  3
"Amdt_StdImp|Product Description: AutoCAD Mechanical|Company: Autodesk, Inc."
 90
     1024
 91
        1
280
     0
281
     0
  0
CLASS
  1
ACMWELDSTANDARDJIS
  2
AcmWeldingStdJIS
  3
"Amdt_StdImp|Product Description: AutoCAD Mechanical|Company: Autodesk, Inc."
 90
     1024
 91
        1
280
     0
281
     0
  0
CLASS
  1
ACMIDSTANDARDJIS1998
  2
AcmIdStdJIS1998
  3
"Amdt_StdImp|Product Description: AutoCAD Mechanical|Company: Autodesk, Inc."
 90
     1024
 91
        1
280
     0
281
     0
  0
CLASS
  1
ACMDATUMSTANDARDJIS
  2
AcmDatumStdJIS
  3
"Amdt_StdImp|Product Description: AutoCAD Mechanical|Company: Autodesk, Inc."
 90
     1024
 91
        1
280
     0
281
     0
  0
CLASS
  1
ACMBOMSTANDARDJIS
  2
AcmBOMStdJIS
  3
"Amdt_StdImp|Product Description: AutoCAD Mechanical|Company: Autodesk, Inc."
 90
     1024
 91
        1
280
     0
281
     0
  0
CLASS
  1
ACMDETAILSTANDARDJIS
  2
AmdtDetailSymStdJIS
  3
"Amdt_StdImp|Product Description: AutoCAD Mechanical|Company: Autodesk, Inc."
 90
     1024
 91
        1
280
     0
281
     0
  0
CLASS
  1
ACMSECTIONSTANDARDJIS
  2
AmdtSectionSymStdJIS
  3
"Amdt_StdImp|Product Description: AutoCAD Mechanical|Company: Autodesk, Inc."
 90
     1024
 91
        1
280
     0
281
     0
  0
CLASS
  1
ACMCENTERLINESTANDARDJIS
  2
AmdtCenterLineStdJIS
  3
"Amdt_StdImp|Product Description: AutoCAD Mechanical|Company: Autodesk, Inc."
 90
     1024
 91
        1
280
     0
281
     0
  0
CLASS
  1
ACMTHREADLINESTANDARDJIS
  2
AmdtThreadLineStdJIS
  3
"Amdt_StdImp|Product Description: AutoCAD Mechanical|Company: Autodesk, Inc."
 90
     1024
 91
        1
280
     0
281
     0
  0
CLASS
  1
ACMNOTESTANDARDJIS
  2
AmdtNoteStdJIS
  3
"Amdt_StdImp|Product Description: AutoCAD Mechanical|Company: Autodesk, Inc."
 90
     1024
 91
        1
280
     0
281
     0
  0
CLASS
  1
ACMTAPERSTANDARDJIS
  2
AcmTaperStdJIS
  3
"Amdt_StdImp|Product Description: AutoCAD Mechanical|Company: Autodesk, Inc."
 90
     1024
 91
        1
280
     0
281
     0
  0
CLASS
  1
ACMANOOTATIONVIEWSTANDARDJIS
  2
AmdtAnViewStdJIS
  3
"Amdt_StdImp|Product Description: AutoCAD Mechanical|Company: Autodesk, Inc."
 90
     1024
 91
        1
280
     0
281
     0
  0
CLASS
  1
AMDTEDGESTANDARDJIS
  2
AmdtEdgeStdJIS
  3
"Amdt_StdImp|Product Description: AutoCAD Mechanical|Company: Autodesk, Inc."
 90
     1024
 91
        1
280
     0
281
     0
  0
CLASS
  1
ACAMGHOLECHARTSTDJIS
  2
AcAmgHoleChartStdJIS
  3
"AmgDim" "Product Description: AutoCAD Mechanical|Company: Autodesk, Inc."
 90
     1024
 91
        1
280
     0
281
     0
  0
CLASS
  1
ACDBASSOC2DCONSTRAINTGROUP
  2
AcDbAssoc2dConstraintGroup
  3
ObjectDBX Classes
 90
     1025
 91
        2
280
     0
281
     0
  0
CLASS
  1
ACDBASSOCGEOMDEPENDENCY
  2
AcDbAssocGeomDependency
  3
ObjectDBX Classes
 90
     1025
 91
        4
280
     0
281
     0
  0
CLASS
  1
ACDBASSOCNETWORK
  2
AcDbAssocNetwork
  3
ObjectDBX Classes
 90
     1025
 91
        3
280
     0
281
     0
  0
ENDSEC
  0
SECTION
  2
TABLES
  0
TABLE
  2
VPORT
  5
BF9C
330
0
100
AcDbSymbolTable
 70
     1
  0
VPORT
  5
C007
330
BF9C
100
AcDbSymbolTableRecord
100
AcDbViewportTableRecord
  2
*ACTIVE
 70
     0
 10
0.0
 20
0.0
 11
1.0
 21
1.0
 12
1926.797518722039
 22
1400.138307149552
 13
0.0
 23
0.0
 14
1.0
 24
1.0
 15
0.0
 25
0.0
 16
0.0
 26
0.0
 36
1.0
 17
0.0
 27
0.0
 37
0.0
 40
3131.311799912658
 41
1.887694145758661
 42
50.0
 43
0.0
 44
0.0
 50
0.0
 51
0.0
 71
     0
 72
   100
 73
     1
 74
     1
 75
     0
 76
     0
 77
     0
 78
     0
281
     0
 65
     0
110
0.0
120
0.0
130
0.0
111
1.0
121
0.0
131
0.0
112
0.0
122
1.0
132
0.0
 79
     0
146
0.0
348
BFC3
 60
     3
 61
     5
292
     1
282
     0
141
0.0
142
0.0
 63
   250
421
  3355443
1001
ACAD_NAV_VCDISPLAY
1070
     3
  0
ENDTAB
  0
TABLE
  2
LTYPE
  5
BF99
330
0
100
AcDbSymbolTable
 70
    19
  0
LTYPE
  5
BFEE
330
BF99
100
AcDbSymbolTableRecord
100
AcDbLinetypeTableRecord
  2
ByBlock
 70
     0
  3

 72
    65
 73
     0
 40
0.0
  0
LTYPE
  5
BFEF
330
BF99
100
AcDbSymbolTableRecord
100
AcDbLinetypeTableRecord
  2
ByLayer
 70
     0
  3

 72
    65
 73
     0
 40
0.0
  0
LTYPE
  5
BFF0
330
BF99
100
AcDbSymbolTableRecord
100
AcDbLinetypeTableRecord
  2
CONTINUOUS
 70
     0
  3
Solid line
 72
    65
 73
     0
 40
0.0
  0
LTYPE
  5
C008
330
BF99
100
AcDbSymbolTableRecord
100
AcDbLinetypeTableRecord
  2
HIDDEN
 70
     0
  3
_ _ _ _ _ _ _ _ _ _ _ _ _ _ _ _ _ _ _ _ _ _ _
 72
    65
 73
     2
 40
0.375
 49
0.25
 74
     0
 49
-0.125
 74
     0
  0
LTYPE
  5
C009
330
BF99
100
AcDbSymbolTableRecord
100
AcDbLinetypeTableRecord
  2
CENTER
 70
     0
  3
____ _ ____ _ ____ _ ____ _ ____ _ ____ _ ____
 72
    65
 73
     4
 40
2.0
 49
1.25
 74
     0
 49
-0.25
 74
     0
 49
0.25
 74
     0
 49
-0.25
 74
     0
  0
LTYPE
  5
C00B
330
BF99
100
AcDbSymbolTableRecord
100
AcDbLinetypeTableRecord
  2
HIDDEN2
 70
     0
  3
_ _ _ _ _ _ _ _ _ _ _ _ _ _ _ _ _ _ _ _ _ _ _ _
 72
    65
 73
     2
 40
0.1875
 49
0.125
 74
     0
 49
-0.0625
 74
     0
  0
LTYPE
  5
C00C
330
BF99
100
AcDbSymbolTableRecord
100
AcDbLinetypeTableRecord
  2
PHANTOM2
 70
     0
  3
Phantom (.5x) ___ _ _ ___ _ _ ___ _ _ ___ _ _
 72
    65
 73
     6
 40
1.25
 49
0.625
 74
     0
 49
-0.125
 74
     0
 49
0.125
 74
     0
 49
-0.125
 74
     0
 49
0.125
 74
     0
 49
-0.125
 74
     0
  0
LTYPE
  5
C010
330
BF99
100
AcDbSymbolTableRecord
100
AcDbLinetypeTableRecord
  2
AMCONSTR
 70
     0
  3
_______________________
 72
    65
 73
     2
 40
9999.0
 49
9999.0
 74
     0
 49
0.0
 74
     0
  0
LTYPE
  5
C014
330
BF99
100
AcDbSymbolTableRecord
100
AcDbLinetypeTableRecord
  2
CENTER2
 70
     0
  3
Center (.5x) ___ _ ___ _ ___ _ ___ _ ___ _ ___
 72
    65
 73
     4
 40
1.125
 49
0.75
 74
     0
 49
-0.125
 74
     0
 49
0.125
 74
     0
 49
-0.125
 74
     0
  0
LTYPE
  5
C015
330
BF99
100
AcDbSymbolTableRecord
100
AcDbLinetypeTableRecord
  2
AMZIGZAG2
 70
     0
  3
/\/-/\/-/\/-/\/-/\/-/\/
 72
    65
 73
     2
 40
0.4401
 49
0.0001
 74
     0
 49
-0.4400000000000003
 74
     0
  0
LTYPE
  5
C016
330
BF99
100
AcDbSymbolTableRecord
100
AcDbLinetypeTableRecord
  2
ACANSTGB
 70
     0
  3
__ . . __ . .
 72
    65
 73
     6
 40
0.35433070866
 49
0.15748031496
 74
     0
 49
-0.03937007874
 74
     0
 49
0.03937007874
 74
     0
 49
-0.03937007874
 74
     0
 49
0.03937007874
 74
     0
 49
-0.03937007874
 74
     0
  0
LTYPE
  5
C017
330
BF99
100
AcDbSymbolTableRecord
100
AcDbLinetypeTableRecord
  2
ACANSTGL
 70
     0
  3
_ _ _ _ _
 72
    65
 73
     2
 40
0.11811023622
 49
0.07874015748
 74
     0
 49
-0.03937007874
 74
     0
  0
LTYPE
  5
C6E7
330
BF99
100
AcDbSymbolTableRecord
100
AcDbLinetypeTableRecord
  2
AM_ISO02W050
 70
     0
  3
__ __ __ __ __ __ __ __ __ __ __ __ __ __ __
 72
    65
 73
     2
 40
7.5
 49
6.0
 74
     0
 49
-1.5
 74
     0
  0
LTYPE
  5
C6E8
330
BF99
100
AcDbSymbolTableRecord
100
AcDbLinetypeTableRecord
  2
AM_ISO08W050
 70
     0
  3
____ . ____ . ____ . ____ . ____ . ____ . ____
 72
    65
 73
     4
 40
18.0
 49
12.0
 74
     0
 49
-1.5
 74
     0
 49
3.0
 74
     0
 49
-1.5
 74
     0
  0
LTYPE
  5
C6EA
330
BF99
100
AcDbSymbolTableRecord
100
AcDbLinetypeTableRecord
  2
AM_ISO08W050x2
 70
     0
  3
__ . __ . __ . __ . __ . __
 72
    65
 73
     4
 40
9.0
 49
6.0
 74
     0
 49
-0.75
 74
     0
 49
1.5
 74
     0
 49
-0.75
 74
     0
  0
LTYPE
  5
C6EB
330
BF99
100
AcDbSymbolTableRecord
100
AcDbLinetypeTableRecord
  2
AM_ISO02W050x2
 70
     0
  3
 _ _ _ _ _ _ _ _ _ _ _ _
 72
    65
 73
     2
 40
3.75
 49
3.0
 74
     0
 49
-0.75
 74
     0
  0
LTYPE
  5
C6EE
330
BF99
100
AcDbSymbolTableRecord
100
AcDbLinetypeTableRecord
  2
Amzigzag
 70
     0
  3
/\/-/\/-/\/-/\/-/\/-/\/
 72
    65
 73
     2
 40
11.0001
 49
0.0001
 74
     4
 75
   136
340
C6ED
 46
0.04
 50
0.0
 44
0.0
 45
0.0
 49
-11.0
 74
     0
  0
LTYPE
  5
C77A
330
BF99
100
AcDbSymbolTableRecord
100
AcDbLinetypeTableRecord
  2
ACJISWELD
 70
     0
  3
_ _ _ _ _
 72
    65
 73
     2
 40
2.0
 49
2.0
 74
     0
 49
-1.0
 74
     0
  0
LTYPE
  5
C77B
330
BF99
100
AcDbSymbolTableRecord
100
AcDbLinetypeTableRecord
  2
ACJISTGL
 70
     0
  3
_ _ _ _ _
 72
    65
 73
     2
 40
3.0
 49
2.0
 74
     0
 49
-1.0
 74
     0
  0
LTYPE
  5
C77C
330
BF99
100
AcDbSymbolTableRecord
100
AcDbLinetypeTableRecord
  2
ACJISTGB
 70
     0
  3
__ . . __ . .
 72
    65
 73
     6
 40
9.0
 49
4.0
 74
     0
 49
-1.0
 74
     0
 49
1.0
 74
     0
 49
-1.0
 74
     0
 49
1.0
 74
     0
 49
-1.0
 74
     0
  0
ENDTAB
  0
TABLE
  2
LAYER
  5
BF96
102
{ACAD_XDICTIONARY
360
C10A
102
}
330
0
100
AcDbSymbolTable
 70
     6
  0
LAYER
  5
BFE8
102
{ACAD_XDICTIONARY
360
C0B4
102
}
330
BF96
100
AcDbSymbolTableRecord
100
AcDbLayerTableRecord
  2
0
 70
     0
 62
     7
  6
CONTINUOUS
370
    -3
390
BFA3
347
BFB5
  0
LAYER
  5
C01B
330
BF96
100
AcDbSymbolTableRecord
100
AcDbLayerTableRecord
  2
DEFPOINTS
 70
     0
 62
     7
  6
CONTINUOUS
290
     0
370
    -3
390
BFA3
347
BFB5
  0
ENDTAB
  0
TABLE
  2
STYLE
  5
BF97
330
0
100
AcDbSymbolTable
 70
     6
  0
STYLE
  5
BFE9
330
BF97
100
AcDbSymbolTableRecord
100
AcDbTextStyleTableRecord
  2
STANDARD
 70
     0
 40
0.0
 41
1.0
 50
0.0
 71
     0
 42
30.0
  3
TXT
  4
bigfont
  0
STYLE
  5
C01C
330
BF97
100
AcDbSymbolTableRecord
100
AcDbTextStyleTableRecord
  2
MONO-SET
 70
     0
 40
0.0
 41
1.0
 50
0.0
 71
     0
 42
20.0
  3
MONOTXT
  4
BIGFONT
  0
STYLE
  5
C01D
330
BF97
100
AcDbSymbolTableRecord
100
AcDbTextStyleTableRecord
  2
ACANSGDT
 70
     0
 40
0.0
 41
1.0
 50
0.0
 71
     0
 42
30.0
  3
amgdt.shx
  4

  0
STYLE
  5
C6ED
330
BF97
100
AcDbSymbolTableRecord
100
AcDbTextStyleTableRecord
  2

 70
     1
 40
0.0
 41
1.0
 50
0.0
 71
     0
 42
30.0
  3
genltshp.shx
  4

  0
STYLE
  5
C785
330
BF97
100
AcDbSymbolTableRecord
100
AcDbTextStyleTableRecord
  2
ACJISGDT
 70
     0
 40
0.0
 41
1.0
 50
0.0
 71
     0
 42
2.5
  3
amgdt.shx
  4
extfont2.shx
  0
ENDTAB
  0
TABLE
  2
VIEW
  5
BF9A
330
0
100
AcDbSymbolTable
 70
     1
  0
VIEW
  5
C01F
330
BF9A
100
AcDbSymbolTableRecord
100
AcDbViewTableRecord
  2
ALL
 70
     0
 40
5940.0
 10
4317.66954377312
 20
2970.0
 41
8635.339087546238
 11
0.0
 21
0.0
 31
1.0
 12
0.0
 22
0.0
 32
0.0
 42
50.0
 43
0.0
 44
0.0
 50
0.0
 71
     0
281
     0
 72
     0
 73
     0
348
BFC3
  0
ENDTAB
  0
TABLE
  2
UCS
  5
BF9B
330
0
100
AcDbSymbolTable
 70
     0
  0
ENDTAB
  0
TABLE
  2
APPID
  5
BF9D
330
0
100
AcDbSymbolTable
 70
    30
  0
APPID
  5
BFEA
330
BF9D
100
AcDbSymbolTableRecord
100
AcDbRegAppTableRecord
  2
ACAD
 70
     0
  0
APPID
  5
BFF1
330
BF9D
100
AcDbSymbolTableRecord
100
AcDbRegAppTableRecord
  2
ACADANNOTATIVE
 70
     0
  0
APPID
  5
C020
330
BF9D
100
AcDbSymbolTableRecord
100
AcDbRegAppTableRecord
  2
ACE-LT__COPYRIGHT_TRIALSOFT-JPN
 70
     0
  0
APPID
  5
C021
330
BF9D
100
AcDbSymbolTableRecord
100
AcDbRegAppTableRecord
  2
MCAD_NO_VIS
 70
     0
  0
APPID
  5
C022
330
BF9D
100
AcDbSymbolTableRecord
100
AcDbRegAppTableRecord
  2
ACAD_TEMP_GRAPHIC
 70
     0
  0
APPID
  5
C023
330
BF9D
100
AcDbSymbolTableRecord
100
AcDbRegAppTableRecord
  2
ACATTRIBSERVICES
 70
     0
  0
APPID
  5
C024
330
BF9D
100
AcDbSymbolTableRecord
100
AcDbRegAppTableRecord
  2
DESIGNERASSEMBLIES
 70
     0
  0
APPID
  5
C025
330
BF9D
100
AcDbSymbolTableRecord
100
AcDbRegAppTableRecord
  2
ACAD_DSTYLE_DIMJAG
 70
     0
  0
APPID
  5
C026
330
BF9D
100
AcDbSymbolTableRecord
100
AcDbRegAppTableRecord
  2
ACAD_DSTYLE_DIMBREAK
 70
     0
  0
APPID
  5
C027
330
BF9D
100
AcDbSymbolTableRecord
100
AcDbRegAppTableRecord
  2
ACAD_NAV_VCDISPLAY
 70
     0
  0
APPID
  5
C028
330
BF9D
100
AcDbSymbolTableRecord
100
AcDbRegAppTableRecord
  2
ACAD_DSTYLE_DIMTALN
 70
     0
  0
APPID
  5
C029
330
BF9D
100
AcDbSymbolTableRecord
100
AcDbRegAppTableRecord
  2
ACAD_PSEXT
 70
     0
  0
APPID
  5
C02A
330
BF9D
100
AcDbSymbolTableRecord
100
AcDbRegAppTableRecord
  2
ACAD_EXEMPT_FROM_CAD_STANDARDS
 70
     0
  0
APPID
  5
C02B
330
BF9D
100
AcDbSymbolTableRecord
100
AcDbRegAppTableRecord
  2
GENIUS_GENTRA_14
 70
     0
  0
APPID
  5
C02C
330
BF9D
100
AcDbSymbolTableRecord
100
AcDbRegAppTableRecord
  2
GENIUS_GENODEF_13
 70
     0
  0
APPID
  5
C02D
330
BF9D
100
AcDbSymbolTableRecord
100
AcDbRegAppTableRecord
  2
GENIUS_GENOBJ-N-LIB_13
 70
     0
  0
APPID
  5
C02E
330
BF9D
100
AcDbSymbolTableRecord
100
AcDbRegAppTableRecord
  2
GENIUS_GENOBJ-N-RSBK_13
 70
     0
  0
APPID
  5
C02F
330
BF9D
100
AcDbSymbolTableRecord
100
AcDbRegAppTableRecord
  2
GENIUS_GENSCALE_13
 70
     0
  0
APPID
  5
C030
330
BF9D
100
AcDbSymbolTableRecord
100
AcDbRegAppTableRecord
  2
ACAUTHENVIRON
 70
     0
  0
APPID
  5
C031
330
BF9D
100
AcDbSymbolTableRecord
100
AcDbRegAppTableRecord
  2
ACDBDYNAMICBLOCKTRUENAME
 70
     0
  0
APPID
  5
C032
330
BF9D
100
AcDbSymbolTableRecord
100
AcDbRegAppTableRecord
  2
ACDBDYNAMICBLOCKGUID
 70
     0
  0
APPID
  5
C033
330
BF9D
100
AcDbSymbolTableRecord
100
AcDbRegAppTableRecord
  2
ACAD_DSTYLE_DIMINSPECT
 70
     0
  0
APPID
  5
C034
330
BF9D
100
AcDbSymbolTableRecord
100
AcDbRegAppTableRecord
  2
ACAECLAYERSTANDARD
 70
     0
  0
APPID
  5
C035
330
BF9D
100
AcDbSymbolTableRecord
100
AcDbRegAppTableRecord
  2
GENIUS_GENDTOL_13
 70
     0
  0
APPID
  5
C036
330
BF9D
100
AcDbSymbolTableRecord
100
AcDbRegAppTableRecord
  2
ACADANNOMONITORALERTICONDI
 70
     0
  0
APPID
  5
C037
330
BF9D
100
AcDbSymbolTableRecord
100
AcDbRegAppTableRecord
  2
ACAD_MLEADERVER
 70
     0
  0
APPID
  5
C038
330
BF9D
100
AcDbSymbolTableRecord
100
AcDbRegAppTableRecord
  2
ACAD_DSTYLE_DIMARC_LENGTH_
 70
     0
  0
APPID
  5
C039
330
BF9D
100
AcDbSymbolTableRecord
100
AcDbRegAppTableRecord
  2
ACAD_DSTYLE_DIM_LINETYPE
 70
     0
  0
APPID
  5
C03A
330
BF9D
100
AcDbSymbolTableRecord
100
AcDbRegAppTableRecord
  2
ACAD_DSTYLE_DIM_EXT1_LINETYPE
 70
     0
  0
APPID
  5
C03B
330
BF9D
100
AcDbSymbolTableRecord
100
AcDbRegAppTableRecord
  2
ACAD_DSTYLE_DIM_EXT2_LINETYPE
 70
     0
  0
ENDTAB
  0
TABLE
  2
DIMSTYLE
  5
BF9E
330
0
100
AcDbSymbolTable
 70
    18
100
AcDbDimStyleTable
 71
     0
  0
DIMSTYLE
105
BFEB
330
BF9E
100
AcDbSymbolTableRecord
100
AcDbDimStyleTableRecord
  2
STANDARD
 70
     0
271
     2
272
     2
279
     2
284
     7
285
     7
286
     7
340
BFE9
  0
DIMSTYLE
105
C03C
102
{ACAD_REACTORS
330
C6D4
102
}
330
BF9E
100
AcDbSymbolTableRecord
100
AcDbDimStyleTableRecord
  2
AM_ANSI
 70
     0
  4
mm
 41
0.12
 42
0.05
 43
0.5
 44
0.1
 47
0.1
 48
0.1
 78
     7
140
0.12
141
0.0
146
0.71
147
0.06
176
   256
177
   256
178
     2
271
     2
272
     2
279
     2
284
     7
285
     7
286
     7
340
BFE9
  0
DIMSTYLE
105
C03D
330
BF9E
100
AcDbSymbolTableRecord
100
AcDbDimStyleTableRecord
  2
AM_ANSI$3
 70
     0
  4
mm
 41
0.12
 42
0.05
 43
0.5
 44
0.1
 47
0.1
 48
0.1
 78
     7
140
0.12
141
0.0
146
0.71
147
0.06
176
   256
177
   256
178
     2
271
     2
272
     2
279
     2
284
     7
285
     7
286
     7
340
BFE9
  0
DIMSTYLE
105
C03E
330
BF9E
100
AcDbSymbolTableRecord
100
AcDbDimStyleTableRecord
  2
AM_ANSI$4
 70
     0
  4
mm
 41
0.12
 42
0.05
 43
0.5
 44
0.1
 47
0.1
 48
0.1
 78
     7
140
0.12
141
0.0
146
0.71
147
0.06
176
   256
177
   256
178
     2
271
     2
272
     2
279
     2
284
     7
285
     7
286
     7
340
BFE9
  0
DIMSTYLE
105
C03F
330
BF9E
100
AcDbSymbolTableRecord
100
AcDbDimStyleTableRecord
  2
AM_ANSI$7
 70
     0
  4
mm
 41
0.12
 42
0.05
 43
0.5
 44
0.1
 47
0.1
 48
0.1
 78
     7
140
0.12
141
0.0
146
0.71
147
0.06
176
   256
177
   256
178
     2
271
     2
272
     2
279
     2
284
     7
285
     7
286
     7
340
BFE9
  0
DIMSTYLE
105
C040
330
BF9E
100
AcDbSymbolTableRecord
100
AcDbDimStyleTableRecord
  2
AM_ANSI$SF
 70
     0
  4
mm
 41
0.12
 42
0.05
 43
0.5
 44
0.1
 47
0.1
 48
0.1
 75
     1
 76
     1
 78
     7
140
0.12
141
0.0
146
0.71
147
0.06
176
   256
177
   256
178
     2
271
     2
272
     2
279
     2
284
     7
285
     7
286
     7
340
BFE9
  0
DIMSTYLE
105
C041
330
BF9E
100
AcDbSymbolTableRecord
100
AcDbDimStyleTableRecord
  2
AM_ANSI$SH
 70
     0
  4
mm
 41
0.12
 42
0.05
 43
0.5
 44
0.1
 47
0.1
 48
0.1
 75
     1
 76
     1
 78
     7
140
0.12
141
0.0
146
0.71
147
0.06
173
     1
176
   256
177
   256
178
     2
271
     2
272
     2
279
     2
284
     7
285
     7
286
     7
340
BFE9
  0
DIMSTYLE
105
C049
330
BF9E
100
AcDbSymbolTableRecord
100
AcDbDimStyleTableRecord
  2
AM_ANSI$0
 70
     0
  4
mm
 41
0.12
 42
0.05
 43
0.5
 44
0.1
 47
0.1
 48
0.1
 78
     7
140
0.12
141
0.0
146
0.71
147
0.06
176
   256
177
   256
178
     2
271
     2
272
     2
279
     2
284
     7
285
     7
286
     7
340
BFE9
  0
DIMSTYLE
105
C788
102
{ACAD_REACTORS
330
C80B
102
}
330
BF9E
100
AcDbSymbolTableRecord
100
AcDbDimStyleTableRecord
  2
AM_JIS
 70
     0
  4
"
 40
10.0
 41
2.0
 42
1.0
 43
7.0
 44
1.8
 48
0.000000001
 73
     0
 74
     0
 77
     3
 78
     9
 79
     2
 90
        1
140
3.0
141
1.0
143
0.0393701
146
0.71
147
1.5
172
     1
176
   256
177
   256
178
     4
271
     3
272
     3
283
     0
284
     8
340
BFE9
341
C770
342
C770
345
BFEE
346
BFEE
347
BFEE
371
    -1
372
    -1
1001
ACAD_DSTYLE_DIMBREAK
1070
   391
1040
3.75
1001
ACAD_DSTYLE_DIMJAG
1070
   388
1040
1.5
1001
ACAD_DSTYLE_DIMTALN
1070
   392
1070
     0
  0
DIMSTYLE
105
C789
330
BF9E
100
AcDbSymbolTableRecord
100
AcDbDimStyleTableRecord
  2
AM_JIS$3
 70
     0
  4
"
 40
10.0
 41
2.0
 42
1.0
 43
7.0
 44
1.8
 48
0.000000001
 73
     0
 77
     3
 78
     9
 79
     2
 90
        1
140
3.0
141
1.0
143
0.0393701
146
0.71
147
1.5
176
   256
177
   256
178
     4
271
     3
272
     3
283
     0
284
     8
288
     1
289
     0
340
BFE9
341
C770
342
C770
345
BFEE
346
BFEE
347
BFEE
371
    -1
372
    -1
1001
ACAD_DSTYLE_DIMBREAK
1070
   391
1040
3.75
1001
ACAD_DSTYLE_DIMJAG
1070
   388
1040
1.5
1001
ACAD_DSTYLE_DIMTALN
1070
   392
1070
     0
  0
DIMSTYLE
105
C78A
330
BF9E
100
AcDbSymbolTableRecord
100
AcDbDimStyleTableRecord
  2
AM_JIS$4
 70
     0
  4
"
 40
10.0
 41
2.0
 42
1.0
 43
7.0
 44
1.8
 48
0.000000001
 73
     0
 74
     0
 77
     3
 78
     9
 79
     2
 90
        1
140
3.0
141
1.0
143
0.0393701
146
0.71
147
1.5
172
     1
176
   256
177
   256
178
     4
271
     3
272
     3
283
     0
284
     8
340
BFE9
341
C770
342
C770
345
BFEE
346
BFEE
347
BFEE
371
    -1
372
    -1
1001
ACAD_DSTYLE_DIMBREAK
1070
   391
1040
3.75
1001
ACAD_DSTYLE_DIMJAG
1070
   388
1040
1.5
1001
ACAD_DSTYLE_DIMTALN
1070
   392
1070
     0
  0
DIMSTYLE
105
C78B
330
BF9E
100
AcDbSymbolTableRecord
100
AcDbDimStyleTableRecord
  2
AM_JIS$6
 70
     0
  4
"
 40
10.0
 41
2.0
 42
1.0
 43
7.0
 44
1.8
 48
0.000000001
 73
     0
 74
     0
 78
     9
 79
     2
 90
        1
140
3.0
141
1.0
143
0.0393701
146
0.71
147
1.5
172
     1
176
   256
177
   256
178
     4
271
     3
272
     3
283
     0
284
     8
340
BFE9
341
C770
342
C770
345
BFEE
346
BFEE
347
BFEE
371
    -1
372
    -1
1001
ACAD_DSTYLE_DIMBREAK
1070
   391
1040
3.75
1001
ACAD_DSTYLE_DIMJAG
1070
   388
1040
1.5
1001
ACAD_DSTYLE_DIMTALN
1070
   392
1070
     0
  0
DIMSTYLE
105
C78C
330
BF9E
100
AcDbSymbolTableRecord
100
AcDbDimStyleTableRecord
  2
AM_JIS$7
 70
     0
  4
"
 40
10.0
 41
2.0
 42
1.0
 43
7.0
 44
1.8
 48
0.000000001
 73
     0
 74
     0
 77
     3
 78
     9
 79
     2
 90
        1
140
3.0
141
1.0
143
0.0393701
146
0.71
147
1.5
172
     1
176
   256
177
   256
178
     4
271
     3
272
     3
283
     0
284
     8
340
BFE9
341
C770
342
C770
345
BFEE
346
BFEE
347
BFEE
371
    -1
372
    -1
1001
ACAD_DSTYLE_DIMBREAK
1070
   391
1040
3.75
1001
ACAD_DSTYLE_DIMJAG
1070
   388
1040
1.5
1001
ACAD_DSTYLE_DIMTALN
1070
   392
1070
     0
  0
DIMSTYLE
105
C78D
330
BF9E
100
AcDbSymbolTableRecord
100
AcDbDimStyleTableRecord
  2
AM_JIS$SF
 70
     0
  4
"
 40
10.0
 41
2.0
 42
1.0
 43
7.0
 44
1.8
 48
0.000000001
 73
     0
 74
     0
 75
     1
 76
     1
 77
     3
 78
     9
 79
     2
 90
        1
140
3.0
141
1.0
143
0.0393701
146
0.71
147
1.5
172
     1
176
   256
177
   256
178
     4
271
     3
272
     3
283
     0
284
     8
340
BFE9
341
C770
342
C770
345
BFEE
346
BFEE
347
BFEE
371
    -1
372
    -1
1001
ACAD_DSTYLE_DIMBREAK
1070
   391
1040
3.75
1001
ACAD_DSTYLE_DIMJAG
1070
   388
1040
1.5
1001
ACAD_DSTYLE_DIMTALN
1070
   392
1070
     0
  0
DIMSTYLE
105
C78E
330
BF9E
100
AcDbSymbolTableRecord
100
AcDbDimStyleTableRecord
  2
AM_JIS$SH
 70
     0
  4
"
 40
10.0
 41
2.0
 42
1.0
 43
7.0
 44
1.8
 48
0.000000001
 73
     0
 74
     0
 75
     1
 76
     1
 77
     3
 78
     9
 79
     2
 90
        1
140
3.0
141
1.0
143
0.0393701
144
2.0
146
0.71
147
1.5
172
     1
173
     1
176
   256
177
   256
178
     4
271
     3
272
     3
283
     0
284
     8
340
BFE9
341
C770
342
C770
343
C776
345
BFEE
346
BFEE
347
BFEE
371
    -1
372
    -1
1001
ACAD_DSTYLE_DIMBREAK
1070
   391
1040
3.75
1001
ACAD_DSTYLE_DIMJAG
1070
   388
1040
1.5
1001
ACAD_DSTYLE_DIMTALN
1070
   392
1070
     0
  0
DIMSTYLE
105
C78F
330
BF9E
100
AcDbSymbolTableRecord
100
AcDbDimStyleTableRecord
  2
AM_JIS$0
 70
     0
  4
"
 40
10.0
 41
2.0
 42
1.0
 43
7.0
 44
1.8
 48
0.000000001
 73
     0
 74
     0
 77
     3
 78
     9
 79
     2
 90
        1
140
3.0
141
1.0
143
0.0393701
146
0.71
147
1.5
172
     1
176
   256
177
   256
178
     4
271
     3
272
     3
283
     0
284
     8
340
BFE9
341
C770
342
C770
345
BFEE
346
BFEE
347
BFEE
371
    -1
372
    -1
1001
ACAD_DSTYLE_DIMBREAK
1070
   391
1040
3.75
1001
ACAD_DSTYLE_DIMJAG
1070
   388
1040
1.5
1001
ACAD_DSTYLE_DIMTALN
1070
   392
1070
     0
  0
ENDTAB
  0
TABLE
  2
BLOCK_RECORD
  5
BF95
330
0
100
AcDbSymbolTable
 70
    25
  0
BLOCK_RECORD
  5
C003
102
{ACAD_XDICTIONARY
360
C4CB
102
}
330
BF95
100
AcDbSymbolTableRecord
100
AcDbBlockTableRecord
  2
*Model_Space
340
C006
 70
     0
280
     1
281
     0
  0
BLOCK_RECORD
  5
BFFF
330
BF95
100
AcDbSymbolTableRecord
100
AcDbBlockTableRecord
  2
*Paper_Space
340
C002
 70
     0
280
     1
281
     0
  0
BLOCK_RECORD
  5
C052
330
BF95
100
AcDbSymbolTableRecord
100
AcDbBlockTableRecord
  2
INSLYTXT
340
0
102
{BLKREFS
331
3D64
331
3F38
331
3F39
331
3F3A
331
40CA
331
40CB
331
40CC
331
40CE
331
40CF
331
40D0
331
40D1
331
40D2
331
4157
331
4158
331
4159
331
415B
331
415C
331
415D
331
415E
331
4160
331
4161
331
4162
331
91
331
A86
331
3B8C
331
3BE0
102
}
 70
     0
280
     1
281
     0
  0
BLOCK_RECORD
  5
C056
330
BF95
100
AcDbSymbolTableRecord
100
AcDbBlockTableRecord
  2
_ACMFILLEDHALF
340
0
 70
     0
280
     1
281
     0
  0
BLOCK_RECORD
  5
C770
330
BF95
100
AcDbSymbolTableRecord
100
AcDbBlockTableRecord
  2
_Open30
340
0
 70
     0
280
     1
281
     0
  0
BLOCK_RECORD
  5
C776
330
BF95
100
AcDbSymbolTableRecord
100
AcDbBlockTableRecord
  2
GENAXEH
340
0
 70
     0
280
     1
281
     0
  0
ENDTAB
  0
ENDSEC
  0
SECTION
  2
BLOCKS
  0
BLOCK
  5
C004
330
C003
100
AcDbEntity
  8
0
100
AcDbBlockBegin
  2
*Model_Space
 70
     0
 10
0.0
 20
0.0
 30
0.0
  3
*Model_Space
  1

  0
ENDBLK
  5
C005
330
C003
100
AcDbEntity
  8
0
100
AcDbBlockEnd
  0
BLOCK
  5
C000
330
BFFF
100
AcDbEntity
 67
     1
  8
0
100
AcDbBlockBegin
  2
*Paper_Space
 70
     0
 10
0.0
 20
0.0
 30
0.0
  3
*Paper_Space
  1

  0
ENDBLK
  5
C001
330
BFFF
100
AcDbEntity
 67
     1
  8
0
100
AcDbBlockEnd
  0
BLOCK
  5
C053
330
C052
100
AcDbEntity
  8
0
100
AcDbBlockBegin
  2
INSLYTXT
 70
     0
 10
0.0
 20
0.0
 30
0.0
  3
INSLYTXT
  1

  0
ENDBLK
  5
5B
330
C052
100
AcDbEntity
  8
0
100
AcDbBlockEnd
  0
BLOCK
  5
C057
330
C056
100
AcDbEntity
  8
0
100
AcDbBlockBegin
  2
_ACMFILLEDHALF
 70
     0
 10
0.0
 20
0.0
 30
0.0
  3
_ACMFILLEDHALF
  1

  0
TRACE
  5
A703
330
C056
100
AcDbEntity
  8
0
 62
     0
100
AcDbTrace
 10
-0.8
 20
0.0
 30
0.0
 11
-1.0
 21
0.166666666
 31
0.0
 12
0.0
 22
0.0
 32
0.0
 13
0.0
 23
0.0
 33
0.0
  0
LINE
  5
A704
330
C056
100
AcDbEntity
  8
0
 62
     0
100
AcDbLine
 10
-1.0
 20
0.0
 30
0.0
 11
-0.8
 21
0.0
 31
0.0
  0
ENDBLK
  5
A702
330
C056
100
AcDbEntity
  8
0
100
AcDbBlockEnd
  0
BLOCK
  5
C771
330
C770
100
AcDbEntity
  8
0
100
AcDbBlockBegin
  2
_Open30
 70
     0
 10
0.0
 20
0.0
 30
0.0
  3
_Open30
  1

  0
LINE
  5
C772
330
C770
100
AcDbEntity
  8
0
  6
ByBlock
 62
     0
370
    -2
100
AcDbLine
 10
-1.0
 20
0.26794919
 30
0.0
 11
0.0
 21
0.0
 31
0.0
  0
LINE
  5
C773
330
C770
100
AcDbEntity
  8
0
  6
ByBlock
 62
     0
370
    -2
100
AcDbLine
 10
0.0
 20
0.0
 30
0.0
 11
-1.0
 21
-0.26794919
 31
0.0
  0
LINE
  5
C774
330
C770
100
AcDbEntity
  8
0
  6
ByBlock
 62
     0
370
    -2
100
AcDbLine
 10
0.0
 20
0.0
 30
0.0
 11
-1.0
 21
0.0
 31
0.0
  0
ENDBLK
  5
C775
330
C770
100
AcDbEntity
  8
0
100
AcDbBlockEnd
  0
BLOCK
  5
C777
330
C776
100
AcDbEntity
  8
0
100
AcDbBlockBegin
  2
GENAXEH
 70
     0
 10
0.0
 20
0.0
 30
0.0
  3
GENAXEH
  1

  0
LINE
  5
C778
330
C776
100
AcDbEntity
  8
0
100
AcDbLine
 10
-1.0
 20
0.0
 30
0.0
 11
1.0
 21
0.0
 31
0.0
  0
ENDBLK
  5
C779
330
C776
100
AcDbEntity
  8
0
100
AcDbBlockEnd
  0
ENDSEC
  0
SECTION
  2
ENTITIES
  0
INSERT
  5
91
330
C003
100
AcDbEntity
  8
0
100
AcDbBlockReference
  2
INSLYTXT
 10
0.0
 20
0.0
 30
0.0
  0
INSERT
  5
A86
330
C003
100
AcDbEntity
  8
0
100
AcDbBlockReference
  2
INSLYTXT
 10
2512.261080710007
 20
878.7322660464107
 30
0.0
  0
INSERT
  5
3B8C
330
C003
100
AcDbEntity
  8
0
100
AcDbBlockReference
  2
INSLYTXT
 10
8731.16191274985
 20
1495.61415299012
 30
0.0
  0
INSERT
  5
3BE0
330
C003
100
AcDbEntity
  8
0
100
AcDbBlockReference
  2
INSLYTXT
 10
8067.03044157413
 20
733.6651537903427
 30
0.0
  0
INSERT
  5
3D64
330
C003
100
AcDbEntity
  8
0
100
AcDbBlockReference
  2
INSLYTXT
 10
7163.149422934964
 20
602.6778062453332
 30
0.0
  0
INSERT
  5
3F38
330
C003
100
AcDbEntity
  8
0
100
AcDbBlockReference
  2
INSLYTXT
 10
7661.331458775129
 20
636.7764708722273
 30
0.0
  0
INSERT
  5
3F39
330
C003
100
AcDbEntity
  8
0
100
AcDbBlockReference
  2
INSLYTXT
 10
7870.423432019276
 20
636.7764708722273
 30
0.0
 41
0.5
 42
0.5
 43
0.5
  0
INSERT
  5
3F3A
330
C003
100
AcDbEntity
  8
0
100
AcDbBlockReference
  2
INSLYTXT
 10
7870.423432019276
 20
636.7764708722273
 30
0.0
 41
0.5
 42
0.5
 43
0.5
  0
INSERT
  5
40CA
330
C003
100
AcDbEntity
  8
0
100
AcDbBlockReference
  2
INSLYTXT
 10
6593.323123112056
 20
143.3797036029667
 30
0.0
  0
INSERT
  5
40CB
330
C003
100
AcDbEntity
  8
0
100
AcDbBlockReference
  2
INSLYTXT
 10
6802.415096356202
 20
143.3797036029667
 30
0.0
 41
0.5
 42
0.5
 43
0.5
  0
INSERT
  5
40CC
330
C003
100
AcDbEntity
  8
0
100
AcDbBlockReference
  2
INSLYTXT
 10
6802.415096356202
 20
143.3797036029667
 30
0.0
 41
0.5
 42
0.5
 43
0.5
  0
INSERT
  5
40CE
330
C003
100
AcDbEntity
  8
0
100
AcDbBlockReference
  2
INSLYTXT
 10
6544.749335845995
 20
161.705880183784
 30
0.0
  0
INSERT
  5
40CF
330
C003
100
AcDbEntity
  8
0
100
AcDbBlockReference
  2
INSLYTXT
 10
6602.653108147624
 20
268.2541309676384
 30
0.0
  0
INSERT
  5
40D0
330
C003
100
AcDbEntity
  8
0
100
AcDbBlockReference
  2
INSLYTXT
 10
6771.693154337262
 20
112.4943576280262
 30
0.0
  0
INSERT
  5
40D1
330
C003
100
AcDbEntity
  8
0
100
AcDbBlockReference
  2
INSLYTXT
 10
6704.952928851611
 20
161.9572757140603
 30
0.0
  0
INSERT
  5
40D2
330
C003
100
AcDbEntity
  8
0
100
AcDbBlockReference
  2
INSLYTXT
 10
6873.99297504125
 20
6.197502374448102
 30
0.0
  0
INSERT
  5
4157
330
C003
100
AcDbEntity
  8
0
100
AcDbBlockReference
  2
INSLYTXT
 10
6787.947965296709
 20
98.23427414622473
 30
0.0
  0
INSERT
  5
4158
330
C003
100
AcDbEntity
  8
0
100
AcDbBlockReference
  2
INSLYTXT
 10
6997.039938540857
 20
98.23427414622473
 30
0.0
 41
0.5
 42
0.5
 43
0.5
  0
INSERT
  5
4159
330
C003
100
AcDbEntity
  8
0
100
AcDbBlockReference
  2
INSLYTXT
 10
6997.039938540857
 20
98.23427414622473
 30
0.0
 41
0.5
 42
0.5
 43
0.5
  0
INSERT
  5
415B
330
C003
100
AcDbEntity
  8
0
100
AcDbBlockReference
  2
INSLYTXT
 10
6724.407496040254
 20
71.22373370439942
 30
0.0
  0
INSERT
  5
415C
330
C003
100
AcDbEntity
  8
0
100
AcDbBlockReference
  2
INSLYTXT
 10
6790.412984193238
 20
134.1968371439165
 30
0.0
  0
INSERT
  5
415D
330
C003
100
AcDbEntity
  8
0
100
AcDbBlockReference
  2
INSLYTXT
 10
6999.504957437387
 20
134.1968371439165
 30
0.0
 41
0.5
 42
0.5
 43
0.5
  0
INSERT
  5
415E
330
C003
100
AcDbEntity
  8
0
100
AcDbBlockReference
  2
INSLYTXT
 10
6999.504957437387
 20
134.1968371439165
 30
0.0
 41
0.5
 42
0.5
 43
0.5
  0
INSERT
  5
4160
330
C003
100
AcDbEntity
  8
0
100
AcDbBlockReference
  2
INSLYTXT
 10
6779.850110086027
 20
133.6940292634602
 30
0.0
  0
INSERT
  5
4161
330
C003
100
AcDbEntity
  8
0
100
AcDbBlockReference
  2
INSLYTXT
 10
6988.942083330172
 20
133.6940292634602
 30
0.0
 41
0.5
 42
0.5
 43
0.5
  0
INSERT
  5
4162
330
C003
100
AcDbEntity
  8
0
100
AcDbBlockReference
  2
INSLYTXT
 10
6988.942083330172
 20
133.6940292634602
 30
0.0
 41
0.5
 42
0.5
 43
0.5
  0
LINE
  5
9BF9
330
C003
100
AcDbEntity
  8
0
100
AcDbLine
 10
528.8354411451546
 20
2060.089120902563
 30
0.0
 11
498.8354411451545
 21
2060.089124374167
 31
0.0
  0
LINE
  5
9BFA
330
C003
100
AcDbEntity
  8
0
100
AcDbLine
 10
528.8354411451546
 20
2390.088977872457
 30
0.0
 11
498.8354411451545
 21
2390.088974400852
 31
0.0
  0
LINE
  5
9BFC
330
C003
100
AcDbEntity
  8
0
100
AcDbLine
 10
1096.83546201918
 20
2350.089049387516
 30
0.0
 11
430.8354857216308
 21
2350.088960745893
 31
0.0
  0
LINE
  5
9BFD
330
C003
100
AcDbEntity
  8
0
100
AcDbLine
 10
1096.83546201918
 20
2410.089049387505
 30
0.0
 11
430.8354857216308
 21
2410.088960745881
 31
0.0
  0
LINE
  5
9BFE
330
C003
100
AcDbEntity
  8
0
100
AcDbLine
 10
1096.835375694652
 20
1613.5
 30
0.0
 11
430.835441145155
 21
1613.499999999998
 31
0.0
  0
LINE
  5
9BFF
330
C003
100
AcDbEntity
  8
0
100
AcDbLine
 10
1096.835375694652
 20
1724.5
 30
0.0
 11
430.835441145155
 21
1724.5
 31
0.0
  0
LINE
  5
9C00
330
C003
100
AcDbEntity
  8
0
100
AcDbLine
 10
1096.835375694652
 20
1754.500000000001
 30
0.0
 11
430.835441145155
 21
1754.500000000001
 31
0.0
  0
LINE
  5
9C01
330
C003
100
AcDbEntity
  8
0
100
AcDbLine
 10
1096.83546201918
 20
2040.089049387516
 30
0.0
 11
430.8354857216308
 21
2040.088960745892
 31
0.0
  0
LINE
  5
9C02
330
C003
100
AcDbEntity
  8
0
100
AcDbLine
 10
1096.83546201918
 20
2100.089049387505
 30
0.0
 11
430.8354857216308
 21
2100.088960745881
 31
0.0
  0
LINE
  5
9C03
330
C003
100
AcDbEntity
  8
0
100
AcDbLine
 10
487.5181724665599
 20
527.980887011131
 30
0.0
 11
946.695443165372
 21
527.980887011131
 31
0.0
  0
TEXT
  5
9C23
330
C003
100
AcDbEntity
  8
0
100
AcDbText
 10
90.0
 20
2680.0
 30
0.0
 40
30.0
  1
＜外形寸法図＞
100
AcDbText
  0
TEXT
  5
9C24
330
C003
100
AcDbEntity
  8
0
100
AcDbText
 10
89.99999999999998
 20
1170.352626895805
 30
0.0
 40
30.0
  1
＜基礎ボルト位置＞
100
AcDbText
  0
LINE
  5
9C31
330
C003
100
AcDbEntity
  8
0
100
AcDbLine
 10
448.4609217847689
 20
595.1363485703502
 30
0.0
 11
487.5181724665599
 21
527.980887011131
 31
0.0
  0
LINE
  5
9C37
330
C003
100
AcDbEntity
  8
0
100
AcDbLine
 10
395.8354411451543
 20
1689.0
 30
0.0
 11
423.3354411451546
 21
1689.0
 31
0.0
  0
LINE
  5
9C38
330
C003
100
AcDbEntity
  8
0
100
AcDbLine
 10
395.8354411451543
 20
1684.5
 30
0.0
 11
423.335441145154
 21
1684.5
 31
0.0
  0
ARC
  5
9C39
330
C003
100
AcDbEntity
  8
0
100
AcDbCircle
 10
406.2277575404605
 20
1696.409534
 30
0.0
 40
5.090450299999996
100
AcDbArc
 50
47.11668999997841
 51
132.8833700000012
  0
LINE
  5
9C3A
330
C003
100
AcDbEntity
  8
0
100
AcDbLine
 10
395.8354411451543
 20
1681.0
 30
0.0
 11
417.335441145154
 21
1681.0
 31
0.0
  0
LINE
  5
9C3B
330
C003
100
AcDbEntity
  8
0
100
AcDbLine
 10
395.8354411451543
 20
1673.5
 30
0.0
 11
415.835441145154
 21
1673.5
 31
0.0
  0
ARC
  5
9C3C
330
C003
100
AcDbEntity
  8
0
100
AcDbCircle
 10
406.227741145154
 20
1659.609521000001
 30
0.0
 40
5.090450299999996
100
AcDbArc
 50
47.11668999997841
 51
132.8833700000012
  0
ARC
  5
9C3D
330
C003
100
AcDbEntity
  8
0
100
AcDbCircle
 10
420.8354411451554
 20
1727.800000000001
 30
0.0
 40
17.0
100
AcDbArc
 50
97.66225566075876
 51
172.3377443392408
  0
LINE
  5
9C3E
330
C003
100
AcDbEntity
  8
0
100
AcDbLine
 10
430.835441145155
 20
1754.500000000001
 30
0.0
 11
363.8354411451548
 21
1754.500000000001
 31
0.0
  0
LINE
  5
9C3F
330
C003
100
AcDbEntity
  8
0
100
AcDbLine
 10
406.2277575404605
 20
1701.499983000001
 30
0.0
 11
385.4431475404599
 21
1701.499983000001
 31
0.0
  0
LINE
  5
9C40
330
C003
100
AcDbEntity
  8
0
100
AcDbLine
 10
406.227741145154
 20
1664.699970000001
 30
0.0
 11
385.4431361451544
 21
1664.699970000001
 31
0.0
  0
ARC
  5
9C41
330
C003
100
AcDbEntity
  8
0
100
AcDbCircle
 10
406.2277459905685
 20
1640.464285714285
 30
0.0
 40
3.464285714285711
100
AcDbArc
 50
179.4093113971838
 51
0.5906886028161587
  0
ARC
  5
9C42
330
C003
100
AcDbEntity
  8
0
100
AcDbCircle
 10
406.227741145154
 20
1659.790449
 30
0.0
 40
5.090450299999996
100
AcDbArc
 50
227.1166399999852
 51
312.8833169999789
  0
LINE
  5
9C43
330
C003
100
AcDbEntity
  8
0
100
AcDbLine
 10
430.835441145155
 20
1613.5
 30
0.0
 11
370.1354411451553
 21
1613.5
 31
0.0
  0
LINE
  5
9C44
330
C003
100
AcDbEntity
  8
0
100
AcDbLine
 10
385.4431362997425
 20
1637.000000000001
 30
0.0
 11
406.2277459905685
 21
1637.000000000001
 31
0.0
  0
LINE
  5
9C45
330
C003
100
AcDbEntity
  8
0
100
AcDbLine
 10
380.8354411451542
 20
1654.700000000001
 30
0.0
 11
410.835441145154
 21
1654.700000000001
 31
0.0
  0
LINE
  5
9C46
330
C003
100
AcDbEntity
  8
0
100
AcDbLine
 10
377.8354411451551
 20
1628.5
 30
0.0
 11
408.8354411451549
 21
1628.5
 31
0.0
  0
LINE
  5
9C47
330
C003
100
AcDbEntity
  8
0
100
AcDbLine
 10
363.8354411451548
 20
1651.5
 30
0.0
 11
422.3354411451547
 21
1651.500000000001
 31
0.0
  0
LINE
  5
9C48
330
C003
100
AcDbEntity
  8
0
100
AcDbLine
 10
363.8354411451548
 20
1647.0
 30
0.0
 11
422.335441145155
 21
1647.0
 31
0.0
  0
LINE
  5
9C49
330
C003
100
AcDbEntity
  8
0
100
AcDbLine
 10
402.7636575404604
 20
1700.139522000001
 30
0.0
 11
402.7636575404604
 21
1689.0
 31
0.0
  0
LINE
  5
9C4A
330
C003
100
AcDbEntity
  8
0
100
AcDbLine
 10
363.8354411451548
 20
1754.500000000001
 30
0.0
 11
363.8354411451548
 21
1684.5
 31
0.0
  0
LINE
  5
9C4B
330
C003
100
AcDbEntity
  8
0
100
AcDbLine
 10
381.9790575404604
 20
1700.139522000001
 30
0.0
 11
381.9790575404604
 21
1689.0
 31
0.0
  0
LINE
  5
9C4C
330
C003
100
AcDbEntity
  8
0
100
AcDbLine
 10
388.9072375404603
 20
1700.139522000001
 30
0.0
 11
388.9072375404603
 21
1689.0
 31
0.0
  0
LINE
  5
9C4D
330
C003
100
AcDbEntity
  8
0
100
AcDbLine
 10
395.8354411451543
 20
1711.159543302271
 30
0.0
 11
395.8354411451543
 21
1630.876168729482
 31
0.0
  0
LINE
  5
9C4E
330
C003
100
AcDbEntity
  8
0
100
AcDbLine
 10
374.3354411451544
 20
1681.0
 30
0.0
 11
395.8354411451543
 21
1681.0
 31
0.0
  0
LINE
  5
9C4F
330
C003
100
AcDbEntity
  8
0
100
AcDbLine
 10
363.8354411451548
 20
1684.5
 30
0.0
 11
395.8354411451543
 21
1684.5
 31
0.0
  0
LINE
  5
9C50
330
C003
100
AcDbEntity
  8
0
100
AcDbLine
 10
363.8354411451548
 20
1689.0
 30
0.0
 11
395.8354411451543
 21
1689.0
 31
0.0
  0
LINE
  5
9C51
330
C003
100
AcDbEntity
  8
0
100
AcDbLine
 10
375.8354411451543
 20
1673.5
 30
0.0
 11
395.8354411451543
 21
1673.5
 31
0.0
  0
LINE
  5
9C52
330
C003
100
AcDbEntity
  8
0
100
AcDbLine
 10
374.3354411451544
 20
1681.0
 30
0.0
 11
374.3354411451544
 21
1673.5
 31
0.0
  0
LINE
  5
9C53
330
C003
100
AcDbEntity
  8
0
100
AcDbLine
 10
374.3354411451544
 20
1673.5
 30
0.0
 11
375.8354411451543
 21
1673.5
 31
0.0
  0
LINE
  5
9C54
330
C003
100
AcDbEntity
  8
0
100
AcDbLine
 10
370.8354411451551
 20
1614.5
 30
0.0
 11
370.8354411451551
 21
1621.500000000001
 31
0.0
  0
ARC
  5
9C55
330
C003
100
AcDbEntity
  8
0
100
AcDbCircle
 10
366.8354411451547
 20
1616.5
 30
0.0
 40
3.0
100
AcDbArc
 50
180.0
 51
270.0
  0
ARC
  5
9C56
330
C003
100
AcDbEntity
  8
0
100
AcDbCircle
 10
369.8354411451551
 20
1614.5
 30
0.0
 40
1.0
100
AcDbArc
 50
270.0
 51
0.0
  0
LINE
  5
9C57
330
C003
100
AcDbEntity
  8
0
100
AcDbLine
 10
369.8354411451551
 20
1613.5
 30
0.0
 11
366.8354411451547
 21
1613.5
 31
0.0
  0
LINE
  5
9C58
330
C003
100
AcDbEntity
  8
0
100
AcDbLine
 10
363.8354411451548
 20
1616.5
 30
0.0
 11
363.8354411451548
 21
1651.5
 31
0.0
  0
ARC
  5
9C59
330
C003
100
AcDbEntity
  8
0
100
AcDbCircle
 10
377.8354411451551
 20
1621.500000000001
 30
0.0
 40
7.0
100
AcDbArc
 50
90.0
 51
180.0
  0
LINE
  5
9C5A
330
C003
100
AcDbEntity
  8
0
100
AcDbLine
 10
384.0354411451554
 20
1681.0
 30
0.0
 11
384.0354411451549
 21
1684.5
 31
0.0
  0
ARC
  5
9C5B
330
C003
100
AcDbEntity
  8
0
100
AcDbCircle
 10
385.4431361451544
 20
1659.609521000001
 30
0.0
 40
5.090450299999996
100
AcDbArc
 50
47.11663999998524
 51
132.8833200000176
  0
LINE
  5
9C5C
330
C003
100
AcDbEntity
  8
0
100
AcDbLine
 10
387.8088965300949
 20
1673.5
 30
0.0
 11
387.8105330932503
 21
1664.699970000001
 31
0.0
  0
ARC
  5
9C5D
330
C003
100
AcDbEntity
  8
0
100
AcDbCircle
 10
395.8354411451543
 20
1646.378790000001
 30
0.0
 40
18.321183
100
AcDbArc
 50
67.78071000001772
 51
112.2193300000017
  0
LINE
  5
9C5E
330
C003
100
AcDbEntity
  8
0
100
AcDbLine
 10
402.7636443754312
 20
1647.0
 30
0.0
 11
402.7636443754312
 21
1640.500000000001
 31
0.0
  0
ARC
  5
9C5F
330
C003
100
AcDbEntity
  8
0
100
AcDbCircle
 10
385.4431362997425
 20
1640.464285714285
 30
0.0
 40
3.464285714285711
100
AcDbArc
 50
179.4093113971838
 51
0.5906886028161587
  0
LINE
  5
9C60
330
C003
100
AcDbEntity
  8
0
100
AcDbLine
 10
381.9790346846044
 20
1647.0
 30
0.0
 11
381.9790346846044
 21
1640.500000000001
 31
0.0
  0
LINE
  5
9C61
330
C003
100
AcDbEntity
  8
0
100
AcDbLine
 10
388.9072379148802
 20
1647.0
 30
0.0
 11
388.9072379148802
 21
1640.500000000001
 31
0.0
  0
ARC
  5
9C62
330
C003
100
AcDbEntity
  8
0
100
AcDbCircle
 10
385.4431361451544
 20
1659.790449
 30
0.0
 40
5.090450299999996
100
AcDbArc
 50
227.1166899999784
 51
312.8833619999752
  0
LINE
  5
9C63
330
C003
100
AcDbEntity
  8
0
100
AcDbLine
 10
380.8354411451542
 20
1651.500000000001
 30
0.0
 11
380.8354411451542
 21
1654.700000000001
 31
0.0
  0
LINE
  5
9C64
330
C003
100
AcDbEntity
  8
0
100
AcDbLine
 10
387.3354411451543
 20
1651.500000000001
 30
0.0
 11
387.3354411451543
 21
1647.0
 31
0.0
  0
ARC
  5
9C65
330
C003
100
AcDbEntity
  8
0
100
AcDbCircle
 10
395.8354411451555
 20
1645.607142857144
 30
0.0
 40
8.607142857142846
100
AcDbArc
 50
216.3958791981003
 51
323.6041208018997
  0
ARC
  5
9C66
330
C003
100
AcDbEntity
  8
0
100
AcDbCircle
 10
395.8354411451543
 20
1673.021173
 30
0.0
 40
18.321183
100
AcDbArc
 50
247.7806800000021
 51
292.2192999999771
  0
LINE
  5
9C67
330
C003
100
AcDbEntity
  8
0
100
AcDbLine
 10
402.7636311451542
 20
1663.339509000001
 30
0.0
 11
402.7636311451542
 21
1656.060460000001
 31
0.0
  0
LINE
  5
9C68
330
C003
100
AcDbEntity
  8
0
100
AcDbLine
 10
381.9790471451542
 20
1663.339503
 30
0.0
 11
381.9790471451542
 21
1656.060467
 31
0.0
  0
LINE
  5
9C69
330
C003
100
AcDbEntity
  8
0
100
AcDbLine
 10
388.907232145154
 20
1663.339509000001
 30
0.0
 11
388.907232145154
 21
1656.060460000001
 31
0.0
  0
LINE
  5
9C6A
330
C003
100
AcDbEntity
  8
0
100
AcDbLine
 10
372.8354411451551
 20
1727.800000000001
 30
0.0
 11
385.7015098924735
 21
1727.800000000001
 31
0.0
  0
ARC
  5
9C6B
330
C003
100
AcDbEntity
  8
0
100
AcDbCircle
 10
370.8354411451551
 20
1727.800000000001
 30
0.0
 40
17.0
100
AcDbArc
 50
7.662255660759192
 51
82.3377443392412
  0
ARC
  5
9C6C
330
C003
100
AcDbEntity
  8
0
100
AcDbCircle
 10
372.8354411451551
 20
1742.66606874732
 30
0.0
 40
2.0
100
AcDbArc
 50
82.3377443392412
 51
180.0
  0
ARC
  5
9C6D
330
C003
100
AcDbEntity
  8
0
100
AcDbCircle
 10
372.8354411451551
 20
1729.800000000001
 30
0.0
 40
2.0
100
AcDbArc
 50
180.0
 51
270.0
  0
LINE
  5
9C6E
330
C003
100
AcDbEntity
  8
0
100
AcDbLine
 10
370.8354411451551
 20
1729.800000000001
 30
0.0
 11
370.8354411451551
 21
1742.66606874732
 31
0.0
  0
ARC
  5
9C6F
330
C003
100
AcDbEntity
  8
0
100
AcDbCircle
 10
385.4431475404599
 20
1696.409534
 30
0.0
 40
5.090450299999996
100
AcDbArc
 50
47.11663999998524
 51
132.8833200000176
  0
ARC
  5
9C70
330
C003
100
AcDbEntity
  8
0
100
AcDbCircle
 10
385.7015098924735
 20
1729.800000000001
 30
0.0
 40
2.0
100
AcDbArc
 50
270.0
 51
7.662255660759192
  0
ARC
  5
9C71
330
C003
100
AcDbEntity
  8
0
100
AcDbCircle
 10
395.8354475404604
 20
1683.178820000001
 30
0.0
 40
18.321183
100
AcDbArc
 50
67.78071000001772
 51
112.2193300000017
  0
LINE
  5
9C72
330
C003
100
AcDbEntity
  8
0
100
AcDbLine
 10
409.6918475404597
 20
1700.139522000001
 30
0.0
 11
409.6918475404597
 21
1689.0
 31
0.0
  0
ARC
  5
9C73
330
C003
100
AcDbEntity
  8
0
100
AcDbCircle
 10
423.3354411451546
 20
1692.0
 30
0.0
 40
3.0
100
AcDbArc
 50
270.0
 51
0.0
  0
ARC
  5
9C74
330
C003
100
AcDbEntity
  8
0
100
AcDbCircle
 10
423.3354411451546
 20
1692.0
 30
0.0
 40
7.5
100
AcDbArc
 50
270.0
 51
0.0
  0
ARC
  5
9C75
330
C003
100
AcDbEntity
  8
0
100
AcDbCircle
 10
422.335441145155
 20
1643.0
 30
0.0
 40
8.5
100
AcDbArc
 50
0.0
 51
90.0
  0
LINE
  5
9C76
330
C003
100
AcDbEntity
  8
0
100
AcDbLine
 10
407.6354411451545
 20
1681.0
 30
0.0
 11
407.6354411451545
 21
1684.5
 31
0.0
  0
LINE
  5
9C77
330
C003
100
AcDbEntity
  8
0
100
AcDbLine
 10
415.835441145154
 20
1673.5
 30
0.0
 11
417.335441145154
 21
1673.5
 31
0.0
  0
LINE
  5
9C78
330
C003
100
AcDbEntity
  8
0
100
AcDbLine
 10
417.335441145154
 20
1681.0
 30
0.0
 11
417.335441145154
 21
1673.5
 31
0.0
  0
LINE
  5
9C79
330
C003
100
AcDbEntity
  8
0
100
AcDbLine
 10
403.8088971065326
 20
1673.5
 30
0.0
 11
403.8105336696878
 21
1664.699970000001
 31
0.0
  0
ARC
  5
9C7A
330
C003
100
AcDbEntity
  8
0
100
AcDbCircle
 10
422.3354411451547
 20
1643.0
 30
0.0
 40
4.0
100
AcDbArc
 50
0.0
 51
90.0
  0
LINE
  5
9C7B
330
C003
100
AcDbEntity
  8
0
100
AcDbLine
 10
409.6918476057067
 20
1640.500000000001
 30
0.0
 11
409.6918476057067
 21
1647.0
 31
0.0
  0
LINE
  5
9C7C
330
C003
100
AcDbEntity
  8
0
100
AcDbLine
 10
410.835441145154
 20
1651.500000000001
 30
0.0
 11
410.835441145154
 21
1654.700000000001
 31
0.0
  0
LINE
  5
9C7D
330
C003
100
AcDbEntity
  8
0
100
AcDbLine
 10
404.3354411451542
 20
1651.500000000001
 30
0.0
 11
404.3354411451542
 21
1647.0
 31
0.0
  0
LINE
  5
9C7E
330
C003
100
AcDbEntity
  8
0
100
AcDbLine
 10
415.8354411451551
 20
1614.5
 30
0.0
 11
415.8354411451551
 21
1621.500000000001
 31
0.0
  0
ARC
  5
9C7F
330
C003
100
AcDbEntity
  8
0
100
AcDbCircle
 10
416.835441145155
 20
1614.5
 30
0.0
 40
1.0
100
AcDbArc
 50
180.0
 51
270.0
  0
ARC
  5
9C80
330
C003
100
AcDbEntity
  8
0
100
AcDbCircle
 10
408.8354411451549
 20
1621.500000000001
 30
0.0
 40
7.0
100
AcDbArc
 50
0.0
 51
90.0
  0
LINE
  5
9C81
330
C003
100
AcDbEntity
  8
0
100
AcDbLine
 10
426.3354411451548
 20
1613.5
 30
0.0
 11
426.3354411451548
 21
1643.0
 31
0.0
  0
LINE
  5
9C82
330
C003
100
AcDbEntity
  8
0
100
AcDbLine
 10
409.6918211451536
 20
1663.339509000001
 30
0.0
 11
409.6918211451536
 21
1656.060460000001
 31
0.0
  0
LINE
  5
9C83
330
C003
100
AcDbEntity
  8
0
100
AcDbLine
 10
430.835441145155
 20
1613.5
 30
0.0
 11
430.835441145155
 21
1643.0
 31
0.0
  0
ARC
  5
9C84
330
C003
100
AcDbEntity
  8
0
100
AcDbCircle
 10
418.835441145155
 20
1742.66606874732
 30
0.0
 40
2.0
100
AcDbArc
 50
0.0
 51
97.66225566075876
  0
ARC
  5
9C85
330
C003
100
AcDbEntity
  8
0
100
AcDbCircle
 10
405.9693723978365
 20
1729.800000000001
 30
0.0
 40
2.0
100
AcDbArc
 50
172.3377443392408
 51
270.0
  0
ARC
  5
9C86
330
C003
100
AcDbEntity
  8
0
100
AcDbCircle
 10
418.8354411451554
 20
1729.800000000001
 30
0.0
 40
2.0
100
AcDbArc
 50
270.0
 51
0.0
  0
LINE
  5
9C87
330
C003
100
AcDbEntity
  8
0
100
AcDbLine
 10
418.8354411451554
 20
1727.800000000001
 30
0.0
 11
405.9693723978365
 21
1727.800000000001
 31
0.0
  0
LINE
  5
9C88
330
C003
100
AcDbEntity
  8
0
100
AcDbLine
 10
420.8354411451554
 20
1729.800000000001
 30
0.0
 11
420.835441145155
 21
1742.66606874732
 31
0.0
  0
LINE
  5
9C89
330
C003
100
AcDbEntity
  8
0
100
AcDbLine
 10
426.3354411451548
 20
1754.500000000001
 30
0.0
 11
426.3354411451548
 21
1692.0
 31
0.0
  0
LINE
  5
9C8A
330
C003
100
AcDbEntity
  8
0
100
AcDbLine
 10
430.835441145155
 20
1754.500000000001
 30
0.0
 11
430.835441145155
 21
1692.0
 31
0.0
  0
LINE
  5
9C8F
330
C003
100
AcDbEntity
  8
0
100
AcDbLine
 10
393.8454761623573
 20
2106.947730581941
 30
0.0
 11
393.8454761623573
 21
2342.947742413399
 31
0.0
  0
LINE
  5
9C90
330
C003
100
AcDbEntity
  8
0
100
AcDbLine
 10
363.8354411451548
 20
2107.089043471781
 30
0.0
 11
363.8354411451548
 21
2343.089055303239
 31
0.0
  0
LINE
  5
9C91
330
C003
100
AcDbEntity
  8
0
100
AcDbLine
 10
363.8354857216309
 20
2107.089043471782
 30
0.0
 11
430.8354857216308
 21
2107.089043471782
 31
0.0
  0
LINE
  5
9C92
330
C003
100
AcDbEntity
  8
0
100
AcDbLine
 10
363.8354857216309
 20
2102.589043471782
 30
0.0
 11
430.8354857216308
 21
2102.589043471782
 31
0.0
  0
LINE
  5
9C93
330
C003
100
AcDbEntity
  8
0
100
AcDbLine
 10
387.3354648976101
 20
2040.089087131073
 30
0.0
 11
430.8354857216317
 21
2040.089049387518
 31
0.0
  0
LINE
  5
9C94
330
C003
100
AcDbEntity
  8
0
100
AcDbLine
 10
424.8613597402536
 20
2072.089045567173
 30
0.0
 11
366.8096117030091
 21
2072.089045567173
 31
0.0
  0
CIRCLE
  5
9C96
330
C003
100
AcDbEntity
  8
0
100
AcDbCircle
 10
395.8354857216308
 20
2072.089045567173
 30
0.0
 40
21.0
  0
ARC
  5
9C97
330
C003
100
AcDbEntity
  8
0
100
AcDbCircle
 10
387.8354857216308
 20
2064.089087131065
 30
0.0
 40
24.0
100
AcDbArc
 50
180.0
 51
269.9999502863144
  0
LINE
  5
9C98
330
C003
100
AcDbEntity
  8
0
100
AcDbLine
 10
363.8354857216309
 20
2063.589087131065
 30
0.0
 11
363.8354857216309
 21
2107.089043471782
 31
0.0
  0
LINE
  5
9C99
330
C003
100
AcDbEntity
  8
0
100
AcDbLine
 10
395.8354857216308
 20
2043.063171548551
 30
0.0
 11
395.8354857216308
 21
2101.114919585794
 31
0.0
  0
LINE
  5
9C9A
330
C003
100
AcDbEntity
  8
0
100
AcDbLine
 10
426.3354857216308
 20
2102.589043471782
 30
0.0
 11
426.3354857216318
 21
2040.089049387518
 31
0.0
  0
LINE
  5
9C9B
330
C003
100
AcDbEntity
  8
0
100
AcDbLine
 10
430.8354857216308
 20
2107.089043471782
 30
0.0
 11
430.8354857216317
 21
2040.089049387518
 31
0.0
  0
LINE
  5
9C9C
330
C003
100
AcDbEntity
  8
0
100
AcDbLine
 10
387.8354648976224
 20
2410.089032467951
 30
0.0
 11
430.8354857216317
 21
2410.089069777673
 31
0.0
  0
LINE
  5
9C9D
330
C003
100
AcDbEntity
  8
0
100
AcDbLine
 10
363.8354857216309
 20
2347.589075693408
 30
0.0
 11
430.8354857216308
 21
2347.589075693408
 31
0.0
  0
LINE
  5
9C9E
330
C003
100
AcDbEntity
  8
0
100
AcDbLine
 10
363.8354857216309
 20
2343.089075693407
 30
0.0
 11
430.8354857216308
 21
2343.089075693407
 31
0.0
  0
CIRCLE
  5
9C9F
330
C003
100
AcDbEntity
  8
0
100
AcDbCircle
 10
395.8354857216308
 20
2378.089073598018
 30
0.0
 40
21.0
  0
LINE
  5
9CA1
330
C003
100
AcDbEntity
  8
0
100
AcDbLine
 10
424.8613597402536
 20
2378.089073598018
 30
0.0
 11
366.8096117030091
 21
2378.089073598018
 31
0.0
  0
LINE
  5
9CA2
330
C003
100
AcDbEntity
  8
0
100
AcDbLine
 10
424.8613597402536
 20
2378.089053207848
 30
0.0
 11
366.8096117030091
 21
2378.089053207848
 31
0.0
  0
CIRCLE
  5
9CA3
330
C003
100
AcDbEntity
  8
0
100
AcDbCircle
 10
395.8354857216308
 20
2378.089053207848
 30
0.0
 40
21.0
  0
LINE
  5
9CA5
330
C003
100
AcDbEntity
  8
0
100
AcDbLine
 10
363.8354857216309
 20
2347.589055303239
 30
0.0
 11
430.8354857216308
 21
2347.589055303239
 31
0.0
  0
LINE
  5
9CA6
330
C003
100
AcDbEntity
  8
0
100
AcDbLine
 10
363.8354857216309
 20
2343.089055303239
 30
0.0
 11
430.8354857216308
 21
2343.089055303239
 31
0.0
  0
LINE
  5
9CA7
330
C003
100
AcDbEntity
  8
0
100
AcDbLine
 10
387.3354648976101
 20
2410.089011643947
 30
0.0
 11
430.8354857216317
 21
2410.089049387504
 31
0.0
  0
ARC
  5
9CA8
330
C003
100
AcDbEntity
  8
0
100
AcDbCircle
 10
387.8354857216308
 20
2386.089032034126
 30
0.0
 40
24.0
100
AcDbArc
 50
90.00004971365942
 51
180.0
  0
ARC
  5
9CA9
330
C003
100
AcDbEntity
  8
0
100
AcDbCircle
 10
387.8354857216308
 20
2386.089011643956
 30
0.0
 40
24.0
100
AcDbArc
 50
90.00004971368547
 51
180.0
  0
LINE
  5
9CAA
330
C003
100
AcDbEntity
  8
0
100
AcDbLine
 10
363.8354857216309
 20
2386.089032034126
 30
0.0
 11
363.8354857216309
 21
2343.089075693407
 31
0.0
  0
LINE
  5
9CAB
330
C003
100
AcDbEntity
  8
0
100
AcDbLine
 10
363.8354857216309
 20
2386.589011643956
 30
0.0
 11
363.8354857216309
 21
2343.089055303239
 31
0.0
  0
LINE
  5
9CAC
330
C003
100
AcDbEntity
  8
0
100
AcDbLine
 10
395.8354857216308
 20
2407.11494761664
 30
0.0
 11
395.8354857216308
 21
2349.063199579396
 31
0.0
  0
LINE
  5
9CAD
330
C003
100
AcDbEntity
  8
0
100
AcDbLine
 10
395.8354857216308
 20
2407.114927226472
 30
0.0
 11
395.8354857216308
 21
2349.063179189226
 31
0.0
  0
LINE
  5
9CAE
330
C003
100
AcDbEntity
  8
0
100
AcDbLine
 10
426.3354857216308
 20
2347.589075693408
 30
0.0
 11
426.3354857216318
 21
2410.089069777673
 31
0.0
  0
LINE
  5
9CAF
330
C003
100
AcDbEntity
  8
0
100
AcDbLine
 10
426.3354857216308
 20
2347.589055303239
 30
0.0
 11
426.3354857216318
 21
2410.089049387504
 31
0.0
  0
LINE
  5
9CB0
330
C003
100
AcDbEntity
  8
0
100
AcDbLine
 10
430.8354857216308
 20
2343.089075693407
 30
0.0
 11
430.8354857216317
 21
2410.089069777673
 31
0.0
  0
LINE
  5
9CB1
330
C003
100
AcDbEntity
  8
0
100
AcDbLine
 10
430.8354857216308
 20
2343.089055303239
 30
0.0
 11
430.8354857216317
 21
2410.089049387504
 31
0.0
  0
TEXT
  5
9CB4
330
C003
100
AcDbEntity
  8
0
100
AcDbText
 10
929.4131120186539
 20
115.0
 30
0.0
 40
35.0
  1
エアコン防振台
  7
MONO-SET
100
AcDbText
  0
TEXT
  5
9CB5
330
C003
100
AcDbEntity
  8
0
100
AcDbText
 10
950.0
 20
20.0
 30
0.0
 40
35.0
  1
ABM -303ES2A　　　　(耐重塩害仕様)
  7
MONO-SET
100
AcDbText
  0
LINE
  5
9CBD
330
C003
100
AcDbEntity
  8
0
100
AcDbLine
 10
933.8316245617432
 20
1643.5
 30
0.0
 11
783.8316245625102
 21
1643.5
 31
0.0
  0
LINE
  5
9CBE
330
C003
100
AcDbEntity
  8
0
100
AcDbLine
 10
597.2038070990497
 20
2490.238541274086
 30
0.0
 11
922.4627873275057
 21
2490.238541274086
 31
0.0
  0
TEXT
  5
9CBF
330
C003
100
AcDbEntity
  8
0
100
AcDbText
 10
612.0355905058427
 20
2502.460961942523
 30
0.0
 40
25.0
  1
4-%%c12<機器取付穴>
 72
     2
 11
912.0355905058428
 21
2502.460961942523
 31
0.0
100
AcDbText
  0
LINE
  5
9CC2
330
C003
100
AcDbEntity
  8
0
100
AcDbLine
 10
723.8316245617433
 20
1643.5
 30
0.0
 11
430.8207225193934
 21
1643.500000000004
 31
0.0
  0
LINE
  5
9CC3
330
C003
100
AcDbEntity
  8
0
100
AcDbLine
 10
643.8354084199036
 20
1749.500000000002
 30
0.0
 11
883.8354084199036
 21
1749.500000000002
 31
0.0
  0
LINE
  5
9CC4
330
C003
100
AcDbEntity
  8
0
100
AcDbLine
 10
643.8354084199036
 20
1729.500000000002
 30
0.0
 11
883.8354084199036
 21
1729.500000000002
 31
0.0
  0
TEXT
  5
9CC5
330
C003
100
AcDbEntity
  8
0
100
AcDbText
 10
652.2184843748392
 20
532.6095056905765
 30
0.0
 40
25.0
  1
＜基礎ボルト穴＞
100
AcDbText
  0
LINE
  5
9CD1
330
C003
100
AcDbEntity
  8
0
100
AcDbLine
 10
513.8354411451546
 20
1655.621275060173
 30
0.0
 11
513.8354411451546
 21
1599.426577359305
 31
0.0
  0
LINE
  5
9CD2
330
C003
100
AcDbEntity
  8
0
100
AcDbLine
 10
513.8354411451546
 20
1766.621275060172
 30
0.0
 11
513.8354411451546
 21
1710.426577359305
 31
0.0
  0
LINE
  5
9CD3
330
C003
100
AcDbEntity
  8
0
100
AcDbLine
 10
643.8354084199036
 20
1749.500000000002
 30
0.0
 11
643.8354084199036
 21
1729.500000000002
 31
0.0
  0
LINE
  5
9CF6
330
C003
100
AcDbEntity
  8
0
100
AcDbLine
 10
883.8354084199036
 20
1749.500000000002
 30
0.0
 11
883.8354084199036
 21
1729.500000000002
 31
0.0
  0
CIRCLE
  5
9CF7
330
C003
100
AcDbEntity
  8
0
100
AcDbCircle
 10
513.8354411451546
 20
2060.089122638365
 30
0.0
 40
7.0
  0
LINE
  5
9CF8
330
C003
100
AcDbEntity
  8
0
100
AcDbLine
 10
513.8354411451546
 20
2075.089122638365
 30
0.0
 11
513.8354411451546
 21
2045.089122638365
 31
0.0
  0
LINE
  5
9CF9
330
C003
100
AcDbEntity
  8
0
100
AcDbLine
 10
526.6310109560762
 20
2405.460163248061
 30
0.0
 11
597.2038070990497
 21
2490.238541274086
 31
0.0
  0
CIRCLE
  5
9CFB
330
C003
100
AcDbEntity
  8
0
100
AcDbCircle
 10
513.8354411451546
 20
2390.088976136654
 30
0.0
 40
7.0
  0
LINE
  5
9CFC
330
C003
100
AcDbEntity
  8
0
100
AcDbLine
 10
513.8354411451546
 20
2375.088976136654
 30
0.0
 11
513.8354411451546
 21
2405.088976136655
 31
0.0
  0
ARC
  5
9D02
330
C003
100
AcDbEntity
  8
0
100
AcDbCircle
 10
1104.335375694652
 20
1692.0
 30
0.0
 40
7.5
100
AcDbArc
 50
180.0
 51
270.0
  0
LINE
  5
9D03
330
C003
100
AcDbEntity
  8
0
100
AcDbLine
 10
1096.835375694652
 20
1754.500000000001
 30
0.0
 11
1163.835375694652
 21
1754.500000000001
 31
0.0
  0
ARC
  5
9D04
330
C003
100
AcDbEntity
  8
0
100
AcDbCircle
 10
1105.335375694652
 20
1643.0
 30
0.0
 40
8.5
100
AcDbArc
 50
90.0
 51
180.0
  0
LINE
  5
9D05
330
C003
100
AcDbEntity
  8
0
100
AcDbLine
 10
1096.835375694652
 20
1613.5
 30
0.0
 11
1157.535375694652
 21
1613.5
 31
0.0
  0
LINE
  5
9D3B
330
C003
100
AcDbEntity
  8
0
100
AcDbLine
 10
1096.850094320413
 20
1643.499999999999
 30
0.0
 11
993.8316245625102
 21
1643.499999999999
 31
0.0
  0
LINE
  5
9D5F
330
C003
100
AcDbEntity
  8
0
100
AcDbLine
 10
1013.835441145154
 20
1655.621275060173
 30
0.0
 11
1013.835441145154
 21
1599.426577359305
 31
0.0
  0
LINE
  5
9D60
330
C003
100
AcDbEntity
  8
0
100
AcDbLine
 10
1096.835375694652
 20
1613.5
 30
0.0
 11
1096.835375694652
 21
1643.0
 31
0.0
  0
LINE
  5
9D61
330
C003
100
AcDbEntity
  8
0
100
AcDbLine
 10
1013.835441145154
 20
1766.621275060172
 30
0.0
 11
1013.835441145154
 21
1710.426577359304
 31
0.0
  0
LINE
  5
9D62
330
C003
100
AcDbEntity
  8
0
100
AcDbLine
 10
1096.835375694652
 20
1754.500000000001
 30
0.0
 11
1096.835375694652
 21
1692.0
 31
0.0
  0
LINE
  5
9D6E
330
C003
100
AcDbEntity
  8
0
100
AcDbLine
 10
1117.978969299347
 20
1700.139522
 30
0.0
 11
1117.978969299347
 21
1689.0
 31
0.0
  0
LINE
  5
9D6F
330
C003
100
AcDbEntity
  8
0
100
AcDbLine
 10
1124.907159299347
 20
1700.139522
 30
0.0
 11
1124.907159299347
 21
1689.0
 31
0.0
  0
ARC
  5
9D70
330
C003
100
AcDbEntity
  8
0
100
AcDbCircle
 10
1104.335375694652
 20
1692.0
 30
0.0
 40
3.0
100
AcDbArc
 50
180.0
 51
270.0
  0
LINE
  5
9D71
330
C003
100
AcDbEntity
  8
0
100
AcDbLine
 10
1163.835375694652
 20
1754.500000000001
 30
0.0
 11
1163.835375694652
 21
1684.5
 31
0.0
  0
LINE
  5
9D72
330
C003
100
AcDbEntity
  8
0
100
AcDbLine
 10
1145.691759299347
 20
1700.139522
 30
0.0
 11
1145.691759299347
 21
1689.0
 31
0.0
  0
LINE
  5
9D73
330
C003
100
AcDbEntity
  8
0
100
AcDbLine
 10
1138.763579299347
 20
1700.139522
 30
0.0
 11
1138.763579299347
 21
1689.0
 31
0.0
  0
LINE
  5
9D74
330
C003
100
AcDbEntity
  8
0
100
AcDbLine
 10
1131.835375694653
 20
1711.15954330227
 30
0.0
 11
1131.835375694653
 21
1630.876168729481
 31
0.0
  0
LINE
  5
9D75
330
C003
100
AcDbEntity
  8
0
100
AcDbLine
 10
1153.335375694653
 20
1681.0
 30
0.0
 11
1131.835375694653
 21
1681.0
 31
0.0
  0
LINE
  5
9D76
330
C003
100
AcDbEntity
  8
0
100
AcDbLine
 10
1163.835375694652
 20
1684.5
 30
0.0
 11
1131.835375694653
 21
1684.5
 31
0.0
  0
LINE
  5
9D77
330
C003
100
AcDbEntity
  8
0
100
AcDbLine
 10
1163.835375694652
 20
1689.0
 30
0.0
 11
1131.835375694653
 21
1689.0
 31
0.0
  0
LINE
  5
9D78
330
C003
100
AcDbEntity
  8
0
100
AcDbLine
 10
1151.835375694653
 20
1673.5
 30
0.0
 11
1131.835375694653
 21
1673.5
 31
0.0
  0
LINE
  5
9D79
330
C003
100
AcDbEntity
  8
0
100
AcDbLine
 10
1149.835375694652
 20
1628.5
 30
0.0
 11
1118.835375694652
 21
1628.5
 31
0.0
  0
LINE
  5
9D7A
330
C003
100
AcDbEntity
  8
0
100
AcDbLine
 10
1163.835375694652
 20
1651.5
 30
0.0
 11
1105.335375694652
 21
1651.500000000001
 31
0.0
  0
LINE
  5
9D7B
330
C003
100
AcDbEntity
  8
0
100
AcDbLine
 10
1163.835375694652
 20
1647.0
 30
0.0
 11
1105.335375694652
 21
1647.0
 31
0.0
  0
LINE
  5
9D7C
330
C003
100
AcDbEntity
  8
0
100
AcDbLine
 10
1131.835375694653
 20
1689.0
 30
0.0
 11
1104.335375694652
 21
1689.0
 31
0.0
  0
LINE
  5
9D7D
330
C003
100
AcDbEntity
  8
0
100
AcDbLine
 10
1131.835375694653
 20
1684.5
 30
0.0
 11
1104.335375694653
 21
1684.5
 31
0.0
  0
LINE
  5
9D7E
330
C003
100
AcDbEntity
  8
0
100
AcDbLine
 10
1131.835375694653
 20
1681.0
 30
0.0
 11
1110.335375694653
 21
1681.0
 31
0.0
  0
LINE
  5
9D7F
330
C003
100
AcDbEntity
  8
0
100
AcDbLine
 10
1131.835375694653
 20
1673.5
 30
0.0
 11
1111.835375694653
 21
1673.5
 31
0.0
  0
ARC
  5
9D80
330
C003
100
AcDbEntity
  8
0
100
AcDbCircle
 10
1121.443075694653
 20
1659.609521
 30
0.0
 40
5.090450299999996
100
AcDbArc
 50
47.11662999999878
 51
132.8833100000216
  0
LINE
  5
9D81
330
C003
100
AcDbEntity
  8
0
100
AcDbLine
 10
1121.443075694653
 20
1664.69997
 30
0.0
 11
1142.227680694652
 21
1664.69997
 31
0.0
  0
ARC
  5
9D82
330
C003
100
AcDbEntity
  8
0
100
AcDbCircle
 10
1121.443070849238
 20
1640.464285714285
 30
0.0
 40
3.464285714285711
100
AcDbArc
 50
179.4093113971838
 51
0.5906886028161921
  0
ARC
  5
9D83
330
C003
100
AcDbEntity
  8
0
100
AcDbCircle
 10
1121.443075694653
 20
1659.790449
 30
0.0
 40
5.090450299999996
100
AcDbArc
 50
227.1166830000212
 51
312.8833600000124
  0
LINE
  5
9D84
330
C003
100
AcDbEntity
  8
0
100
AcDbLine
 10
1142.227680540065
 20
1637.0
 30
0.0
 11
1121.443070849238
 21
1637.0
 31
0.0
  0
LINE
  5
9D85
330
C003
100
AcDbEntity
  8
0
100
AcDbLine
 10
1146.835375694653
 20
1654.700000000001
 30
0.0
 11
1116.835375694653
 21
1654.700000000001
 31
0.0
  0
LINE
  5
9D86
330
C003
100
AcDbEntity
  8
0
100
AcDbLine
 10
1120.035375694652
 20
1681.0
 30
0.0
 11
1120.035375694652
 21
1684.5
 31
0.0
  0
LINE
  5
9D87
330
C003
100
AcDbEntity
  8
0
100
AcDbLine
 10
1111.835375694653
 20
1673.5
 30
0.0
 11
1110.335375694653
 21
1673.5
 31
0.0
  0
LINE
  5
9D88
330
C003
100
AcDbEntity
  8
0
100
AcDbLine
 10
1110.335375694653
 20
1681.0
 30
0.0
 11
1110.335375694653
 21
1673.5
 31
0.0
  0
LINE
  5
9D89
330
C003
100
AcDbEntity
  8
0
100
AcDbLine
 10
1123.861919733274
 20
1673.5
 30
0.0
 11
1123.860283170118
 21
1664.69997
 31
0.0
  0
ARC
  5
9D8A
330
C003
100
AcDbEntity
  8
0
100
AcDbCircle
 10
1105.335375694652
 20
1643.0
 30
0.0
 40
4.0
100
AcDbArc
 50
90.0
 51
180.0
  0
LINE
  5
9D8B
330
C003
100
AcDbEntity
  8
0
100
AcDbLine
 10
1117.9789692341
 20
1640.5
 30
0.0
 11
1117.9789692341
 21
1647.0
 31
0.0
  0
LINE
  5
9D8C
330
C003
100
AcDbEntity
  8
0
100
AcDbLine
 10
1116.835375694653
 20
1651.500000000001
 30
0.0
 11
1116.835375694653
 21
1654.700000000001
 31
0.0
  0
LINE
  5
9D8D
330
C003
100
AcDbEntity
  8
0
100
AcDbLine
 10
1123.335375694653
 20
1651.500000000001
 30
0.0
 11
1123.335375694653
 21
1647.0
 31
0.0
  0
LINE
  5
9D8E
330
C003
100
AcDbEntity
  8
0
100
AcDbLine
 10
1111.835375694652
 20
1614.5
 30
0.0
 11
1111.835375694652
 21
1621.500000000001
 31
0.0
  0
ARC
  5
9D8F
330
C003
100
AcDbEntity
  8
0
100
AcDbCircle
 10
1110.835375694652
 20
1614.5
 30
0.0
 40
1.0
100
AcDbArc
 50
270.0
 51
0.0
  0
ARC
  5
9D90
330
C003
100
AcDbEntity
  8
0
100
AcDbCircle
 10
1118.835375694652
 20
1621.500000000001
 30
0.0
 40
7.0
100
AcDbArc
 50
90.0
 51
180.0
  0
LINE
  5
9D91
330
C003
100
AcDbEntity
  8
0
100
AcDbLine
 10
1101.335375694652
 20
1613.5
 30
0.0
 11
1101.335375694652
 21
1643.0
 31
0.0
  0
LINE
  5
9D92
330
C003
100
AcDbEntity
  8
0
100
AcDbLine
 10
1117.978995694652
 20
1663.339509
 30
0.0
 11
1117.978995694652
 21
1656.06046
 31
0.0
  0
LINE
  5
9D93
330
C003
100
AcDbEntity
  8
0
100
AcDbLine
 10
1143.635375694652
 20
1681.0
 30
0.0
 11
1143.635375694652
 21
1684.5
 31
0.0
  0
ARC
  5
9D94
330
C003
100
AcDbEntity
  8
0
100
AcDbCircle
 10
1142.227680694652
 20
1659.609521
 30
0.0
 40
5.090450299999996
100
AcDbArc
 50
47.11667999997996
 51
132.8833600000123
  0
LINE
  5
9D95
330
C003
100
AcDbEntity
  8
0
100
AcDbLine
 10
1139.861920309712
 20
1673.5
 30
0.0
 11
1139.860283746557
 21
1664.69997
 31
0.0
  0
ARC
  5
9D96
330
C003
100
AcDbEntity
  8
0
100
AcDbCircle
 10
1131.835375694653
 20
1646.378790000001
 30
0.0
 40
18.321183
100
AcDbArc
 50
67.78066999999824
 51
112.2192899999792
  0
LINE
  5
9D97
330
C003
100
AcDbEntity
  8
0
100
AcDbLine
 10
1124.907172464376
 20
1647.0
 30
0.0
 11
1124.907172464376
 21
1640.5
 31
0.0
  0
ARC
  5
9D98
330
C003
100
AcDbEntity
  8
0
100
AcDbCircle
 10
1142.227680540065
 20
1640.464285714285
 30
0.0
 40
3.464285714285711
100
AcDbArc
 50
179.4093113971838
 51
0.5906886028161921
  0
LINE
  5
9D99
330
C003
100
AcDbEntity
  8
0
100
AcDbLine
 10
1145.691782155203
 20
1647.0
 30
0.0
 11
1145.691782155203
 21
1640.5
 31
0.0
  0
LINE
  5
9D9A
330
C003
100
AcDbEntity
  8
0
100
AcDbLine
 10
1138.763578924927
 20
1647.0
 30
0.0
 11
1138.763578924927
 21
1640.5
 31
0.0
  0
ARC
  5
9D9B
330
C003
100
AcDbEntity
  8
0
100
AcDbCircle
 10
1142.227680694652
 20
1659.790449
 30
0.0
 40
5.090450299999996
100
AcDbArc
 50
227.1166380000248
 51
312.8833100000215
  0
LINE
  5
9D9C
330
C003
100
AcDbEntity
  8
0
100
AcDbLine
 10
1146.835375694653
 20
1651.5
 30
0.0
 11
1146.835375694653
 21
1654.700000000001
 31
0.0
  0
LINE
  5
9D9D
330
C003
100
AcDbEntity
  8
0
100
AcDbLine
 10
1140.335375694653
 20
1651.5
 30
0.0
 11
1140.335375694653
 21
1647.0
 31
0.0
  0
ARC
  5
9D9E
330
C003
100
AcDbEntity
  8
0
100
AcDbCircle
 10
1131.835375694651
 20
1645.607142857143
 30
0.0
 40
8.607142857142846
100
AcDbArc
 50
216.3958791981003
 51
323.6041208018997
  0
ARC
  5
9D9F
330
C003
100
AcDbEntity
  8
0
100
AcDbCircle
 10
1131.835375694653
 20
1673.021173
 30
0.0
 40
18.321183
100
AcDbArc
 50
247.7807000000199
 51
292.2193200000009
  0
LINE
  5
9DA0
330
C003
100
AcDbEntity
  8
0
100
AcDbLine
 10
1124.907185694651
 20
1663.339509
 30
0.0
 11
1124.907185694651
 21
1656.06046
 31
0.0
  0
LINE
  5
9DA1
330
C003
100
AcDbEntity
  8
0
100
AcDbLine
 10
1145.691769694653
 20
1663.339503
 30
0.0
 11
1145.691769694653
 21
1656.060467
 31
0.0
  0
LINE
  5
9DA2
330
C003
100
AcDbEntity
  8
0
100
AcDbLine
 10
1138.763584694653
 20
1663.339509
 30
0.0
 11
1138.763584694653
 21
1656.06046
 31
0.0
  0
LINE
  5
9DA3
330
C003
100
AcDbEntity
  8
0
100
AcDbLine
 10
1153.335375694653
 20
1681.0
 30
0.0
 11
1153.335375694653
 21
1673.5
 31
0.0
  0
LINE
  5
9DA4
330
C003
100
AcDbEntity
  8
0
100
AcDbLine
 10
1153.335375694653
 20
1673.5
 30
0.0
 11
1151.835375694653
 21
1673.5
 31
0.0
  0
LINE
  5
9DA5
330
C003
100
AcDbEntity
  8
0
100
AcDbLine
 10
1156.835375694652
 20
1614.5
 30
0.0
 11
1156.835375694652
 21
1621.500000000001
 31
0.0
  0
ARC
  5
9DA6
330
C003
100
AcDbEntity
  8
0
100
AcDbCircle
 10
1160.835375694652
 20
1616.5
 30
0.0
 40
3.0
100
AcDbArc
 50
270.0
 51
0.0
  0
ARC
  5
9DA7
330
C003
100
AcDbEntity
  8
0
100
AcDbCircle
 10
1157.835375694652
 20
1614.5
 30
0.0
 40
1.0
100
AcDbArc
 50
180.0
 51
270.0
  0
LINE
  5
9DA8
330
C003
100
AcDbEntity
  8
0
100
AcDbLine
 10
1157.835375694652
 20
1613.5
 30
0.0
 11
1160.835375694652
 21
1613.5
 31
0.0
  0
LINE
  5
9DA9
330
C003
100
AcDbEntity
  8
0
100
AcDbLine
 10
1163.835375694652
 20
1616.5
 30
0.0
 11
1163.835375694652
 21
1651.5
 31
0.0
  0
ARC
  5
9DAA
330
C003
100
AcDbEntity
  8
0
100
AcDbCircle
 10
1149.835375694652
 20
1621.500000000001
 30
0.0
 40
7.0
100
AcDbArc
 50
0.0
 51
90.0
  0
LINE
  5
9DAB
330
C003
100
AcDbEntity
  8
0
100
AcDbLine
 10
1154.835375694652
 20
1727.800000000001
 30
0.0
 11
1141.969306947333
 21
1727.800000000001
 31
0.0
  0
ARC
  5
9DAC
330
C003
100
AcDbEntity
  8
0
100
AcDbCircle
 10
1156.835375694652
 20
1727.800000000001
 30
0.0
 40
17.0
100
AcDbArc
 50
97.66225566075876
 51
172.3377443392412
  0
ARC
  5
9DAD
330
C003
100
AcDbEntity
  8
0
100
AcDbCircle
 10
1121.443059299346
 20
1696.409534
 30
0.0
 40
5.090450299999996
100
AcDbArc
 50
47.11662999999878
 51
132.8833100000216
  0
ARC
  5
9DAE
330
C003
100
AcDbEntity
  8
0
100
AcDbCircle
 10
1106.835375694651
 20
1727.800000000001
 30
0.0
 40
17.0
100
AcDbArc
 50
7.662255660758753
 51
82.3377443392412
  0
LINE
  5
9DAF
330
C003
100
AcDbEntity
  8
0
100
AcDbLine
 10
1121.443059299346
 20
1701.499983000001
 30
0.0
 11
1142.227669299347
 21
1701.499983000001
 31
0.0
  0
ARC
  5
9DB0
330
C003
100
AcDbEntity
  8
0
100
AcDbCircle
 10
1108.835375694652
 20
1742.666068747319
 30
0.0
 40
2.0
100
AcDbArc
 50
82.3377443392412
 51
180.0
  0
ARC
  5
9DB1
330
C003
100
AcDbEntity
  8
0
100
AcDbCircle
 10
1121.70144444197
 20
1729.800000000001
 30
0.0
 40
2.0
100
AcDbArc
 50
270.0
 51
7.662255660758753
  0
ARC
  5
9DB2
330
C003
100
AcDbEntity
  8
0
100
AcDbCircle
 10
1108.835375694651
 20
1729.800000000001
 30
0.0
 40
2.0
100
AcDbArc
 50
180.0
 51
270.0
  0
LINE
  5
9DB3
330
C003
100
AcDbEntity
  8
0
100
AcDbLine
 10
1108.835375694651
 20
1727.800000000001
 30
0.0
 11
1121.70144444197
 21
1727.800000000001
 31
0.0
  0
LINE
  5
9DB4
330
C003
100
AcDbEntity
  8
0
100
AcDbLine
 10
1106.835375694651
 20
1729.800000000001
 30
0.0
 11
1106.835375694652
 21
1742.666068747319
 31
0.0
  0
LINE
  5
9DB5
330
C003
100
AcDbEntity
  8
0
100
AcDbLine
 10
1101.335375694652
 20
1754.500000000001
 30
0.0
 11
1101.335375694652
 21
1692.0
 31
0.0
  0
ARC
  5
9DB6
330
C003
100
AcDbEntity
  8
0
100
AcDbCircle
 10
1142.227669299347
 20
1696.409534
 30
0.0
 40
5.090450299999996
100
AcDbArc
 50
47.11667999997996
 51
132.8833600000123
  0
ARC
  5
9DB7
330
C003
100
AcDbEntity
  8
0
100
AcDbCircle
 10
1141.969306947333
 20
1729.800000000001
 30
0.0
 40
2.0
100
AcDbArc
 50
172.3377443392412
 51
270.0
  0
ARC
  5
9DB8
330
C003
100
AcDbEntity
  8
0
100
AcDbCircle
 10
1131.835369299347
 20
1683.17882
 30
0.0
 40
18.321183
100
AcDbArc
 50
67.78066999999824
 51
112.2192899999792
  0
ARC
  5
9DB9
330
C003
100
AcDbEntity
  8
0
100
AcDbCircle
 10
1154.835375694652
 20
1742.666068747319
 30
0.0
 40
2.0
100
AcDbArc
 50
0.0
 51
97.66225566075876
  0
ARC
  5
9DBA
330
C003
100
AcDbEntity
  8
0
100
AcDbCircle
 10
1154.835375694652
 20
1729.800000000001
 30
0.0
 40
2.0
100
AcDbArc
 50
270.0
 51
0.0
  0
LINE
  5
9DBB
330
C003
100
AcDbEntity
  8
0
100
AcDbLine
 10
1156.835375694652
 20
1729.800000000001
 30
0.0
 11
1156.835375694652
 21
1742.666068747319
 31
0.0
  0
LINE
  5
9DBD
330
C003
100
AcDbEntity
  8
0
100
AcDbLine
 10
1163.83546201918
 20
2347.589055303239
 30
0.0
 11
1096.83546201918
 21
2347.589055303239
 31
0.0
  0
LINE
  5
9DBE
330
C003
100
AcDbEntity
  8
0
100
AcDbLine
 10
1163.83546201918
 20
2343.089055303239
 30
0.0
 11
1096.83546201918
 21
2343.089055303239
 31
0.0
  0
LINE
  5
9DBF
330
C003
100
AcDbEntity
  8
0
100
AcDbLine
 10
1140.335482843201
 20
2410.089011643947
 30
0.0
 11
1096.835462019179
 21
2410.089049387504
 31
0.0
  0
LINE
  5
9DC0
330
C003
100
AcDbEntity
  8
0
100
AcDbLine
 10
1163.83546201918
 20
2102.589043471782
 30
0.0
 11
1096.83546201918
 21
2102.589043471782
 31
0.0
  0
LINE
  5
9DC1
330
C003
100
AcDbEntity
  8
0
100
AcDbLine
 10
1163.83546201918
 20
2107.089043471782
 30
0.0
 11
1096.83546201918
 21
2107.089043471782
 31
0.0
  0
LINE
  5
9DC2
330
C003
100
AcDbEntity
  8
0
100
AcDbLine
 10
1140.335482843201
 20
2040.089087131073
 30
0.0
 11
1096.835462019179
 21
2040.089049387518
 31
0.0
  0
LINE
  5
9DC4
330
C003
100
AcDbEntity
  8
0
100
AcDbLine
 10
1028.835441145155
 20
2060.089120902563
 30
0.0
 11
998.8354411451544
 21
2060.089124374167
 31
0.0
  0
LINE
  5
9DC6
330
C003
100
AcDbEntity
  8
0
100
AcDbLine
 10
1013.835441145154
 20
2075.089122638365
 30
0.0
 11
1013.835441145154
 21
2045.089122638365
 31
0.0
  0
CIRCLE
  5
9DC7
330
C003
100
AcDbEntity
  8
0
100
AcDbCircle
 10
1013.835441145154
 20
2060.089122638365
 30
0.0
 40
7.0
  0
LINE
  5
9DC8
330
C003
100
AcDbEntity
  8
0
100
AcDbLine
 10
1096.83546201918
 20
2107.089043471782
 30
0.0
 11
1096.835462019179
 21
2040.089049387518
 31
0.0
  0
LINE
  5
9DC9
330
C003
100
AcDbEntity
  8
0
100
AcDbLine
 10
1028.835441145155
 20
2390.088977872457
 30
0.0
 11
998.8354411451544
 21
2390.088974400852
 31
0.0
  0
CIRCLE
  5
9DCA
330
C003
100
AcDbEntity
  8
0
100
AcDbCircle
 10
1013.835441145154
 20
2390.088976136654
 30
0.0
 40
7.0
  0
LINE
  5
9DCB
330
C003
100
AcDbEntity
  8
0
100
AcDbLine
 10
1013.835441145154
 20
2375.088976136654
 30
0.0
 11
1013.835441145154
 21
2405.088976136655
 31
0.0
  0
LINE
  5
9DCC
330
C003
100
AcDbEntity
  8
0
100
AcDbLine
 10
1096.83546201918
 20
2343.089055303239
 30
0.0
 11
1096.835462019179
 21
2410.089049387504
 31
0.0
  0
LINE
  5
9DCD
330
C003
100
AcDbEntity
  8
0
100
AcDbLine
 10
1163.835441145154
 20
2107.089043471781
 30
0.0
 11
1163.835441145155
 21
2343.089055303239
 31
0.0
  0
LINE
  5
9DCE
330
C003
100
AcDbEntity
  8
0
100
AcDbLine
 10
1133.835441145154
 20
2107.089043471781
 30
0.0
 11
1133.835441145154
 21
2343.089055303239
 31
0.0
  0
ARC
  5
9DD0
330
C003
100
AcDbEntity
  8
0
100
AcDbCircle
 10
1139.83546201918
 20
2064.089087131065
 30
0.0
 40
24.0
100
AcDbArc
 50
270.0000497136854
 51
0.0
  0
CIRCLE
  5
9DD1
330
C003
100
AcDbEntity
  8
0
100
AcDbCircle
 10
1131.83546201918
 20
2072.089045567173
 30
0.0
 40
21.0
  0
LINE
  5
9DD2
330
C003
100
AcDbEntity
  8
0
100
AcDbLine
 10
1102.809588000557
 20
2072.089045567173
 30
0.0
 11
1160.861336037802
 21
2072.089045567173
 31
0.0
  0
LINE
  5
9DD4
330
C003
100
AcDbEntity
  8
0
100
AcDbLine
 10
1101.33546201918
 20
2102.589043471782
 30
0.0
 11
1101.335462019179
 21
2040.089049387518
 31
0.0
  0
LINE
  5
9DD5
330
C003
100
AcDbEntity
  8
0
100
AcDbLine
 10
1131.83546201918
 20
2043.063171548551
 30
0.0
 11
1131.83546201918
 21
2101.114919585794
 31
0.0
  0
LINE
  5
9DD6
330
C003
100
AcDbEntity
  8
0
100
AcDbLine
 10
1163.83546201918
 20
2063.589087131065
 30
0.0
 11
1163.83546201918
 21
2107.089043471782
 31
0.0
  0
ARC
  5
9DDA
330
C003
100
AcDbEntity
  8
0
100
AcDbCircle
 10
1139.83546201918
 20
2386.089011643956
 30
0.0
 40
24.0
100
AcDbArc
 50
0.0
 51
89.99995028631451
  0
LINE
  5
9DDB
330
C003
100
AcDbEntity
  8
0
100
AcDbLine
 10
1102.809588000557
 20
2378.089053207848
 30
0.0
 11
1160.861336037801
 21
2378.089053207848
 31
0.0
  0
CIRCLE
  5
9DDC
330
C003
100
AcDbEntity
  8
0
100
AcDbCircle
 10
1131.83546201918
 20
2378.089053207848
 30
0.0
 40
21.0
  0
LINE
  5
9DDE
330
C003
100
AcDbEntity
  8
0
100
AcDbLine
 10
1101.33546201918
 20
2347.589055303239
 30
0.0
 11
1101.335462019179
 21
2410.089049387504
 31
0.0
  0
LINE
  5
9DDF
330
C003
100
AcDbEntity
  8
0
100
AcDbLine
 10
1131.83546201918
 20
2407.114927226472
 30
0.0
 11
1131.83546201918
 21
2349.063179189226
 31
0.0
  0
LINE
  5
9DE0
330
C003
100
AcDbEntity
  8
0
100
AcDbLine
 10
1163.83546201918
 20
2386.589011643956
 30
0.0
 11
1163.83546201918
 21
2343.089055303239
 31
0.0
  0
ARC
  5
AD78
330
C003
100
AcDbEntity
  8
0
100
AcDbCircle
 10
788.831624561527
 20
1674.999999999608
 30
0.0
 40
1.0
100
AcDbArc
 50
270.0
 51
90.0
  0
ARC
  5
AD79
330
C003
100
AcDbEntity
  8
0
100
AcDbCircle
 10
778.8316245615269
 20
1696.74355721441
 30
0.0
 40
10.0
100
AcDbArc
 50
0.0
 51
14.32271997980582
  0
LINE
  5
AD7A
330
C003
100
AcDbEntity
  8
0
100
AcDbLine
 10
788.831624561527
 20
1665.999999999609
 30
0.0
 11
788.831624561527
 21
1673.999999999608
 31
0.0
  0
LINE
  5
AD7B
330
C003
100
AcDbEntity
  8
0
100
AcDbLine
 10
788.831624561527
 20
1675.999999999608
 30
0.0
 11
788.831624561527
 21
1696.74355721441
 31
0.0
  0
LINE
  5
AD7C
330
C003
100
AcDbEntity
  8
0
100
AcDbLine
 10
788.5208016676267
 20
1699.21738966741
 30
0.0
 11
782.8316245608265
 21
1721.500000000009
 31
0.0
  0
ARC
  5
AD7D
330
C003
100
AcDbEntity
  8
0
100
AcDbCircle
 10
781.8316245608265
 20
1722.500000000009
 30
0.0
 40
1.0
100
AcDbArc
 50
0.0
 51
90.0
  0
LINE
  5
AD7E
330
C003
100
AcDbEntity
  8
0
100
AcDbLine
 10
782.8316245608265
 20
1721.500000000009
 30
0.0
 11
782.8316245608265
 21
1722.500000000009
 31
0.0
  0
LINE
  5
AD7F
330
C003
100
AcDbEntity
  8
0
100
AcDbLine
 10
753.8316245621272
 20
1675.999999999608
 30
0.0
 11
788.831624561527
 21
1675.999999999608
 31
0.0
  0
LINE
  5
AD80
330
C003
100
AcDbEntity
  8
0
100
AcDbLine
 10
753.8316245621272
 20
1673.999999999608
 30
0.0
 11
788.831624561527
 21
1673.999999999608
 31
0.0
  0
LINE
  5
AD81
330
C003
100
AcDbEntity
  8
0
100
AcDbLine
 10
753.8316245621272
 20
1665.999999999609
 30
0.0
 11
788.831624561527
 21
1665.999999999609
 31
0.0
  0
LINE
  5
AD82
330
C003
100
AcDbEntity
  8
0
100
AcDbLine
 10
753.8316245621272
 20
1723.500000000009
 30
0.0
 11
781.8316245608265
 21
1723.500000000009
 31
0.0
  0
LINE
  5
AD83
330
C003
100
AcDbEntity
  8
0
100
AcDbLine
 10
783.831624562511
 20
1632.5
 30
0.0
 11
753.8316245621272
 21
1632.5
 31
0.0
  0
LINE
  5
AD84
330
C003
100
AcDbEntity
  8
0
100
AcDbLine
 10
783.831624562511
 20
1632.5
 30
0.0
 11
783.831624562511
 21
1645.5
 31
0.0
  0
LINE
  5
AD86
330
C003
100
AcDbEntity
  8
0
100
AcDbLine
 10
782.8316245621272
 20
1645.499999999999
 30
0.0
 11
782.8316245621272
 21
1666.000000000148
 31
0.0
  0
LINE
  5
AD87
330
C003
100
AcDbEntity
  8
0
100
AcDbLine
 10
783.831624562511
 20
1645.5
 30
0.0
 11
783.831624562511
 21
1643.5
 31
0.0
  0
LINE
  5
AD88
330
C003
100
AcDbEntity
  8
0
100
AcDbLine
 10
783.831624562511
 20
1645.5
 30
0.0
 11
753.8316245621272
 21
1645.5
 31
0.0
  0
LINE
  5
AD89
330
C003
100
AcDbEntity
  8
0
100
AcDbLine
 10
753.8316245621272
 20
1666.000000000148
 30
0.0
 11
782.8316245621272
 21
1666.000000000148
 31
0.0
  0
LINE
  5
AD8A
330
C003
100
AcDbEntity
  8
0
100
AcDbLine
 10
770.8316245621272
 20
1724.5
 30
0.0
 11
770.8316245621272
 21
1723.500000000009
 31
0.0
  0
LINE
  5
AD8B
330
C003
100
AcDbEntity
  8
0
100
AcDbLine
 10
770.8316245621272
 20
1724.5
 30
0.0
 11
753.8316245621272
 21
1724.5
 31
0.0
  0
ARC
  5
AD8C
330
C003
100
AcDbEntity
  8
0
100
AcDbCircle
 10
718.8316245627275
 20
1674.999999999608
 30
0.0
 40
1.0
100
AcDbArc
 50
90.0
 51
270.0
  0
ARC
  5
AD8D
330
C003
100
AcDbEntity
  8
0
100
AcDbCircle
 10
728.8316245627274
 20
1696.74355721441
 30
0.0
 40
10.0
100
AcDbArc
 50
165.6772800201942
 51
180.0
  0
LINE
  5
AD8E
330
C003
100
AcDbEntity
  8
0
100
AcDbLine
 10
718.8316245627275
 20
1665.999999999609
 30
0.0
 11
718.8316245627275
 21
1673.999999999608
 31
0.0
  0
LINE
  5
AD8F
330
C003
100
AcDbEntity
  8
0
100
AcDbLine
 10
718.8316245627275
 20
1675.999999999608
 30
0.0
 11
718.8316245627275
 21
1696.74355721441
 31
0.0
  0
LINE
  5
AD90
330
C003
100
AcDbEntity
  8
0
100
AcDbLine
 10
719.1424474566272
 20
1699.21738966741
 30
0.0
 11
724.8316245634265
 21
1721.500000000009
 31
0.0
  0
ARC
  5
AD91
330
C003
100
AcDbEntity
  8
0
100
AcDbCircle
 10
725.8316245634268
 20
1722.500000000009
 30
0.0
 40
1.0
100
AcDbArc
 50
90.0
 51
180.0
  0
LINE
  5
AD92
330
C003
100
AcDbEntity
  8
0
100
AcDbLine
 10
724.8316245634265
 20
1721.500000000009
 30
0.0
 11
724.8316245634265
 21
1722.500000000009
 31
0.0
  0
LINE
  5
AD93
330
C003
100
AcDbEntity
  8
0
100
AcDbLine
 10
753.8316245621272
 20
1675.999999999608
 30
0.0
 11
718.8316245627275
 21
1675.999999999608
 31
0.0
  0
LINE
  5
AD94
330
C003
100
AcDbEntity
  8
0
100
AcDbLine
 10
753.8316245621272
 20
1673.999999999608
 30
0.0
 11
718.8316245627275
 21
1673.999999999608
 31
0.0
  0
LINE
  5
AD95
330
C003
100
AcDbEntity
  8
0
100
AcDbLine
 10
753.8316245621272
 20
1665.999999999609
 30
0.0
 11
718.8316245627275
 21
1665.999999999609
 31
0.0
  0
LINE
  5
AD96
330
C003
100
AcDbEntity
  8
0
100
AcDbLine
 10
753.8316245621272
 20
1723.500000000009
 30
0.0
 11
725.8316245634268
 21
1723.500000000009
 31
0.0
  0
LINE
  5
AD97
330
C003
100
AcDbEntity
  8
0
100
AcDbLine
 10
723.8316245617433
 20
1632.5
 30
0.0
 11
753.8316245621272
 21
1632.5
 31
0.0
  0
LINE
  5
AD98
330
C003
100
AcDbEntity
  8
0
100
AcDbLine
 10
723.8316245617433
 20
1632.5
 30
0.0
 11
723.8316245617433
 21
1645.5
 31
0.0
  0
LINE
  5
AD9A
330
C003
100
AcDbEntity
  8
0
100
AcDbLine
 10
724.8316245621272
 20
1645.5
 30
0.0
 11
724.8316245621272
 21
1666.000000000148
 31
0.0
  0
LINE
  5
AD9B
330
C003
100
AcDbEntity
  8
0
100
AcDbLine
 10
723.8316245617433
 20
1645.5
 30
0.0
 11
723.8316245617433
 21
1643.5
 31
0.0
  0
LINE
  5
AD9C
330
C003
100
AcDbEntity
  8
0
100
AcDbLine
 10
723.8316245617433
 20
1645.5
 30
0.0
 11
753.8316245621272
 21
1645.5
 31
0.0
  0
LINE
  5
AD9D
330
C003
100
AcDbEntity
  8
0
100
AcDbLine
 10
753.8316245621272
 20
1666.000000000148
 30
0.0
 11
724.8316245621272
 21
1666.000000000148
 31
0.0
  0
LINE
  5
AD9E
330
C003
100
AcDbEntity
  8
0
100
AcDbLine
 10
736.8316245621272
 20
1724.5
 30
0.0
 11
736.8316245621272
 21
1723.500000000009
 31
0.0
  0
LINE
  5
AD9F
330
C003
100
AcDbEntity
  8
0
100
AcDbLine
 10
736.8316245621272
 20
1724.5
 30
0.0
 11
753.8316245621272
 21
1724.5
 31
0.0
  0
ARC
  5
ADA0
330
C003
100
AcDbEntity
  8
0
100
AcDbCircle
 10
998.8316245615267
 20
1674.999999999608
 30
0.0
 40
1.0
100
AcDbArc
 50
270.0
 51
90.0
  0
ARC
  5
ADA1
330
C003
100
AcDbEntity
  8
0
100
AcDbCircle
 10
988.8316245615268
 20
1696.74355721441
 30
0.0
 40
10.0
100
AcDbArc
 50
0.0
 51
14.32271997980582
  0
LINE
  5
ADA2
330
C003
100
AcDbEntity
  8
0
100
AcDbLine
 10
998.8316245615267
 20
1665.999999999609
 30
0.0
 11
998.8316245615267
 21
1673.999999999608
 31
0.0
  0
LINE
  5
ADA3
330
C003
100
AcDbEntity
  8
0
100
AcDbLine
 10
998.8316245615267
 20
1675.999999999608
 30
0.0
 11
998.8316245615267
 21
1696.74355721441
 31
0.0
  0
LINE
  5
ADA4
330
C003
100
AcDbEntity
  8
0
100
AcDbLine
 10
998.5208016676267
 20
1699.21738966741
 30
0.0
 11
992.8316245608264
 21
1721.500000000009
 31
0.0
  0
ARC
  5
ADA5
330
C003
100
AcDbEntity
  8
0
100
AcDbCircle
 10
991.8316245608265
 20
1722.500000000009
 30
0.0
 40
1.0
100
AcDbArc
 50
0.0
 51
90.0
  0
LINE
  5
ADA6
330
C003
100
AcDbEntity
  8
0
100
AcDbLine
 10
992.8316245608264
 20
1721.500000000009
 30
0.0
 11
992.8316245608264
 21
1722.500000000009
 31
0.0
  0
LINE
  5
ADA7
330
C003
100
AcDbEntity
  8
0
100
AcDbLine
 10
963.8316245621272
 20
1675.999999999608
 30
0.0
 11
998.8316245615267
 21
1675.999999999608
 31
0.0
  0
LINE
  5
ADA8
330
C003
100
AcDbEntity
  8
0
100
AcDbLine
 10
963.8316245621272
 20
1673.999999999608
 30
0.0
 11
998.8316245615267
 21
1673.999999999608
 31
0.0
  0
LINE
  5
ADA9
330
C003
100
AcDbEntity
  8
0
100
AcDbLine
 10
963.8316245621272
 20
1665.999999999609
 30
0.0
 11
998.8316245615267
 21
1665.999999999609
 31
0.0
  0
LINE
  5
ADAA
330
C003
100
AcDbEntity
  8
0
100
AcDbLine
 10
963.8316245621272
 20
1723.500000000009
 30
0.0
 11
991.8316245608265
 21
1723.500000000009
 31
0.0
  0
LINE
  5
ADAB
330
C003
100
AcDbEntity
  8
0
100
AcDbLine
 10
993.8316245625102
 20
1632.5
 30
0.0
 11
963.8316245621272
 21
1632.5
 31
0.0
  0
LINE
  5
ADAC
330
C003
100
AcDbEntity
  8
0
100
AcDbLine
 10
993.8316245625102
 20
1632.5
 30
0.0
 11
993.8316245625102
 21
1645.5
 31
0.0
  0
LINE
  5
ADAE
330
C003
100
AcDbEntity
  8
0
100
AcDbLine
 10
992.8316245621273
 20
1645.499999999999
 30
0.0
 11
992.8316245621273
 21
1666.000000000148
 31
0.0
  0
LINE
  5
ADAF
330
C003
100
AcDbEntity
  8
0
100
AcDbLine
 10
993.8316245625102
 20
1645.5
 30
0.0
 11
993.8316245625102
 21
1643.5
 31
0.0
  0
LINE
  5
ADB0
330
C003
100
AcDbEntity
  8
0
100
AcDbLine
 10
993.8316245625102
 20
1645.5
 30
0.0
 11
963.8316245621272
 21
1645.5
 31
0.0
  0
LINE
  5
ADB1
330
C003
100
AcDbEntity
  8
0
100
AcDbLine
 10
963.8316245621272
 20
1666.000000000148
 30
0.0
 11
992.8316245621273
 21
1666.000000000148
 31
0.0
  0
LINE
  5
ADB2
330
C003
100
AcDbEntity
  8
0
100
AcDbLine
 10
980.8316245621272
 20
1724.5
 30
0.0
 11
980.8316245621272
 21
1723.500000000009
 31
0.0
  0
LINE
  5
ADB3
330
C003
100
AcDbEntity
  8
0
100
AcDbLine
 10
980.8316245621272
 20
1724.5
 30
0.0
 11
963.8316245621272
 21
1724.5
 31
0.0
  0
ARC
  5
ADB4
330
C003
100
AcDbEntity
  8
0
100
AcDbCircle
 10
928.8316245627273
 20
1674.999999999608
 30
0.0
 40
1.0
100
AcDbArc
 50
90.0
 51
270.0
  0
ARC
  5
ADB5
330
C003
100
AcDbEntity
  8
0
100
AcDbCircle
 10
938.8316245627272
 20
1696.74355721441
 30
0.0
 40
10.0
100
AcDbArc
 50
165.6772800201942
 51
180.0
  0
LINE
  5
ADB6
330
C003
100
AcDbEntity
  8
0
100
AcDbLine
 10
928.8316245627273
 20
1665.999999999609
 30
0.0
 11
928.8316245627273
 21
1673.999999999608
 31
0.0
  0
LINE
  5
ADB7
330
C003
100
AcDbEntity
  8
0
100
AcDbLine
 10
928.8316245627273
 20
1675.999999999608
 30
0.0
 11
928.8316245627273
 21
1696.74355721441
 31
0.0
  0
LINE
  5
ADB8
330
C003
100
AcDbEntity
  8
0
100
AcDbLine
 10
929.1424474566271
 20
1699.21738966741
 30
0.0
 11
934.8316245634263
 21
1721.500000000009
 31
0.0
  0
ARC
  5
ADB9
330
C003
100
AcDbEntity
  8
0
100
AcDbCircle
 10
935.8316245634268
 20
1722.500000000009
 30
0.0
 40
1.0
100
AcDbArc
 50
90.0
 51
180.0
  0
LINE
  5
ADBA
330
C003
100
AcDbEntity
  8
0
100
AcDbLine
 10
934.8316245634263
 20
1721.500000000009
 30
0.0
 11
934.8316245634263
 21
1722.500000000009
 31
0.0
  0
LINE
  5
ADBB
330
C003
100
AcDbEntity
  8
0
100
AcDbLine
 10
963.8316245621272
 20
1675.999999999608
 30
0.0
 11
928.8316245627273
 21
1675.999999999608
 31
0.0
  0
LINE
  5
ADBC
330
C003
100
AcDbEntity
  8
0
100
AcDbLine
 10
963.8316245621272
 20
1673.999999999608
 30
0.0
 11
928.8316245627273
 21
1673.999999999608
 31
0.0
  0
LINE
  5
ADBD
330
C003
100
AcDbEntity
  8
0
100
AcDbLine
 10
963.8316245621272
 20
1665.999999999609
 30
0.0
 11
928.8316245627273
 21
1665.999999999609
 31
0.0
  0
LINE
  5
ADBE
330
C003
100
AcDbEntity
  8
0
100
AcDbLine
 10
963.8316245621272
 20
1723.500000000009
 30
0.0
 11
935.8316245634268
 21
1723.500000000009
 31
0.0
  0
LINE
  5
ADBF
330
C003
100
AcDbEntity
  8
0
100
AcDbLine
 10
933.8316245617432
 20
1632.5
 30
0.0
 11
963.8316245621272
 21
1632.5
 31
0.0
  0
LINE
  5
ADC0
330
C003
100
AcDbEntity
  8
0
100
AcDbLine
 10
933.8316245617432
 20
1632.5
 30
0.0
 11
933.8316245617432
 21
1645.5
 31
0.0
  0
LINE
  5
ADC2
330
C003
100
AcDbEntity
  8
0
100
AcDbLine
 10
934.8316245621273
 20
1645.5
 30
0.0
 11
934.8316245621273
 21
1666.000000000148
 31
0.0
  0
LINE
  5
ADC3
330
C003
100
AcDbEntity
  8
0
100
AcDbLine
 10
933.8316245617432
 20
1645.5
 30
0.0
 11
933.8316245617432
 21
1643.5
 31
0.0
  0
LINE
  5
ADC4
330
C003
100
AcDbEntity
  8
0
100
AcDbLine
 10
933.8316245617432
 20
1645.5
 30
0.0
 11
963.8316245621272
 21
1645.5
 31
0.0
  0
LINE
  5
ADC5
330
C003
100
AcDbEntity
  8
0
100
AcDbLine
 10
963.8316245621272
 20
1666.000000000148
 30
0.0
 11
934.8316245621273
 21
1666.000000000148
 31
0.0
  0
LINE
  5
ADC6
330
C003
100
AcDbEntity
  8
0
100
AcDbLine
 10
946.8316245621272
 20
1724.5
 30
0.0
 11
946.8316245621272
 21
1723.500000000009
 31
0.0
  0
LINE
  5
ADC7
330
C003
100
AcDbEntity
  8
0
100
AcDbLine
 10
946.8316245621272
 20
1724.5
 30
0.0
 11
963.8316245621272
 21
1724.5
 31
0.0
  0
LINE
  5
ADC9
330
C003
100
AcDbEntity
  8
0
100
AcDbLine
 10
1543.546145060326
 20
2343.089049387504
 30
0.0
 11
1543.546145060327
 21
2107.089049387516
 31
0.0
  0
LINE
  5
ADCA
330
C003
100
AcDbEntity
  8
0
100
AcDbLine
 10
1432.546145060326
 20
2343.089049387504
 30
0.0
 11
1432.546145060326
 21
2107.089049387516
 31
0.0
  0
LINE
  5
ADCB
330
C003
100
AcDbEntity
  8
0
100
AcDbLine
 10
1402.546145060325
 20
2343.089049387504
 30
0.0
 11
1402.546145060325
 21
2107.089049387516
 31
0.0
  0
LINE
  5
ADCC
330
C003
100
AcDbEntity
  8
0
100
AcDbLine
 10
1468.046145060325
 20
2072.089049387515
 30
0.0
 11
1468.046145060326
 21
2099.589049387516
 31
0.0
  0
LINE
  5
ADCD
330
C003
100
AcDbEntity
  8
0
100
AcDbLine
 10
1472.546145060325
 20
2072.089049387515
 30
0.0
 11
1472.546145060326
 21
2099.589049387514
 31
0.0
  0
ARC
  5
ADCE
330
C003
100
AcDbEntity
  8
0
100
AcDbCircle
 10
1460.636611060325
 20
2082.481365782823
 30
0.0
 40
5.090450299999996
100
AcDbArc
 50
137.1166899999825
 51
222.8833700000004
  0
LINE
  5
ADCF
330
C003
100
AcDbEntity
  8
0
100
AcDbLine
 10
1476.046145060325
 20
2072.089049387515
 30
0.0
 11
1476.046145060325
 21
2093.589049387515
 31
0.0
  0
LINE
  5
ADD0
330
C003
100
AcDbEntity
  8
0
100
AcDbLine
 10
1483.546145060325
 20
2072.089049387515
 30
0.0
 11
1483.546145060325
 21
2092.089049387515
 31
0.0
  0
ARC
  5
ADD1
330
C003
100
AcDbEntity
  8
0
100
AcDbCircle
 10
1497.436624060324
 20
2082.481349387514
 30
0.0
 40
5.090450299999996
100
AcDbArc
 50
137.1166899999825
 51
222.8833700000004
  0
ARC
  5
ADD2
330
C003
100
AcDbEntity
  8
0
100
AcDbCircle
 10
1429.246145060325
 20
2097.089049387517
 30
0.0
 40
17.0
100
AcDbArc
 50
187.6622556607591
 51
262.3377443392406
  0
LINE
  5
ADD3
330
C003
100
AcDbEntity
  8
0
100
AcDbLine
 10
1402.546145060325
 20
2107.089049387516
 30
0.0
 11
1402.546145060325
 21
2040.089049387516
 31
0.0
  0
LINE
  5
ADD4
330
C003
100
AcDbEntity
  8
0
100
AcDbLine
 10
1455.546162060325
 20
2082.481365782823
 30
0.0
 11
1455.546162060325
 21
2061.696755782821
 31
0.0
  0
LINE
  5
ADD5
330
C003
100
AcDbEntity
  8
0
100
AcDbLine
 10
1492.346175060325
 20
2082.481349387514
 30
0.0
 11
1492.346175060325
 21
2061.696744387516
 31
0.0
  0
ARC
  5
ADD6
330
C003
100
AcDbEntity
  8
0
100
AcDbCircle
 10
1516.58185934604
 20
2082.48135423293
 30
0.0
 40
3.464285714285711
100
AcDbArc
 50
269.4093113971838
 51
90.59068860281612
  0
ARC
  5
ADD7
330
C003
100
AcDbEntity
  8
0
100
AcDbCircle
 10
1497.255696060326
 20
2082.481349387514
 30
0.0
 40
5.090450299999996
100
AcDbArc
 50
317.1166399999863
 51
42.88331699998328
  0
LINE
  5
ADD8
330
C003
100
AcDbEntity
  8
0
100
AcDbLine
 10
1543.546145060326
 20
2107.089049387516
 30
0.0
 11
1543.546145060326
 21
2046.389049387516
 31
0.0
  0
LINE
  5
ADD9
330
C003
100
AcDbEntity
  8
0
100
AcDbLine
 10
1520.046145060325
 20
2061.696744542103
 30
0.0
 11
1520.046145060325
 21
2082.48135423293
 31
0.0
  0
LINE
  5
ADDA
330
C003
100
AcDbEntity
  8
0
100
AcDbLine
 10
1502.346145060325
 20
2057.089049387514
 30
0.0
 11
1502.346145060325
 21
2087.089049387515
 31
0.0
  0
LINE
  5
ADDB
330
C003
100
AcDbEntity
  8
0
100
AcDbLine
 10
1528.546145060325
 20
2054.089049387516
 30
0.0
 11
1528.546145060325
 21
2085.089049387516
 31
0.0
  0
LINE
  5
ADDC
330
C003
100
AcDbEntity
  8
0
100
AcDbLine
 10
1505.546145060326
 20
2040.089049387516
 30
0.0
 11
1505.546145060325
 21
2098.589049387516
 31
0.0
  0
LINE
  5
ADDD
330
C003
100
AcDbEntity
  8
0
100
AcDbLine
 10
1510.046145060326
 20
2040.089049387516
 30
0.0
 11
1510.046145060325
 21
2098.589049387516
 31
0.0
  0
LINE
  5
ADDE
330
C003
100
AcDbEntity
  8
0
100
AcDbLine
 10
1456.906623060325
 20
2079.017265782821
 30
0.0
 11
1468.046145060325
 21
2079.017265782821
 31
0.0
  0
LINE
  5
ADDF
330
C003
100
AcDbEntity
  8
0
100
AcDbLine
 10
1402.546145060325
 20
2040.089049387516
 30
0.0
 11
1472.546145060325
 21
2040.089049387516
 31
0.0
  0
LINE
  5
ADE0
330
C003
100
AcDbEntity
  8
0
100
AcDbLine
 10
1456.906623060325
 20
2058.232665782822
 30
0.0
 11
1468.046145060325
 21
2058.232665782822
 31
0.0
  0
LINE
  5
ADE1
330
C003
100
AcDbEntity
  8
0
100
AcDbLine
 10
1456.906623060325
 20
2065.160845782822
 30
0.0
 11
1468.046145060325
 21
2065.160845782822
 31
0.0
  0
LINE
  5
ADE2
330
C003
100
AcDbEntity
  8
0
100
AcDbLine
 10
1445.886601758056
 20
2072.089049387515
 30
0.0
 11
1526.169976330844
 21
2072.089049387515
 31
0.0
  0
LINE
  5
ADE3
330
C003
100
AcDbEntity
  8
0
100
AcDbLine
 10
1476.046145060325
 20
2050.589049387514
 30
0.0
 11
1476.046145060326
 21
2072.089049387515
 31
0.0
  0
LINE
  5
ADE4
330
C003
100
AcDbEntity
  8
0
100
AcDbLine
 10
1472.546145060325
 20
2040.089049387516
 30
0.0
 11
1472.546145060326
 21
2072.089049387515
 31
0.0
  0
LINE
  5
ADE5
330
C003
100
AcDbEntity
  8
0
100
AcDbLine
 10
1468.046145060325
 20
2040.089049387516
 30
0.0
 11
1468.046145060326
 21
2072.089049387515
 31
0.0
  0
LINE
  5
ADE6
330
C003
100
AcDbEntity
  8
0
100
AcDbLine
 10
1483.546145060325
 20
2052.089049387515
 30
0.0
 11
1483.546145060325
 21
2072.089049387515
 31
0.0
  0
LINE
  5
ADE7
330
C003
100
AcDbEntity
  8
0
100
AcDbLine
 10
1476.046145060325
 20
2050.589049387514
 30
0.0
 11
1483.546145060325
 21
2050.589049387514
 31
0.0
  0
LINE
  5
ADE8
330
C003
100
AcDbEntity
  8
0
100
AcDbLine
 10
1483.546145060325
 20
2050.589049387514
 30
0.0
 11
1483.546145060325
 21
2052.089049387515
 31
0.0
  0
LINE
  5
ADE9
330
C003
100
AcDbEntity
  8
0
100
AcDbLine
 10
1542.546145060326
 20
2047.089049387516
 30
0.0
 11
1535.546145060325
 21
2047.089049387516
 31
0.0
  0
ARC
  5
ADEA
330
C003
100
AcDbEntity
  8
0
100
AcDbCircle
 10
1540.546145060325
 20
2043.089049387516
 30
0.0
 40
3.0
100
AcDbArc
 50
270.0
 51
0.0
  0
ARC
  5
ADEB
330
C003
100
AcDbEntity
  8
0
100
AcDbCircle
 10
1542.546145060326
 20
2046.089049387516
 30
0.0
 40
1.0
100
AcDbArc
 50
0.0
 51
90.0
  0
LINE
  5
ADEC
330
C003
100
AcDbEntity
  8
0
100
AcDbLine
 10
1543.546145060326
 20
2046.089049387516
 30
0.0
 11
1543.546145060326
 21
2043.089049387516
 31
0.0
  0
LINE
  5
ADED
330
C003
100
AcDbEntity
  8
0
100
AcDbLine
 10
1540.546145060325
 20
2040.089049387516
 30
0.0
 11
1505.546145060326
 21
2040.089049387516
 31
0.0
  0
ARC
  5
ADEE
330
C003
100
AcDbEntity
  8
0
100
AcDbCircle
 10
1535.546145060325
 20
2054.089049387516
 30
0.0
 40
7.0
100
AcDbArc
 50
180.0
 51
270.0
  0
LINE
  5
ADEF
330
C003
100
AcDbEntity
  8
0
100
AcDbLine
 10
1476.046145060325
 20
2060.289049387517
 30
0.0
 11
1472.546145060325
 21
2060.289049387516
 31
0.0
  0
ARC
  5
ADF0
330
C003
100
AcDbEntity
  8
0
100
AcDbCircle
 10
1497.436624060324
 20
2061.696744387516
 30
0.0
 40
5.090450299999996
100
AcDbArc
 50
137.1166399999863
 51
222.8833200000185
  0
LINE
  5
ADF1
330
C003
100
AcDbEntity
  8
0
100
AcDbLine
 10
1483.546145060325
 20
2064.062504772456
 30
0.0
 11
1492.346175060325
 21
2064.064141335612
 31
0.0
  0
ARC
  5
ADF2
330
C003
100
AcDbEntity
  8
0
100
AcDbCircle
 10
1510.667355060325
 20
2072.089049387515
 30
0.0
 40
18.321183
100
AcDbArc
 50
157.7807100000192
 51
202.219330000003
  0
LINE
  5
ADF3
330
C003
100
AcDbEntity
  8
0
100
AcDbLine
 10
1510.046145060325
 20
2079.017252617792
 30
0.0
 11
1516.546145060325
 21
2079.017252617792
 31
0.0
  0
ARC
  5
ADF4
330
C003
100
AcDbEntity
  8
0
100
AcDbCircle
 10
1516.58185934604
 20
2061.696744542103
 30
0.0
 40
3.464285714285711
100
AcDbArc
 50
269.4093113971838
 51
90.59068860281612
  0
LINE
  5
ADF5
330
C003
100
AcDbEntity
  8
0
100
AcDbLine
 10
1510.046145060325
 20
2058.232642926965
 30
0.0
 11
1516.546145060325
 21
2058.232642926965
 31
0.0
  0
LINE
  5
ADF6
330
C003
100
AcDbEntity
  8
0
100
AcDbLine
 10
1510.046145060325
 20
2065.160846157242
 30
0.0
 11
1516.546145060325
 21
2065.160846157242
 31
0.0
  0
ARC
  5
ADF7
330
C003
100
AcDbEntity
  8
0
100
AcDbCircle
 10
1497.255696060326
 20
2061.696744387516
 30
0.0
 40
5.090450299999996
100
AcDbArc
 50
317.1166899999825
 51
42.88336199997934
  0
LINE
  5
ADF8
330
C003
100
AcDbEntity
  8
0
100
AcDbLine
 10
1505.546145060325
 20
2057.089049387514
 30
0.0
 11
1502.346145060325
 21
2057.089049387514
 31
0.0
  0
LINE
  5
ADF9
330
C003
100
AcDbEntity
  8
0
100
AcDbLine
 10
1505.546145060325
 20
2063.589049387514
 30
0.0
 11
1510.046145060325
 21
2063.589049387514
 31
0.0
  0
ARC
  5
ADFA
330
C003
100
AcDbEntity
  8
0
100
AcDbCircle
 10
1511.439002203182
 20
2072.089049387517
 30
0.0
 40
8.607142857142846
100
AcDbArc
 50
306.3958791981011
 51
53.60412080189882
  0
ARC
  5
ADFB
330
C003
100
AcDbEntity
  8
0
100
AcDbCircle
 10
1484.024972060326
 20
2072.089049387515
 30
0.0
 40
18.321183
100
AcDbArc
 50
337.7806799999926
 51
22.21929999997868
  0
LINE
  5
ADFC
330
C003
100
AcDbEntity
  8
0
100
AcDbLine
 10
1493.706636060325
 20
2079.017239387516
 30
0.0
 11
1500.985685060325
 21
2079.017239387516
 31
0.0
  0
LINE
  5
ADFD
330
C003
100
AcDbEntity
  8
0
100
AcDbLine
 10
1493.706642060326
 20
2058.232655387516
 30
0.0
 11
1500.985678060326
 21
2058.232655387516
 31
0.0
  0
LINE
  5
ADFE
330
C003
100
AcDbEntity
  8
0
100
AcDbLine
 10
1493.706636060325
 20
2065.160840387515
 30
0.0
 11
1500.985685060325
 21
2065.160840387515
 31
0.0
  0
LINE
  5
ADFF
330
C003
100
AcDbEntity
  8
0
100
AcDbLine
 10
1429.246145060325
 20
2049.089049387516
 30
0.0
 11
1429.246145060325
 21
2061.955118134834
 31
0.0
  0
ARC
  5
AE00
330
C003
100
AcDbEntity
  8
0
100
AcDbCircle
 10
1429.246145060325
 20
2047.089049387516
 30
0.0
 40
17.0
100
AcDbArc
 50
97.66225566075931
 51
172.3377443392409
  0
ARC
  5
AE01
330
C003
100
AcDbEntity
  8
0
100
AcDbCircle
 10
1414.380076313006
 20
2049.089049387516
 30
0.0
 40
2.0
100
AcDbArc
 50
172.3377443392409
 51
270.0
  0
ARC
  5
AE02
330
C003
100
AcDbEntity
  8
0
100
AcDbCircle
 10
1427.246145060325
 20
2049.089049387516
 30
0.0
 40
2.0
100
AcDbArc
 50
270.0
 51
0.0
  0
LINE
  5
AE03
330
C003
100
AcDbEntity
  8
0
100
AcDbLine
 10
1427.246145060325
 20
2047.089049387516
 30
0.0
 11
1414.380076313006
 21
2047.089049387516
 31
0.0
  0
ARC
  5
AE04
330
C003
100
AcDbEntity
  8
0
100
AcDbCircle
 10
1460.636611060325
 20
2061.696755782821
 30
0.0
 40
5.090450299999996
100
AcDbArc
 50
137.1166399999863
 51
222.8833200000185
  0
ARC
  5
AE05
330
C003
100
AcDbEntity
  8
0
100
AcDbCircle
 10
1427.246145060325
 20
2061.955118134834
 30
0.0
 40
2.0
100
AcDbArc
 50
0.0
 51
97.66225566075931
  0
ARC
  5
AE06
330
C003
100
AcDbEntity
  8
0
100
AcDbCircle
 10
1473.867325060325
 20
2072.089055782821
 30
0.0
 40
18.321183
100
AcDbArc
 50
157.7807100000192
 51
202.219330000003
  0
LINE
  5
AE07
330
C003
100
AcDbEntity
  8
0
100
AcDbLine
 10
1456.906623060325
 20
2085.945455782821
 30
0.0
 11
1468.046145060325
 21
2085.945455782821
 31
0.0
  0
ARC
  5
AE08
330
C003
100
AcDbEntity
  8
0
100
AcDbCircle
 10
1465.046145060326
 20
2099.589049387516
 30
0.0
 40
3.0
100
AcDbArc
 50
0.0
 51
90.0
  0
ARC
  5
AE09
330
C003
100
AcDbEntity
  8
0
100
AcDbCircle
 10
1465.046145060326
 20
2099.589049387516
 30
0.0
 40
7.5
100
AcDbArc
 50
0.0
 51
90.0
  0
ARC
  5
AE0A
330
C003
100
AcDbEntity
  8
0
100
AcDbCircle
 10
1514.046145060325
 20
2098.589049387516
 30
0.0
 40
8.5
100
AcDbArc
 50
90.0
 51
180.0
  0
LINE
  5
AE0B
330
C003
100
AcDbEntity
  8
0
100
AcDbLine
 10
1476.046145060325
 20
2083.889049387516
 30
0.0
 11
1472.546145060325
 21
2083.889049387516
 31
0.0
  0
LINE
  5
AE0C
330
C003
100
AcDbEntity
  8
0
100
AcDbLine
 10
1483.546145060325
 20
2092.089049387515
 30
0.0
 11
1483.546145060325
 21
2093.589049387515
 31
0.0
  0
LINE
  5
AE0D
330
C003
100
AcDbEntity
  8
0
100
AcDbLine
 10
1476.046145060325
 20
2093.589049387515
 30
0.0
 11
1483.546145060325
 21
2093.589049387515
 31
0.0
  0
LINE
  5
AE0E
330
C003
100
AcDbEntity
  8
0
100
AcDbLine
 10
1483.546145060326
 20
2080.062505348894
 30
0.0
 11
1492.346175060325
 21
2080.064141912049
 31
0.0
  0
ARC
  5
AE0F
330
C003
100
AcDbEntity
  8
0
100
AcDbCircle
 10
1514.046145060325
 20
2098.589049387516
 30
0.0
 40
4.0
100
AcDbArc
 50
90.0
 51
180.0
  0
LINE
  5
AE10
330
C003
100
AcDbEntity
  8
0
100
AcDbLine
 10
1516.546145060325
 20
2085.945455848067
 30
0.0
 11
1510.046145060325
 21
2085.945455848067
 31
0.0
  0
LINE
  5
AE11
330
C003
100
AcDbEntity
  8
0
100
AcDbLine
 10
1505.546145060325
 20
2087.089049387515
 30
0.0
 11
1502.346145060325
 21
2087.089049387515
 31
0.0
  0
LINE
  5
AE12
330
C003
100
AcDbEntity
  8
0
100
AcDbLine
 10
1505.546145060325
 20
2080.589049387515
 30
0.0
 11
1510.046145060325
 21
2080.589049387515
 31
0.0
  0
LINE
  5
AE13
330
C003
100
AcDbEntity
  8
0
100
AcDbLine
 10
1542.546145060325
 20
2092.089049387516
 30
0.0
 11
1535.546145060325
 21
2092.089049387516
 31
0.0
  0
ARC
  5
AE14
330
C003
100
AcDbEntity
  8
0
100
AcDbCircle
 10
1542.546145060326
 20
2093.089049387516
 30
0.0
 40
1.0
100
AcDbArc
 50
270.0
 51
0.0
  0
ARC
  5
AE15
330
C003
100
AcDbEntity
  8
0
100
AcDbCircle
 10
1535.546145060325
 20
2085.089049387516
 30
0.0
 40
7.0
100
AcDbArc
 50
90.0
 51
180.0
  0
LINE
  5
AE16
330
C003
100
AcDbEntity
  8
0
100
AcDbLine
 10
1543.546145060326
 20
2102.589049387516
 30
0.0
 11
1514.046145060325
 21
2102.589049387516
 31
0.0
  0
LINE
  5
AE17
330
C003
100
AcDbEntity
  8
0
100
AcDbLine
 10
1493.706636060325
 20
2085.945429387515
 30
0.0
 11
1500.985685060325
 21
2085.945429387515
 31
0.0
  0
LINE
  5
AE18
330
C003
100
AcDbEntity
  8
0
100
AcDbLine
 10
1543.546145060326
 20
2107.089049387516
 30
0.0
 11
1514.046145060325
 21
2107.089049387516
 31
0.0
  0
ARC
  5
AE19
330
C003
100
AcDbEntity
  8
0
100
AcDbCircle
 10
1414.380076313006
 20
2095.089049387516
 30
0.0
 40
2.0
100
AcDbArc
 50
90.0
 51
187.6622556607591
  0
ARC
  5
AE1A
330
C003
100
AcDbEntity
  8
0
100
AcDbCircle
 10
1427.246145060325
 20
2082.222980640198
 30
0.0
 40
2.0
100
AcDbArc
 50
262.3377443392406
 51
0.0
  0
ARC
  5
AE1B
330
C003
100
AcDbEntity
  8
0
100
AcDbCircle
 10
1427.246145060325
 20
2095.089049387517
 30
0.0
 40
2.0
100
AcDbArc
 50
0.0
 51
90.0
  0
LINE
  5
AE1C
330
C003
100
AcDbEntity
  8
0
100
AcDbLine
 10
1429.246145060325
 20
2095.089049387517
 30
0.0
 11
1429.246145060325
 21
2082.222980640198
 31
0.0
  0
LINE
  5
AE1D
330
C003
100
AcDbEntity
  8
0
100
AcDbLine
 10
1427.246145060325
 20
2097.089049387517
 30
0.0
 11
1414.380076313006
 21
2097.089049387516
 31
0.0
  0
LINE
  5
AE1E
330
C003
100
AcDbEntity
  8
0
100
AcDbLine
 10
1402.546145060325
 20
2102.589049387516
 30
0.0
 11
1465.046145060326
 21
2102.589049387516
 31
0.0
  0
LINE
  5
AE1F
330
C003
100
AcDbEntity
  8
0
100
AcDbLine
 10
1402.546145060325
 20
2107.089049387516
 30
0.0
 11
1465.046145060326
 21
2107.089049387516
 31
0.0
  0
LINE
  5
AE20
330
C003
100
AcDbEntity
  8
0
100
AcDbLine
 10
1513.546145060326
 20
2260.089114838006
 30
0.0
 11
1513.546145060326
 21
2107.074330761754
 31
0.0
  0
LINE
  5
AE22
330
C003
100
AcDbEntity
  8
0
100
AcDbLine
 10
1513.546145060327
 20
2260.089114838006
 30
0.0
 11
1513.546145060326
 21
2107.074330761754
 31
0.0
  0
ARC
  5
AE2C
330
C003
100
AcDbEntity
  8
0
100
AcDbCircle
 10
1465.046145060326
 20
2350.589049387505
 30
0.0
 40
7.5
100
AcDbArc
 50
270.0
 51
0.0
  0
LINE
  5
AE2D
330
C003
100
AcDbEntity
  8
0
100
AcDbLine
 10
1402.546145060325
 20
2343.089049387504
 30
0.0
 11
1402.546145060325
 21
2410.089049387505
 31
0.0
  0
ARC
  5
AE2E
330
C003
100
AcDbEntity
  8
0
100
AcDbCircle
 10
1514.046145060325
 20
2351.589049387504
 30
0.0
 40
8.5
100
AcDbArc
 50
180.0
 51
270.0
  0
LINE
  5
AE2F
330
C003
100
AcDbEntity
  8
0
100
AcDbLine
 10
1543.546145060326
 20
2343.089049387504
 30
0.0
 11
1543.546145060326
 21
2403.789049387504
 31
0.0
  0
LINE
  5
AE30
330
C003
100
AcDbEntity
  8
0
100
AcDbLine
 10
1513.546145060326
 20
2343.103768013266
 30
0.0
 11
1513.546145060326
 21
2240.085298255364
 31
0.0
  0
LINE
  5
AE34
330
C003
100
AcDbEntity
  8
0
100
AcDbLine
 10
1543.546145060326
 20
2343.089049387504
 30
0.0
 11
1514.046145060325
 21
2343.089049387504
 31
0.0
  0
LINE
  5
AE36
330
C003
100
AcDbEntity
  8
0
100
AcDbLine
 10
1402.546145060325
 20
2343.089049387504
 30
0.0
 11
1465.046145060326
 21
2343.089049387504
 31
0.0
  0
LINE
  5
AE37
330
C003
100
AcDbEntity
  8
0
100
AcDbLine
 10
1456.906623060326
 20
2364.2326429922
 30
0.0
 11
1468.046145060326
 21
2364.2326429922
 31
0.0
  0
LINE
  5
AE38
330
C003
100
AcDbEntity
  8
0
100
AcDbLine
 10
1456.906623060326
 20
2371.160832992199
 30
0.0
 11
1468.046145060326
 21
2371.160832992199
 31
0.0
  0
ARC
  5
AE39
330
C003
100
AcDbEntity
  8
0
100
AcDbCircle
 10
1465.046145060326
 20
2350.589049387505
 30
0.0
 40
3.0
100
AcDbArc
 50
270.0
 51
0.0
  0
LINE
  5
AE3A
330
C003
100
AcDbEntity
  8
0
100
AcDbLine
 10
1402.546145060325
 20
2410.089049387505
 30
0.0
 11
1472.546145060325
 21
2410.089049387505
 31
0.0
  0
LINE
  5
AE3B
330
C003
100
AcDbEntity
  8
0
100
AcDbLine
 10
1456.906623060326
 20
2391.945432992199
 30
0.0
 11
1468.046145060326
 21
2391.945432992199
 31
0.0
  0
LINE
  5
AE3C
330
C003
100
AcDbEntity
  8
0
100
AcDbLine
 10
1456.906623060326
 20
2385.017252992199
 30
0.0
 11
1468.046145060326
 21
2385.017252992199
 31
0.0
  0
LINE
  5
AE3D
330
C003
100
AcDbEntity
  8
0
100
AcDbLine
 10
1445.886601758056
 20
2378.089049387506
 30
0.0
 11
1526.169976330845
 21
2378.089049387506
 31
0.0
  0
LINE
  5
AE3E
330
C003
100
AcDbEntity
  8
0
100
AcDbLine
 10
1476.046145060325
 20
2399.589049387506
 30
0.0
 11
1476.046145060326
 21
2378.089049387506
 31
0.0
  0
LINE
  5
AE3F
330
C003
100
AcDbEntity
  8
0
100
AcDbLine
 10
1472.546145060325
 20
2410.089049387505
 30
0.0
 11
1472.546145060326
 21
2378.089049387506
 31
0.0
  0
LINE
  5
AE40
330
C003
100
AcDbEntity
  8
0
100
AcDbLine
 10
1468.046145060325
 20
2410.089049387505
 30
0.0
 11
1468.046145060326
 21
2378.089049387506
 31
0.0
  0
LINE
  5
AE41
330
C003
100
AcDbEntity
  8
0
100
AcDbLine
 10
1483.546145060326
 20
2398.089049387506
 30
0.0
 11
1483.546145060326
 21
2378.089049387506
 31
0.0
  0
LINE
  5
AE42
330
C003
100
AcDbEntity
  8
0
100
AcDbLine
 10
1528.546145060325
 20
2396.089049387505
 30
0.0
 11
1528.546145060325
 21
2365.089049387504
 31
0.0
  0
LINE
  5
AE43
330
C003
100
AcDbEntity
  8
0
100
AcDbLine
 10
1505.546145060326
 20
2410.089049387505
 30
0.0
 11
1505.546145060325
 21
2351.589049387505
 31
0.0
  0
LINE
  5
AE44
330
C003
100
AcDbEntity
  8
0
100
AcDbLine
 10
1510.046145060326
 20
2410.089049387505
 30
0.0
 11
1510.046145060325
 21
2351.589049387504
 31
0.0
  0
LINE
  5
AE45
330
C003
100
AcDbEntity
  8
0
100
AcDbLine
 10
1468.046145060325
 20
2378.089049387506
 30
0.0
 11
1468.046145060326
 21
2350.589049387505
 31
0.0
  0
LINE
  5
AE46
330
C003
100
AcDbEntity
  8
0
100
AcDbLine
 10
1472.546145060325
 20
2378.089049387506
 30
0.0
 11
1472.546145060326
 21
2350.589049387505
 31
0.0
  0
LINE
  5
AE47
330
C003
100
AcDbEntity
  8
0
100
AcDbLine
 10
1476.046145060325
 20
2378.089049387506
 30
0.0
 11
1476.046145060325
 21
2356.589049387507
 31
0.0
  0
LINE
  5
AE48
330
C003
100
AcDbEntity
  8
0
100
AcDbLine
 10
1483.546145060326
 20
2378.089049387506
 30
0.0
 11
1483.546145060326
 21
2358.089049387505
 31
0.0
  0
ARC
  5
AE49
330
C003
100
AcDbEntity
  8
0
100
AcDbCircle
 10
1497.436624060326
 20
2367.696749387505
 30
0.0
 40
5.090450299999996
100
AcDbArc
 50
137.1166299999987
 51
222.8833100000168
  0
LINE
  5
AE4A
330
C003
100
AcDbEntity
  8
0
100
AcDbLine
 10
1492.346175060325
 20
2367.696749387505
 30
0.0
 11
1492.346175060325
 21
2388.481354387505
 31
0.0
  0
ARC
  5
AE4B
330
C003
100
AcDbEntity
  8
0
100
AcDbCircle
 10
1516.58185934604
 20
2367.696744542091
 30
0.0
 40
3.464285714285711
100
AcDbArc
 50
269.4093113971838
 51
90.59068860281616
  0
ARC
  5
AE4C
330
C003
100
AcDbEntity
  8
0
100
AcDbCircle
 10
1497.255696060326
 20
2367.696749387505
 30
0.0
 40
5.090450299999996
100
AcDbArc
 50
317.1166830000164
 51
42.88336000001474
  0
LINE
  5
AE4D
330
C003
100
AcDbEntity
  8
0
100
AcDbLine
 10
1520.046145060326
 20
2388.481354232917
 30
0.0
 11
1520.046145060326
 21
2367.696744542091
 31
0.0
  0
LINE
  5
AE4E
330
C003
100
AcDbEntity
  8
0
100
AcDbLine
 10
1502.346145060325
 20
2393.089049387505
 30
0.0
 11
1502.346145060325
 21
2363.089049387506
 31
0.0
  0
LINE
  5
AE4F
330
C003
100
AcDbEntity
  8
0
100
AcDbLine
 10
1476.046145060325
 20
2366.289049387505
 30
0.0
 11
1472.546145060326
 21
2366.289049387505
 31
0.0
  0
LINE
  5
AE50
330
C003
100
AcDbEntity
  8
0
100
AcDbLine
 10
1483.546145060326
 20
2358.089049387505
 30
0.0
 11
1483.546145060326
 21
2356.589049387507
 31
0.0
  0
LINE
  5
AE51
330
C003
100
AcDbEntity
  8
0
100
AcDbLine
 10
1476.046145060325
 20
2356.589049387507
 30
0.0
 11
1483.546145060326
 21
2356.589049387507
 31
0.0
  0
LINE
  5
AE52
330
C003
100
AcDbEntity
  8
0
100
AcDbLine
 10
1483.546145060326
 20
2370.115593426127
 30
0.0
 11
1492.346175060325
 21
2370.113956862971
 31
0.0
  0
ARC
  5
AE53
330
C003
100
AcDbEntity
  8
0
100
AcDbCircle
 10
1514.046145060325
 20
2351.589049387505
 30
0.0
 40
4.0
100
AcDbArc
 50
180.0
 51
270.0
  0
LINE
  5
AE54
330
C003
100
AcDbEntity
  8
0
100
AcDbLine
 10
1516.546145060325
 20
2364.232642926953
 30
0.0
 11
1510.046145060325
 21
2364.232642926953
 31
0.0
  0
LINE
  5
AE55
330
C003
100
AcDbEntity
  8
0
100
AcDbLine
 10
1505.546145060325
 20
2363.089049387506
 30
0.0
 11
1502.346145060325
 21
2363.089049387506
 31
0.0
  0
LINE
  5
AE56
330
C003
100
AcDbEntity
  8
0
100
AcDbLine
 10
1505.546145060325
 20
2369.589049387506
 30
0.0
 11
1510.046145060325
 21
2369.589049387506
 31
0.0
  0
LINE
  5
AE57
330
C003
100
AcDbEntity
  8
0
100
AcDbLine
 10
1542.546145060325
 20
2358.089049387505
 30
0.0
 11
1535.546145060325
 21
2358.089049387505
 31
0.0
  0
ARC
  5
AE58
330
C003
100
AcDbEntity
  8
0
100
AcDbCircle
 10
1542.546145060326
 20
2357.089049387504
 30
0.0
 40
1.0
100
AcDbArc
 50
0.0
 51
90.0
  0
ARC
  5
AE59
330
C003
100
AcDbEntity
  8
0
100
AcDbCircle
 10
1535.546145060325
 20
2365.089049387504
 30
0.0
 40
7.0
100
AcDbArc
 50
180.0
 51
270.0
  0
LINE
  5
AE5A
330
C003
100
AcDbEntity
  8
0
100
AcDbLine
 10
1543.546145060326
 20
2347.589049387504
 30
0.0
 11
1514.046145060325
 21
2347.589049387504
 31
0.0
  0
LINE
  5
AE5B
330
C003
100
AcDbEntity
  8
0
100
AcDbLine
 10
1493.706636060325
 20
2364.232669387506
 30
0.0
 11
1500.985685060325
 21
2364.232669387506
 31
0.0
  0
LINE
  5
AE5C
330
C003
100
AcDbEntity
  8
0
100
AcDbLine
 10
1476.046145060326
 20
2389.889049387504
 30
0.0
 11
1472.546145060326
 21
2389.889049387505
 31
0.0
  0
ARC
  5
AE5D
330
C003
100
AcDbEntity
  8
0
100
AcDbCircle
 10
1497.436624060326
 20
2388.481354387505
 30
0.0
 40
5.090450299999996
100
AcDbArc
 50
137.1166799999823
 51
222.8833600000147
  0
LINE
  5
AE5E
330
C003
100
AcDbEntity
  8
0
100
AcDbLine
 10
1483.546145060326
 20
2386.115594002565
 30
0.0
 11
1492.346175060325
 21
2386.113957439409
 31
0.0
  0
ARC
  5
AE5F
330
C003
100
AcDbEntity
  8
0
100
AcDbCircle
 10
1510.667355060325
 20
2378.089049387506
 30
0.0
 40
18.321183
100
AcDbArc
 50
157.7806699999982
 51
202.2192899999793
  0
LINE
  5
AE60
330
C003
100
AcDbEntity
  8
0
100
AcDbLine
 10
1510.046145060325
 20
2371.160846157228
 30
0.0
 11
1516.546145060325
 21
2371.160846157228
 31
0.0
  0
ARC
  5
AE61
330
C003
100
AcDbEntity
  8
0
100
AcDbCircle
 10
1516.58185934604
 20
2388.481354232917
 30
0.0
 40
3.464285714285711
100
AcDbArc
 50
269.4093113971838
 51
90.59068860281616
  0
LINE
  5
AE62
330
C003
100
AcDbEntity
  8
0
100
AcDbLine
 10
1510.046145060325
 20
2391.945455848055
 30
0.0
 11
1516.546145060325
 21
2391.945455848055
 31
0.0
  0
LINE
  5
AE63
330
C003
100
AcDbEntity
  8
0
100
AcDbLine
 10
1510.046145060325
 20
2385.017252617779
 30
0.0
 11
1516.546145060325
 21
2385.017252617779
 31
0.0
  0
ARC
  5
AE64
330
C003
100
AcDbEntity
  8
0
100
AcDbCircle
 10
1497.255696060326
 20
2388.481354387505
 30
0.0
 40
5.090450299999996
100
AcDbArc
 50
317.1166380000201
 51
42.88331000001681
  0
LINE
  5
AE65
330
C003
100
AcDbEntity
  8
0
100
AcDbLine
 10
1505.546145060326
 20
2393.089049387505
 30
0.0
 11
1502.346145060325
 21
2393.089049387505
 31
0.0
  0
LINE
  5
AE66
330
C003
100
AcDbEntity
  8
0
100
AcDbLine
 10
1505.546145060326
 20
2386.589049387505
 30
0.0
 11
1510.046145060325
 21
2386.589049387505
 31
0.0
  0
ARC
  5
AE67
330
C003
100
AcDbEntity
  8
0
100
AcDbCircle
 10
1511.439002203183
 20
2378.089049387504
 30
0.0
 40
8.607142857142846
100
AcDbArc
 50
306.3958791981002
 51
53.60412080189973
  0
ARC
  5
AE68
330
C003
100
AcDbEntity
  8
0
100
AcDbCircle
 10
1484.024972060326
 20
2378.089049387506
 30
0.0
 40
18.321183
100
AcDbArc
 50
337.78070000002
 51
22.21932000000886
  0
LINE
  5
AE69
330
C003
100
AcDbEntity
  8
0
100
AcDbLine
 10
1493.706636060325
 20
2371.160859387505
 30
0.0
 11
1500.985685060325
 21
2371.160859387505
 31
0.0
  0
LINE
  5
AE6A
330
C003
100
AcDbEntity
  8
0
100
AcDbLine
 10
1493.706642060326
 20
2391.945443387506
 30
0.0
 11
1500.985678060326
 21
2391.945443387506
 31
0.0
  0
LINE
  5
AE6B
330
C003
100
AcDbEntity
  8
0
100
AcDbLine
 10
1493.706636060325
 20
2385.017258387506
 30
0.0
 11
1500.985685060325
 21
2385.017258387506
 31
0.0
  0
LINE
  5
AE6C
330
C003
100
AcDbEntity
  8
0
100
AcDbLine
 10
1476.046145060325
 20
2399.589049387506
 30
0.0
 11
1483.546145060326
 21
2399.589049387506
 31
0.0
  0
LINE
  5
AE6D
330
C003
100
AcDbEntity
  8
0
100
AcDbLine
 10
1483.546145060326
 20
2399.589049387506
 30
0.0
 11
1483.546145060326
 21
2398.089049387506
 31
0.0
  0
LINE
  5
AE6E
330
C003
100
AcDbEntity
  8
0
100
AcDbLine
 10
1542.546145060326
 20
2403.089049387505
 30
0.0
 11
1535.546145060325
 21
2403.089049387505
 31
0.0
  0
ARC
  5
AE6F
330
C003
100
AcDbEntity
  8
0
100
AcDbCircle
 10
1540.546145060325
 20
2407.089049387505
 30
0.0
 40
3.0
100
AcDbArc
 50
0.0
 51
90.0
  0
ARC
  5
AE70
330
C003
100
AcDbEntity
  8
0
100
AcDbCircle
 10
1542.546145060326
 20
2404.089049387505
 30
0.0
 40
1.0
100
AcDbArc
 50
270.0
 51
0.0
  0
LINE
  5
AE71
330
C003
100
AcDbEntity
  8
0
100
AcDbLine
 10
1543.546145060326
 20
2404.089049387505
 30
0.0
 11
1543.546145060326
 21
2407.089049387505
 31
0.0
  0
LINE
  5
AE72
330
C003
100
AcDbEntity
  8
0
100
AcDbLine
 10
1540.546145060325
 20
2410.089049387505
 30
0.0
 11
1505.546145060326
 21
2410.089049387505
 31
0.0
  0
ARC
  5
AE73
330
C003
100
AcDbEntity
  8
0
100
AcDbCircle
 10
1535.546145060325
 20
2396.089049387505
 30
0.0
 40
7.0
100
AcDbArc
 50
90.0
 51
180.0
  0
LINE
  5
AE74
330
C003
100
AcDbEntity
  8
0
100
AcDbLine
 10
1429.246145060325
 20
2401.089049387505
 30
0.0
 11
1429.246145060325
 21
2388.222980640186
 31
0.0
  0
ARC
  5
AE75
330
C003
100
AcDbEntity
  8
0
100
AcDbCircle
 10
1429.246145060325
 20
2403.089049387505
 30
0.0
 40
17.0
100
AcDbArc
 50
187.6622556607587
 51
262.3377443392408
  0
ARC
  5
AE76
330
C003
100
AcDbEntity
  8
0
100
AcDbCircle
 10
1460.636611060326
 20
2367.696732992199
 30
0.0
 40
5.090450299999996
100
AcDbArc
 50
137.1166299999987
 51
222.8833100000168
  0
ARC
  5
AE77
330
C003
100
AcDbEntity
  8
0
100
AcDbCircle
 10
1429.246145060325
 20
2353.089049387504
 30
0.0
 40
17.0
100
AcDbArc
 50
97.66225566075918
 51
172.3377443392412
  0
LINE
  5
AE78
330
C003
100
AcDbEntity
  8
0
100
AcDbLine
 10
1455.546162060325
 20
2367.696732992199
 30
0.0
 11
1455.546162060325
 21
2388.4813429922
 31
0.0
  0
ARC
  5
AE79
330
C003
100
AcDbEntity
  8
0
100
AcDbCircle
 10
1414.380076313007
 20
2355.089049387505
 30
0.0
 40
2.0
100
AcDbArc
 50
172.3377443392412
 51
270.0
  0
ARC
  5
AE7A
330
C003
100
AcDbEntity
  8
0
100
AcDbCircle
 10
1427.246145060325
 20
2367.955118134823
 30
0.0
 40
2.0
100
AcDbArc
 50
0.0
 51
97.66225566075918
  0
ARC
  5
AE7B
330
C003
100
AcDbEntity
  8
0
100
AcDbCircle
 10
1427.246145060325
 20
2355.089049387504
 30
0.0
 40
2.0
100
AcDbArc
 50
270.0
 51
0.0
  0
LINE
  5
AE7C
330
C003
100
AcDbEntity
  8
0
100
AcDbLine
 10
1429.246145060325
 20
2355.089049387504
 30
0.0
 11
1429.246145060325
 21
2367.955118134823
 31
0.0
  0
LINE
  5
AE7D
330
C003
100
AcDbEntity
  8
0
100
AcDbLine
 10
1427.246145060325
 20
2353.089049387504
 30
0.0
 11
1414.380076313007
 21
2353.089049387504
 31
0.0
  0
LINE
  5
AE7E
330
C003
100
AcDbEntity
  8
0
100
AcDbLine
 10
1402.546145060325
 20
2347.589049387504
 30
0.0
 11
1465.046145060326
 21
2347.589049387504
 31
0.0
  0
ARC
  5
AE7F
330
C003
100
AcDbEntity
  8
0
100
AcDbCircle
 10
1460.636611060326
 20
2388.4813429922
 30
0.0
 40
5.090450299999996
100
AcDbArc
 50
137.1166799999823
 51
222.8833600000147
  0
ARC
  5
AE80
330
C003
100
AcDbEntity
  8
0
100
AcDbCircle
 10
1427.246145060325
 20
2388.222980640186
 30
0.0
 40
2.0
100
AcDbArc
 50
262.3377443392408
 51
0.0
  0
ARC
  5
AE81
330
C003
100
AcDbEntity
  8
0
100
AcDbCircle
 10
1473.867325060325
 20
2378.089042992199
 30
0.0
 40
18.321183
100
AcDbArc
 50
157.7806699999982
 51
202.2192899999793
  0
ARC
  5
AE82
330
C003
100
AcDbEntity
  8
0
100
AcDbCircle
 10
1414.380076313007
 20
2401.089049387505
 30
0.0
 40
2.0
100
AcDbArc
 50
90.0
 51
187.6622556607587
  0
ARC
  5
AE83
330
C003
100
AcDbEntity
  8
0
100
AcDbCircle
 10
1427.246145060325
 20
2401.089049387505
 30
0.0
 40
2.0
100
AcDbArc
 50
0.0
 51
90.0
  0
LINE
  5
AE84
330
C003
100
AcDbEntity
  8
0
100
AcDbLine
 10
1427.246145060325
 20
2403.089049387505
 30
0.0
 11
1414.380076313007
 21
2403.089049387505
 31
0.0
  0
LINE
  5
B617
330
C003
100
AcDbEntity
  8
0
100
AcDbLine
 10
1058.29951726261
 20
642.3625930692202
 30
0.0
 11
318.2995172626106
 21
642.3624997791367
 31
0.0
  0
LINE
  5
B618
330
C003
100
AcDbEntity
  8
0
100
AcDbLine
 10
1088.29951726261
 20
582.3625971951924
 30
0.0
 11
288.2995172626106
 21
582.3624907187641
 31
0.0
  0
LINE
  5
B619
330
C003
100
AcDbEntity
  8
0
100
AcDbLine
 10
1088.29951726261
 20
952.3625971951812
 30
0.0
 11
288.2995172626106
 21
952.3624907187532
 31
0.0
  0
LINE
  5
B61A
330
C003
100
AcDbEntity
  8
0
100
AcDbLine
 10
1058.29951726261
 20
892.3625930692308
 30
0.0
 11
318.2995172626106
 21
892.3624948447258
 31
0.0
  0
LINE
  5
B622
330
C003
100
AcDbEntity
  8
0
100
AcDbLine
 10
288.2995172626106
 20
582.3624907187641
 30
0.0
 11
288.2995172626106
 21
952.3624907187532
 31
0.0
  0
LINE
  5
B623
330
C003
100
AcDbEntity
  8
0
100
AcDbLine
 10
438.2995172626102
 20
627.3626615286429
 30
0.0
 11
438.2995172626102
 21
597.362661528643
 31
0.0
  0
CIRCLE
  5
B626
330
C003
100
AcDbEntity
  8
0
100
AcDbCircle
 10
438.2995172626102
 20
612.362661528643
 30
0.0
 40
7.0
  0
LINE
  5
B627
330
C003
100
AcDbEntity
  8
0
100
AcDbLine
 10
453.2995172626105
 20
612.3626597928412
 30
0.0
 11
423.2995172626105
 21
612.3626632644445
 31
0.0
  0
LINE
  5
B628
330
C003
100
AcDbEntity
  8
0
100
AcDbLine
 10
438.2995172626102
 20
907.3625150269327
 30
0.0
 11
438.2995172626102
 21
947.3625150269326
 31
0.0
  0
CIRCLE
  5
B629
330
C003
100
AcDbEntity
  8
0
100
AcDbCircle
 10
438.2995172626102
 20
922.3625150269326
 30
0.0
 40
7.0
  0
LINE
  5
B62A
330
C003
100
AcDbEntity
  8
0
100
AcDbLine
 10
453.2995172626105
 20
922.3625167627343
 30
0.0
 11
423.2995172626105
 21
922.362513291131
 31
0.0
  0
LINE
  5
B62C
330
C003
100
AcDbEntity
  8
0
100
AcDbLine
 10
1088.29951726261
 20
582.3625971951924
 30
0.0
 11
1088.29951726261
 21
952.3625971951812
 31
0.0
  0
LINE
  5
B62D
330
C003
100
AcDbEntity
  8
0
100
AcDbLine
 10
938.2995172626102
 20
627.3626615286429
 30
0.0
 11
938.2995172626102
 21
597.362661528643
 31
0.0
  0
CIRCLE
  5
B62E
330
C003
100
AcDbEntity
  8
0
100
AcDbCircle
 10
938.2995172626102
 20
612.362661528643
 30
0.0
 40
7.0
  0
LINE
  5
B62F
330
C003
100
AcDbEntity
  8
0
100
AcDbLine
 10
953.2995172626103
 20
612.3626597928412
 30
0.0
 11
923.2995172626102
 21
612.3626632644445
 31
0.0
  0
LINE
  5
B631
330
C003
100
AcDbEntity
  8
0
100
AcDbLine
 10
938.2995172626102
 20
907.3625150269327
 30
0.0
 11
938.2995172626102
 21
947.3625150269326
 31
0.0
  0
CIRCLE
  5
B632
330
C003
100
AcDbEntity
  8
0
100
AcDbCircle
 10
938.2995172626102
 20
922.3625150269326
 30
0.0
 40
7.0
  0
LINE
  5
B633
330
C003
100
AcDbEntity
  8
0
100
AcDbLine
 10
953.2995172626103
 20
922.3625167627343
 30
0.0
 11
923.2995172626102
 21
922.362513291131
 31
0.0
  0
LINE
  5
B634
330
C003
100
AcDbEntity
  8
0
100
AcDbLine
 10
1058.29951726261
 20
642.3625930692202
 30
0.0
 11
1058.29951726261
 21
892.3625930692308
 31
0.0
  0
LINE
  5
B635
330
C003
100
AcDbEntity
  8
0
100
AcDbLine
 10
318.2995172626106
 20
642.3624997791367
 30
0.0
 11
318.2995172626106
 21
892.3625930692308
 31
0.0
  0
LINE
  5
B789
330
C003
100
AcDbEntity
  8
0
100
AcDbLine
 10
1088.299529219235
 20
953.3625971951833
 30
0.0
 11
1088.299529219235
 21
1067.488816839596
 31
0.0
  0
LINE
  5
B78A
330
C003
100
AcDbEntity
  8
0
100
AcDbLine
 10
938.299582713112
 20
950.3625150269327
 30
0.0
 11
938.299582713112
 21
1067.488816839596
 31
0.0
  0
LINE
  5
B78B
330
C003
100
AcDbEntity
  8
0
100
AcDbLine
 10
1068.299529219235
 20
1049.488816839597
 30
0.0
 11
958.2995827131126
 21
1049.488816839597
 31
0.0
  0
LINE
  5
B791
330
C003
100
AcDbEntity
  8
0
100
AcDbLine
 10
311.299541015067
 20
952.3625505342252
 30
0.0
 11
132.1606663200582
 21
952.3625505342252
 31
0.0
  0
LINE
  5
B792
330
C003
100
AcDbEntity
  8
0
100
AcDbLine
 10
287.2995618390869
 20
922.3625132911305
 30
0.0
 11
132.1606663200582
 21
922.3625132911305
 31
0.0
  0
LINE
  5
B793
330
C003
100
AcDbEntity
  8
0
100
AcDbLine
 10
150.1606663200582
 20
902.3625132911304
 30
0.0
 11
150.1606663200582
 21
882.3625132911304
 31
0.0
  0
LINE
  5
B794
330
C003
100
AcDbEntity
  8
0
100
AcDbLine
 10
150.1606663200582
 20
972.3625505342253
 30
0.0
 11
150.1606663200582
 21
1029.862550534225
 31
0.0
  0
LINE
  5
B795
330
C003
100
AcDbEntity
  8
0
100
AcDbLine
 10
150.1606663200582
 20
922.3625132911305
 30
0.0
 11
150.1606663200582
 21
952.3625505342252
 31
0.0
  0
LINE
  5
B799
330
C003
100
AcDbEntity
  8
0
100
AcDbLine
 10
311.299541015067
 20
582.3626260213504
 30
0.0
 11
132.1606663200582
 21
582.3626260213504
 31
0.0
  0
LINE
  5
B79A
330
C003
100
AcDbEntity
  8
0
100
AcDbLine
 10
287.2995618390869
 20
612.362663264445
 30
0.0
 11
132.1606663200582
 21
612.3626632644451
 31
0.0
  0
LINE
  5
B79B
330
C003
100
AcDbEntity
  8
0
100
AcDbLine
 10
150.1606663200582
 20
632.3626632644451
 30
0.0
 11
150.1606663200582
 21
652.3626632644451
 31
0.0
  0
LINE
  5
B79C
330
C003
100
AcDbEntity
  8
0
100
AcDbLine
 10
150.1606663200582
 20
562.3626260213503
 30
0.0
 11
150.1606663200582
 21
504.8626260213504
 31
0.0
  0
LINE
  5
B79D
330
C003
100
AcDbEntity
  8
0
100
AcDbLine
 10
150.1606663200582
 20
612.3626632644451
 30
0.0
 11
150.1606663200582
 21
582.3626260213504
 31
0.0
  0
LINE
  5
B7A1
330
C003
100
AcDbEntity
  8
0
100
AcDbLine
 10
422.2995172626103
 20
922.3625132911305
 30
0.0
 11
132.197619584691
 21
922.3625132911305
 31
0.0
  0
LINE
  5
B7A2
330
C003
100
AcDbEntity
  8
0
100
AcDbLine
 10
422.2995172626103
 20
612.362663264445
 30
0.0
 11
132.197619584691
 21
612.3626632644451
 31
0.0
  0
LINE
  5
B7A3
330
C003
100
AcDbEntity
  8
0
100
AcDbLine
 10
150.197619584691
 20
902.3625132911304
 30
0.0
 11
150.197619584691
 21
632.3626632644451
 31
0.0
  0
LINE
  5
B7A7
330
C003
100
AcDbEntity
  8
0
100
AcDbLine
 10
288.2995618390869
 20
886.362594193517
 30
0.0
 11
288.2995618390869
 21
1067.488816839596
 31
0.0
  0
LINE
  5
B7A8
330
C003
100
AcDbEntity
  8
0
100
AcDbLine
 10
438.2995172626102
 20
950.3625150269327
 30
0.0
 11
438.2995172626102
 21
1067.488816839596
 31
0.0
  0
LINE
  5
B7A9
330
C003
100
AcDbEntity
  8
0
100
AcDbLine
 10
308.2995618390869
 20
1049.488816839597
 30
0.0
 11
418.2995172626105
 21
1049.488816839597
 31
0.0
  0
LINE
  5
B7AD
330
C003
100
AcDbEntity
  8
0
100
AcDbLine
 10
438.2995172626102
 20
948.3625150269327
 30
0.0
 11
438.2995172626102
 21
1067.488816839596
 31
0.0
  0
LINE
  5
B7AE
330
C003
100
AcDbEntity
  8
0
100
AcDbLine
 10
938.2995172626102
 20
948.3625150269327
 30
0.0
 11
938.2995172626102
 21
1067.488816839596
 31
0.0
  0
LINE
  5
B7AF
330
C003
100
AcDbEntity
  8
0
100
AcDbLine
 10
458.2995172626104
 20
1049.488816839597
 30
0.0
 11
918.2995172626103
 21
1049.488816839597
 31
0.0
  0
LINE
  5
B7B3
330
C003
100
AcDbEntity
  8
0
100
AcDbLine
 10
363.7141208015949
 20
1613.5
 30
0.0
 11
198.1835585388724
 21
1613.5
 31
0.0
  0
LINE
  5
B7B4
330
C003
100
AcDbEntity
  8
0
100
AcDbLine
 10
362.8354411451547
 20
1754.500000000001
 30
0.0
 11
198.1835585388726
 21
1754.500000000001
 31
0.0
  0
CIRCLE
  5
B7B9
330
C003
100
AcDbEntity
  8
0
100
AcDbCircle
 10
1131.83546201918
 20
2378.089053207848
 30
0.0
 40
12.0000000000005
  0
CIRCLE
  5
B7BB
330
C003
100
AcDbEntity
  8
0
100
AcDbCircle
 10
1131.83546201918
 20
2072.089045567173
 30
0.0
 40
12.0000000000005
  0
LINE
  5
B7BD
330
C003
100
AcDbEntity
  8
0
100
AcDbLine
 10
513.8354411451545
 20
2390.088976136654
 30
0.0
 11
522.5123137828679
 21
2408.888725845592
 31
0.0
  0
LINE
  5
B7BE
330
C003
100
AcDbEntity
  8
0
100
AcDbLine
 10
513.8354411451545
 20
2390.088976136654
 30
0.0
 11
530.7497081292845
 21
2402.031600650528
 31
0.0
  0
LINE
  5
B7BF
330
C003
100
AcDbEntity
  8
0
100
AcDbLine
 10
526.6310109560762
 20
2405.460163248059
 30
0.0
 11
513.8354411451545
 21
2390.088976136654
 31
0.0
  0
CIRCLE
  5
B7C0
330
C003
100
AcDbEntity
  8
0
100
AcDbCircle
 10
395.8354857216308
 20
2378.089053207848
 30
0.0
 40
12.0000000000005
  0
CIRCLE
  5
B7C2
330
C003
100
AcDbEntity
  8
0
100
AcDbCircle
 10
395.8354857216308
 20
2378.089073598018
 30
0.0
 40
12.0000000000005
  0
CIRCLE
  5
B7C4
330
C003
100
AcDbEntity
  8
0
100
AcDbCircle
 10
395.8354857216308
 20
2072.089045567173
 30
0.0
 40
12.0000000000005
  0
LINE
  5
B7C6
330
C003
100
AcDbEntity
  8
0
100
AcDbLine
 10
386.8354648976112
 20
2410.089011643947
 30
0.0
 11
142.2286293404978
 21
2410.089011643947
 31
0.0
  0
LINE
  5
B7C7
330
C003
100
AcDbEntity
  8
0
100
AcDbLine
 10
386.3354648976101
 20
2040.089087131073
 30
0.0
 11
142.2286293404977
 21
2040.089087131073
 31
0.0
  0
LINE
  5
B7C8
330
C003
100
AcDbEntity
  8
0
100
AcDbLine
 10
160.2286293404978
 20
2390.089011643947
 30
0.0
 11
160.2286293404977
 21
2060.089087131073
 31
0.0
  0
LINE
  5
B7CC
330
C003
100
AcDbEntity
  8
0
100
AcDbLine
 10
438.2995172626114
 20
612.3626615286423
 30
0.0
 11
453.0766984305097
 21
597.8590887060281
 31
0.0
  0
LINE
  5
B7CD
330
C003
100
AcDbEntity
  8
0
100
AcDbLine
 10
438.2995172626114
 20
612.3626615286423
 30
0.0
 11
443.8451451390299
 21
592.4136084346717
 31
0.0
  0
LINE
  5
B7CE
330
C003
100
AcDbEntity
  8
0
100
AcDbLine
 10
448.4609217847697
 20
595.1363485703496
 30
0.0
 11
438.2995172626114
 21
612.3626615286423
 31
0.0
  0
LINE
  5
B7CF
330
C003
100
AcDbEntity
  8
0
100
AcDbLine
 10
211.3194661535963
 20
1754.500000000001
 30
0.0
 11
142.2286293404977
 21
1754.500000000001
 31
0.0
  0
LINE
  5
B7D0
330
C003
100
AcDbEntity
  8
0
100
AcDbLine
 10
270.8979341550839
 20
1613.499999999999
 30
0.0
 11
142.2286293404977
 21
1613.499999999999
 31
0.0
  0
LINE
  5
B7D1
330
C003
100
AcDbEntity
  8
0
100
AcDbLine
 10
160.2286293404977
 20
1732.5
 30
0.0
 11
160.2286293404977
 21
1633.499999999999
 31
0.0
  0
LINE
  5
B7D5
330
C003
100
AcDbEntity
  8
0
100
AcDbLine
 10
429.8354411451549
 20
1724.5
 30
0.0
 11
262.2278591932513
 21
1724.5
 31
0.0
  0
LINE
  5
B7D6
330
C003
100
AcDbEntity
  8
0
100
AcDbLine
 10
279.2278591932513
 20
1754.500000000001
 30
0.0
 11
262.2278591932513
 21
1754.500000000001
 31
0.0
  0
LINE
  5
B7D7
330
C003
100
AcDbEntity
  8
0
100
AcDbLine
 10
280.2278591932513
 20
1734.5
 30
0.0
 11
280.2278591932513
 21
1744.500000000001
 31
0.0
  0
LINE
  5
B7D8
330
C003
100
AcDbEntity
  8
0
100
AcDbLine
 10
280.2278591932513
 20
1754.500000000001
 30
0.0
 11
280.2278591932513
 21
1802.0
 31
0.0
  0
LINE
  5
B7DC
330
C003
100
AcDbEntity
  8
0
100
AcDbLine
 10
429.8354411451549
 20
1643.5
 30
0.0
 11
262.2278591932513
 21
1643.5
 31
0.0
  0
LINE
  5
B7DD
330
C003
100
AcDbEntity
  8
0
100
AcDbLine
 10
279.2278591932513
 20
1613.5
 30
0.0
 11
262.2278591932513
 21
1613.5
 31
0.0
  0
LINE
  5
B7DE
330
C003
100
AcDbEntity
  8
0
100
AcDbLine
 10
280.2278591932513
 20
1633.5
 30
0.0
 11
280.2278591932513
 21
1623.5
 31
0.0
  0
LINE
  5
B7DF
330
C003
100
AcDbEntity
  8
0
100
AcDbLine
 10
280.2278591932513
 20
1613.5
 30
0.0
 11
280.2278591932513
 21
1566.0
 31
0.0
  0
TEXT
  5
B7E3
330
C003
100
AcDbEntity
  8
0
100
AcDbText
 10
508.047297103254
 20
533.2283245857967
 30
0.0
 40
25.0
  1
4-∅20
100
AcDbText
  0
LINE
  5
B7E4
330
C003
100
AcDbEntity
  8
0
100
AcDbLine
 10
363.8354857216309
 20
2387.089011643956
 30
0.0
 11
363.8354857216309
 21
2633.165280260852
 31
0.0
  0
LINE
  5
B7E5
330
C003
100
AcDbEntity
  8
0
100
AcDbLine
 10
1163.83546201918
 20
2387.089011643956
 30
0.0
 11
1163.83546201918
 21
2633.165280260852
 31
0.0
  0
LINE
  5
B7E6
330
C003
100
AcDbEntity
  8
0
100
AcDbLine
 10
383.8354857216308
 20
2615.165280260852
 30
0.0
 11
1143.83546201918
 21
2615.165280260852
 31
0.0
  0
LINE
  5
B7EB
330
C003
100
AcDbEntity
  8
0
100
AcDbLine
 10
80.0
 20
2808.0
 30
0.0
 11
1880.0
 21
2808.0
 31
0.0
  0
LINE
  5
B803
330
C003
100
AcDbEntity
  8
0
100
AcDbLine
 10
80.0
 20
2808.0
 30
0.0
 11
80.0
 21
-0.0000000000000089
 31
0.0
  0
LINE
  5
B804
330
C003
100
AcDbEntity
  8
0
100
AcDbLine
 10
1880.0
 20
2808.0
 30
0.0
 11
1880.0
 21
-0.000000000000453
 31
0.0
  0
LINE
  5
B88C
330
C003
100
AcDbEntity
  8
0
100
AcDbLine
 10
80.0
 20
0.0
 30
0.0
 11
1880.0
 21
0.0
 31
0.0
  0
LINE
  5
B88D
330
C003
100
AcDbEntity
  8
0
100
AcDbLine
 10
80.0
 20
0.0
 30
0.0
 11
1880.0
 21
0.0
 31
0.0
  0
LINE
  5
B8F4
330
C003
100
AcDbEntity
  8
0
100
AcDbLine
 10
402.7636889519063
 20
2084.089045567173
 30
0.0
 11
409.6918921821814
 21
2072.089045567173
 31
0.0
  0
LINE
  5
B8F5
330
C003
100
AcDbEntity
  8
0
100
AcDbLine
 10
409.6918921821814
 20
2072.089045567173
 30
0.0
 11
402.7636889519063
 21
2060.089045567172
 31
0.0
  0
LINE
  5
B8F6
330
C003
100
AcDbEntity
  8
0
100
AcDbLine
 10
402.7636889519063
 20
2060.089045567172
 30
0.0
 11
388.9072824913554
 21
2060.089045567172
 31
0.0
  0
LINE
  5
B8F7
330
C003
100
AcDbEntity
  8
0
100
AcDbLine
 10
388.9072824913554
 20
2060.089045567172
 30
0.0
 11
381.9790792610799
 21
2072.089045567173
 31
0.0
  0
LINE
  5
B8F8
330
C003
100
AcDbEntity
  8
0
100
AcDbLine
 10
381.9790792610799
 20
2072.089045567173
 30
0.0
 11
388.9072824913554
 21
2084.089045567173
 31
0.0
  0
LINE
  5
B8F9
330
C003
100
AcDbEntity
  8
0
100
AcDbLine
 10
388.9072824913554
 20
2084.089045567173
 30
0.0
 11
402.7636889519063
 21
2084.089045567173
 31
0.0
  0
LINE
  5
B8FA
330
C003
100
AcDbEntity
  8
0
100
AcDbLine
 10
1124.907258788904
 20
2366.089053207848
 30
0.0
 11
1117.979055558628
 21
2378.089053207848
 31
0.0
  0
LINE
  5
B8FB
330
C003
100
AcDbEntity
  8
0
100
AcDbLine
 10
1117.979055558628
 20
2378.089053207848
 30
0.0
 11
1124.907258788904
 21
2390.089053207848
 31
0.0
  0
LINE
  5
B8FC
330
C003
100
AcDbEntity
  8
0
100
AcDbLine
 10
1124.907258788904
 20
2390.089053207848
 30
0.0
 11
1138.763665249455
 21
2390.089053207848
 31
0.0
  0
LINE
  5
B8FD
330
C003
100
AcDbEntity
  8
0
100
AcDbLine
 10
1138.763665249455
 20
2390.089053207848
 30
0.0
 11
1145.691868479731
 21
2378.089053207848
 31
0.0
  0
LINE
  5
B8FE
330
C003
100
AcDbEntity
  8
0
100
AcDbLine
 10
1145.691868479731
 20
2378.089053207848
 30
0.0
 11
1138.763665249455
 21
2366.089053207848
 31
0.0
  0
LINE
  5
B8FF
330
C003
100
AcDbEntity
  8
0
100
AcDbLine
 10
1138.763665249455
 20
2366.089053207848
 30
0.0
 11
1124.907258788904
 21
2366.089053207848
 31
0.0
  0
TEXT
  5
B900
330
C003
100
AcDbEntity
  8
0
100
AcDbText
 10
986.2162226328406
 20
1061.988816839597
 30
0.0
 40
25.0
  1
150
100
AcDbText
  0
LINE
  5
B901
330
C003
100
AcDbEntity
  8
0
100
AcDbLine
 10
938.299582713112
 20
1049.488816839597
 30
0.0
 11
958.2995827131121
 21
1054.84780068822
 31
0.0
  0
LINE
  5
B902
330
C003
100
AcDbEntity
  8
0
100
AcDbLine
 10
938.299582713112
 20
1049.488816839597
 30
0.0
 11
958.2995827131121
 21
1044.129832990975
 31
0.0
  0
LINE
  5
B903
330
C003
100
AcDbEntity
  8
0
100
AcDbLine
 10
958.2995827131121
 20
1049.488816839597
 30
0.0
 11
938.299582713112
 21
1049.488816839597
 31
0.0
  0
LINE
  5
B904
330
C003
100
AcDbEntity
  8
0
100
AcDbLine
 10
1088.299529219235
 20
1049.488816839597
 30
0.0
 11
1068.299529219235
 21
1044.129832990975
 31
0.0
  0
LINE
  5
B905
330
C003
100
AcDbEntity
  8
0
100
AcDbLine
 10
1088.299529219235
 20
1049.488816839597
 30
0.0
 11
1068.299529219235
 21
1054.84780068822
 31
0.0
  0
LINE
  5
B906
330
C003
100
AcDbEntity
  8
0
100
AcDbLine
 10
1068.299529219235
 20
1049.488816839597
 30
0.0
 11
1088.299529219235
 21
1049.488816839597
 31
0.0
  0
TEXT
  5
B907
330
C003
100
AcDbEntity
  8
0
100
AcDbText
 10
137.6606663200581
 20
992.3625505342252
 30
0.0
 40
25.0
  1
30
 50
90.0
100
AcDbText
  0
LINE
  5
B908
330
C003
100
AcDbEntity
  8
0
100
AcDbLine
 10
150.1606663200582
 20
952.3625505342256
 30
0.0
 11
144.8016824714359
 21
972.3625505342257
 31
0.0
  0
LINE
  5
B909
330
C003
100
AcDbEntity
  8
0
100
AcDbLine
 10
150.1606663200582
 20
952.3625505342256
 30
0.0
 11
155.5196501686805
 21
972.3625505342257
 31
0.0
  0
LINE
  5
B90A
330
C003
100
AcDbEntity
  8
0
100
AcDbLine
 10
150.1606663200582
 20
972.3625505342257
 30
0.0
 11
150.1606663200582
 21
952.3625505342256
 31
0.0
  0
LINE
  5
B90B
330
C003
100
AcDbEntity
  8
0
100
AcDbLine
 10
150.1606663200582
 20
922.3625132911305
 30
0.0
 11
155.5196501686805
 21
902.3625132911304
 31
0.0
  0
LINE
  5
B90C
330
C003
100
AcDbEntity
  8
0
100
AcDbLine
 10
150.1606663200582
 20
922.3625132911305
 30
0.0
 11
144.8016824714359
 21
902.3625132911304
 31
0.0
  0
LINE
  5
B90D
330
C003
100
AcDbEntity
  8
0
100
AcDbLine
 10
150.1606663200582
 20
902.3625132911304
 30
0.0
 11
150.1606663200582
 21
922.3625132911305
 31
0.0
  0
TEXT
  5
B90E
330
C003
100
AcDbEntity
  8
0
100
AcDbText
 10
137.6606663200581
 20
504.8626260213504
 30
0.0
 40
25.0
  1
30
 50
90.0
100
AcDbText
  0
LINE
  5
B90F
330
C003
100
AcDbEntity
  8
0
100
AcDbLine
 10
150.1606663200582
 20
582.3626260213504
 30
0.0
 11
155.5196501686805
 21
562.3626260213503
 31
0.0
  0
LINE
  5
B910
330
C003
100
AcDbEntity
  8
0
100
AcDbLine
 10
150.1606663200582
 20
582.3626260213504
 30
0.0
 11
144.8016824714359
 21
562.3626260213503
 31
0.0
  0
LINE
  5
B911
330
C003
100
AcDbEntity
  8
0
100
AcDbLine
 10
150.1606663200582
 20
562.3626260213503
 30
0.0
 11
150.1606663200582
 21
582.3626260213504
 31
0.0
  0
LINE
  5
B912
330
C003
100
AcDbEntity
  8
0
100
AcDbLine
 10
150.1606663200582
 20
612.362663264445
 30
0.0
 11
144.8016824714359
 21
632.362663264445
 31
0.0
  0
LINE
  5
B913
330
C003
100
AcDbEntity
  8
0
100
AcDbLine
 10
150.1606663200582
 20
612.362663264445
 30
0.0
 11
155.5196501686805
 21
632.362663264445
 31
0.0
  0
LINE
  5
B914
330
C003
100
AcDbEntity
  8
0
100
AcDbLine
 10
150.1606663200582
 20
632.362663264445
 30
0.0
 11
150.1606663200582
 21
612.362663264445
 31
0.0
  0
TEXT
  5
B915
330
C003
100
AcDbEntity
  8
0
100
AcDbText
 10
137.6976195846909
 20
740.2792549444542
 30
0.0
 40
25.0
  1
310
 50
90.0
100
AcDbText
  0
LINE
  5
B916
330
C003
100
AcDbEntity
  8
0
100
AcDbLine
 10
150.197619584691
 20
612.362663264445
 30
0.0
 11
144.8386357360686
 21
632.362663264445
 31
0.0
  0
LINE
  5
B917
330
C003
100
AcDbEntity
  8
0
100
AcDbLine
 10
150.197619584691
 20
612.362663264445
 30
0.0
 11
155.5566034333133
 21
632.362663264445
 31
0.0
  0
LINE
  5
B918
330
C003
100
AcDbEntity
  8
0
100
AcDbLine
 10
150.197619584691
 20
632.362663264445
 30
0.0
 11
150.197619584691
 21
612.362663264445
 31
0.0
  0
LINE
  5
B919
330
C003
100
AcDbEntity
  8
0
100
AcDbLine
 10
150.197619584691
 20
922.3625132911305
 30
0.0
 11
155.5566034333133
 21
902.3625132911304
 31
0.0
  0
LINE
  5
B91A
330
C003
100
AcDbEntity
  8
0
100
AcDbLine
 10
150.197619584691
 20
922.3625132911305
 30
0.0
 11
144.8386357360686
 21
902.3625132911304
 31
0.0
  0
LINE
  5
B91B
330
C003
100
AcDbEntity
  8
0
100
AcDbLine
 10
150.197619584691
 20
902.3625132911304
 30
0.0
 11
150.197619584691
 21
922.3625132911305
 31
0.0
  0
TEXT
  5
B91C
330
C003
100
AcDbEntity
  8
0
100
AcDbText
 10
336.2162062175154
 20
1061.988816839597
 30
0.0
 40
25.0
  1
150
100
AcDbText
  0
LINE
  5
B91D
330
C003
100
AcDbEntity
  8
0
100
AcDbLine
 10
438.2995172626102
 20
1049.488816839597
 30
0.0
 11
418.2995172626105
 21
1044.129832990975
 31
0.0
  0
LINE
  5
B91E
330
C003
100
AcDbEntity
  8
0
100
AcDbLine
 10
438.2995172626102
 20
1049.488816839597
 30
0.0
 11
418.2995172626105
 21
1054.84780068822
 31
0.0
  0
LINE
  5
B91F
330
C003
100
AcDbEntity
  8
0
100
AcDbLine
 10
418.2995172626105
 20
1049.488816839597
 30
0.0
 11
438.2995172626102
 21
1049.488816839597
 31
0.0
  0
LINE
  5
B920
330
C003
100
AcDbEntity
  8
0
100
AcDbLine
 10
288.2995618390869
 20
1049.488816839597
 30
0.0
 11
308.2995618390869
 21
1054.84780068822
 31
0.0
  0
LINE
  5
B921
330
C003
100
AcDbEntity
  8
0
100
AcDbLine
 10
288.2995618390869
 20
1049.488816839597
 30
0.0
 11
308.2995618390869
 21
1044.129832990975
 31
0.0
  0
LINE
  5
B922
330
C003
100
AcDbEntity
  8
0
100
AcDbLine
 10
308.2995618390869
 20
1049.488816839597
 30
0.0
 11
288.2995618390869
 21
1049.488816839597
 31
0.0
  0
TEXT
  5
B923
330
C003
100
AcDbEntity
  8
0
100
AcDbText
 10
659.1328505959437
 20
1061.988816839597
 30
0.0
 40
25.0
  1
500
100
AcDbText
  0
LINE
  5
B924
330
C003
100
AcDbEntity
  8
0
100
AcDbLine
 10
938.2995172626102
 20
1049.488816839597
 30
0.0
 11
918.2995172626103
 21
1044.129832990975
 31
0.0
  0
LINE
  5
B925
330
C003
100
AcDbEntity
  8
0
100
AcDbLine
 10
938.2995172626102
 20
1049.488816839597
 30
0.0
 11
918.2995172626103
 21
1054.84780068822
 31
0.0
  0
LINE
  5
B926
330
C003
100
AcDbEntity
  8
0
100
AcDbLine
 10
918.2995172626103
 20
1049.488816839597
 30
0.0
 11
938.2995172626102
 21
1049.488816839597
 31
0.0
  0
LINE
  5
B927
330
C003
100
AcDbEntity
  8
0
100
AcDbLine
 10
438.2995172626102
 20
1049.488816839597
 30
0.0
 11
458.2995172626101
 21
1054.84780068822
 31
0.0
  0
LINE
  5
B928
330
C003
100
AcDbEntity
  8
0
100
AcDbLine
 10
438.2995172626102
 20
1049.488816839597
 30
0.0
 11
458.2995172626101
 21
1044.129832990975
 31
0.0
  0
LINE
  5
B929
330
C003
100
AcDbEntity
  8
0
100
AcDbLine
 10
458.2995172626101
 20
1049.488816839597
 30
0.0
 11
438.2995172626102
 21
1049.488816839597
 31
0.0
  0
LINE
  5
B931
330
C003
100
AcDbEntity
  8
0
100
AcDbLine
 10
1124.907258788905
 20
2084.089045567173
 30
0.0
 11
1117.979055558628
 21
2072.089045567173
 31
0.0
  0
LINE
  5
B932
330
C003
100
AcDbEntity
  8
0
100
AcDbLine
 10
1117.979055558628
 20
2072.089045567173
 30
0.0
 11
1124.907258788905
 21
2060.089045567172
 31
0.0
  0
LINE
  5
B933
330
C003
100
AcDbEntity
  8
0
100
AcDbLine
 10
1124.907258788905
 20
2060.089045567172
 30
0.0
 11
1138.763665249456
 21
2060.089045567172
 31
0.0
  0
LINE
  5
B934
330
C003
100
AcDbEntity
  8
0
100
AcDbLine
 10
1138.763665249456
 20
2060.089045567172
 30
0.0
 11
1145.691868479731
 21
2072.089045567173
 31
0.0
  0
LINE
  5
B935
330
C003
100
AcDbEntity
  8
0
100
AcDbLine
 10
1145.691868479731
 20
2072.089045567173
 30
0.0
 11
1138.763665249456
 21
2084.089045567173
 31
0.0
  0
LINE
  5
B936
330
C003
100
AcDbEntity
  8
0
100
AcDbLine
 10
1138.763665249456
 20
2084.089045567173
 30
0.0
 11
1124.907258788905
 21
2084.089045567173
 31
0.0
  0
LINE
  5
B937
330
C003
100
AcDbEntity
  8
0
100
AcDbLine
 10
402.7636889519063
 20
2366.089053207848
 30
0.0
 11
409.6918921821814
 21
2378.089053207848
 31
0.0
  0
LINE
  5
B938
330
C003
100
AcDbEntity
  8
0
100
AcDbLine
 10
409.6918921821814
 20
2378.089053207848
 30
0.0
 11
402.7636889519063
 21
2390.089053207848
 31
0.0
  0
LINE
  5
B939
330
C003
100
AcDbEntity
  8
0
100
AcDbLine
 10
402.7636889519063
 20
2390.089053207848
 30
0.0
 11
388.9072824913554
 21
2390.089053207848
 31
0.0
  0
LINE
  5
B93A
330
C003
100
AcDbEntity
  8
0
100
AcDbLine
 10
388.9072824913554
 20
2390.089053207848
 30
0.0
 11
381.9790792610799
 21
2378.089053207848
 31
0.0
  0
LINE
  5
B93B
330
C003
100
AcDbEntity
  8
0
100
AcDbLine
 10
381.9790792610799
 20
2378.089053207848
 30
0.0
 11
388.9072824913554
 21
2366.089053207848
 31
0.0
  0
LINE
  5
B93C
330
C003
100
AcDbEntity
  8
0
100
AcDbLine
 10
388.9072824913554
 20
2366.089053207848
 30
0.0
 11
402.7636889519063
 21
2366.089053207848
 31
0.0
  0
LINE
  5
B93D
330
C003
100
AcDbEntity
  8
0
100
AcDbLine
 10
402.7636889519063
 20
2366.089073598018
 30
0.0
 11
409.6918921821814
 21
2378.089073598018
 31
0.0
  0
LINE
  5
B93E
330
C003
100
AcDbEntity
  8
0
100
AcDbLine
 10
409.6918921821814
 20
2378.089073598018
 30
0.0
 11
402.7636889519063
 21
2390.089073598018
 31
0.0
  0
LINE
  5
B93F
330
C003
100
AcDbEntity
  8
0
100
AcDbLine
 10
402.7636889519063
 20
2390.089073598018
 30
0.0
 11
388.9072824913554
 21
2390.089073598018
 31
0.0
  0
LINE
  5
B940
330
C003
100
AcDbEntity
  8
0
100
AcDbLine
 10
388.9072824913554
 20
2390.089073598018
 30
0.0
 11
381.9790792610799
 21
2378.089073598018
 31
0.0
  0
LINE
  5
B941
330
C003
100
AcDbEntity
  8
0
100
AcDbLine
 10
381.9790792610799
 20
2378.089073598018
 30
0.0
 11
388.9072824913554
 21
2366.089073598018
 31
0.0
  0
LINE
  5
B942
330
C003
100
AcDbEntity
  8
0
100
AcDbLine
 10
388.9072824913554
 20
2366.089073598018
 30
0.0
 11
402.7636889519063
 21
2366.089073598018
 31
0.0
  0
TEXT
  5
B943
330
C003
100
AcDbEntity
  8
0
100
AcDbText
 10
147.7286293404974
 20
2193.839049387511
 30
0.0
 40
25.0
  1
370
 50
90.0
100
AcDbText
  0
LINE
  5
B944
330
C003
100
AcDbEntity
  8
0
100
AcDbLine
 10
160.2286293404977
 20
2040.089087131073
 30
0.0
 11
154.8696454918754
 21
2060.089087131075
 31
0.0
  0
LINE
  5
B945
330
C003
100
AcDbEntity
  8
0
100
AcDbLine
 10
160.2286293404977
 20
2040.089087131073
 30
0.0
 11
165.58761318912
 21
2060.089087131075
 31
0.0
  0
LINE
  5
B946
330
C003
100
AcDbEntity
  8
0
100
AcDbLine
 10
160.2286293404977
 20
2060.089087131075
 30
0.0
 11
160.2286293404977
 21
2040.089087131073
 31
0.0
  0
LINE
  5
B947
330
C003
100
AcDbEntity
  8
0
100
AcDbLine
 10
160.2286293404977
 20
2410.089011643947
 30
0.0
 11
165.58761318912
 21
2390.089011643947
 31
0.0
  0
LINE
  5
B948
330
C003
100
AcDbEntity
  8
0
100
AcDbLine
 10
160.2286293404977
 20
2410.089011643947
 30
0.0
 11
154.8696454918754
 21
2390.089011643947
 31
0.0
  0
LINE
  5
B949
330
C003
100
AcDbEntity
  8
0
100
AcDbLine
 10
160.2286293404977
 20
2390.089011643947
 30
0.0
 11
160.2286293404977
 21
2410.089011643947
 31
0.0
  0
LINE
  5
B94A
330
C003
100
AcDbEntity
  8
0
100
AcDbLine
 10
160.2286293404977
 20
1613.499999999999
 30
0.0
 11
154.8696454918754
 21
1633.499999999999
 31
0.0
  0
LINE
  5
B94B
330
C003
100
AcDbEntity
  8
0
100
AcDbLine
 10
160.2286293404977
 20
1613.499999999999
 30
0.0
 11
165.58761318912
 21
1633.499999999999
 31
0.0
  0
LINE
  5
B94C
330
C003
100
AcDbEntity
  8
0
100
AcDbLine
 10
160.2286293404977
 20
1633.499999999999
 30
0.0
 11
160.2286293404977
 21
1613.499999999999
 31
0.0
  0
LINE
  5
B94D
330
C003
100
AcDbEntity
  8
0
100
AcDbLine
 10
160.2286293404977
 20
1754.500000000001
 30
0.0
 11
165.58761318912
 21
1734.5
 31
0.0
  0
LINE
  5
B94E
330
C003
100
AcDbEntity
  8
0
100
AcDbLine
 10
160.2286293404977
 20
1754.500000000001
 30
0.0
 11
154.8696454918754
 21
1734.5
 31
0.0
  0
LINE
  5
B94F
330
C003
100
AcDbEntity
  8
0
100
AcDbLine
 10
160.2286293404977
 20
1734.5
 30
0.0
 11
160.2286293404977
 21
1754.500000000001
 31
0.0
  0
TEXT
  5
B950
330
C003
100
AcDbEntity
  8
0
100
AcDbText
 10
142.2286293404974
 20
1591.5
 30
0.0
 40
25.0
  1
据付時約141
 50
90.0
100
AcDbText
  0
TEXT
  5
B951
330
C003
100
AcDbEntity
  8
0
100
AcDbText
 10
267.7278591932509
 20
1764.5
 30
0.0
 40
25.0
  1
30
 50
90.0
100
AcDbText
  0
LINE
  5
B952
330
C003
100
AcDbEntity
  8
0
100
AcDbLine
 10
280.2278591932513
 20
1744.500000000001
 30
0.0
 11
280.2278591932513
 21
1754.500000000001
 31
0.0
  0
LINE
  5
B954
330
C003
100
AcDbEntity
  8
0
100
AcDbLine
 10
280.2278591932513
 20
1734.5
 30
0.0
 11
280.2278591932513
 21
1724.5
 31
0.0
  0
TEXT
  5
B956
330
C003
100
AcDbEntity
  8
0
100
AcDbText
 10
267.7278591932509
 20
1566.0
 30
0.0
 40
25.0
  1
30
 50
90.0
100
AcDbText
  0
LINE
  5
B957
330
C003
100
AcDbEntity
  8
0
100
AcDbLine
 10
280.2278591932513
 20
1623.5
 30
0.0
 11
280.2278591932513
 21
1613.5
 31
0.0
  0
LINE
  5
B959
330
C003
100
AcDbEntity
  8
0
100
AcDbLine
 10
280.2278591932513
 20
1633.5
 30
0.0
 11
280.2278591932513
 21
1643.5
 31
0.0
  0
TEXT
  5
B95B
330
C003
100
AcDbEntity
  8
0
100
AcDbText
 10
734.6688072037385
 20
2627.665280260851
 30
0.0
 40
25.0
  1
800
100
AcDbText
  0
LINE
  5
B95C
330
C003
100
AcDbEntity
  8
0
100
AcDbLine
 10
1163.83546201918
 20
2615.165280260852
 30
0.0
 11
1143.83546201918
 21
2609.806296412229
 31
0.0
  0
LINE
  5
B95D
330
C003
100
AcDbEntity
  8
0
100
AcDbLine
 10
1163.83546201918
 20
2615.165280260852
 30
0.0
 11
1143.83546201918
 21
2620.524264109475
 31
0.0
  0
LINE
  5
B95E
330
C003
100
AcDbEntity
  8
0
100
AcDbLine
 10
1143.83546201918
 20
2615.165280260852
 30
0.0
 11
1163.83546201918
 21
2615.165280260852
 31
0.0
  0
LINE
  5
B95F
330
C003
100
AcDbEntity
  8
0
100
AcDbLine
 10
363.8354857216309
 20
2615.165280260852
 30
0.0
 11
383.8354857216308
 21
2620.524264109475
 31
0.0
  0
LINE
  5
B960
330
C003
100
AcDbEntity
  8
0
100
AcDbLine
 10
363.8354857216309
 20
2615.165280260852
 30
0.0
 11
383.8354857216308
 21
2609.806296412231
 31
0.0
  0
LINE
  5
B961
330
C003
100
AcDbEntity
  8
0
100
AcDbLine
 10
383.8354857216308
 20
2615.165280260852
 30
0.0
 11
363.8354857216309
 21
2615.165280260852
 31
0.0
  0
ARC
  5
BF3C
330
C003
100
AcDbEntity
  8
0
100
AcDbCircle
 10
280.2278591932513
 20
1643.5
 30
0.0
 40
1.25
100
AcDbArc
 50
270.0
 51
90.0
  0
ARC
  5
BF3D
330
C003
100
AcDbEntity
  8
0
100
AcDbCircle
 10
280.2278591932513
 20
1643.5
 30
0.0
 40
1.25
100
AcDbArc
 50
90.0
 51
270.0
  0
ARC
  5
BF3E
330
C003
100
AcDbEntity
  8
0
100
AcDbCircle
 10
280.2278591932513
 20
1613.5
 30
0.0
 40
1.25
100
AcDbArc
 50
90.0
 51
270.0
  0
ARC
  5
BF3F
330
C003
100
AcDbEntity
  8
0
100
AcDbCircle
 10
280.2278591932513
 20
1613.5
 30
0.0
 40
1.25
100
AcDbArc
 50
270.0
 51
90.0
  0
ARC
  5
BF40
330
C003
100
AcDbEntity
  8
0
100
AcDbCircle
 10
280.2278591932513
 20
1724.5
 30
0.0
 40
1.25
100
AcDbArc
 50
90.0
 51
270.0
  0
ARC
  5
BF41
330
C003
100
AcDbEntity
  8
0
100
AcDbCircle
 10
280.2278591932513
 20
1724.5
 30
0.0
 40
1.25
100
AcDbArc
 50
270.0
 51
90.0
  0
ARC
  5
BF42
330
C003
100
AcDbEntity
  8
0
100
AcDbCircle
 10
280.2278591932513
 20
1754.5
 30
0.0
 40
1.250000000000454
100
AcDbArc
 50
270.0
 51
90.0
  0
ARC
  5
BF43
330
C003
100
AcDbEntity
  8
0
100
AcDbCircle
 10
280.2278591932513
 20
1754.5
 30
0.0
 40
1.250000000000225
100
AcDbArc
 50
90.0
 51
270.0
  0
MTEXT
  5
C663
330
C003
100
AcDbEntity
  8
0
100
AcDbMText
 10
237.8623991076438
 20
1515.918731851918
 30
0.0
 40
30.0
 41
1369.2
 46
0.0
 71
     1
 72
     1
  1
※搭載機器や施工状況等によって、据え付け高さは若干異なる可能性があります。
 73
     1
 44
1.0
  0
LINE
  5
C94A
330
C003
100
AcDbEntity
  8
0
100
AcDbLine
 10
1166.752249659997
 20
2167.630079429023
 30
0.0
 11
1237.621650537012
 21
2198.611335277933
 31
0.0
  0
TEXT
  5
C94C
330
C003
100
AcDbEntity
  8
0
100
AcDbText
 10
1249.239290932433
 20
2229.597658527377
 30
0.0
 40
24.0
  1
「配管側」ラベル
 50
89.99999656979346
100
AcDbText
  0
LINE
  5
C94D
330
C003
100
AcDbEntity
  8
0
100
AcDbLine
 10
1237.621650537011
 20
2198.611335277933
 30
0.0
 11
1237.621650537011
 21
2223.27999738797
 31
0.0
  0
LINE
  5
C94E
330
C003
100
AcDbEntity
  8
0
100
AcDbLine
 10
1138.83546201918
 20
2228.089057639407
 30
0.0
 11
1138.83546201918
 21
2128.089057639407
 31
0.0
  0
LINE
  5
C94F
330
C003
100
AcDbEntity
  8
0
100
AcDbLine
 10
1158.83546201918
 20
2228.089057639407
 30
0.0
 11
1158.83546201918
 21
2128.089057639407
 31
0.0
  0
LINE
  5
C950
330
C003
100
AcDbEntity
  8
0
100
AcDbLine
 10
1158.83546201918
 20
2228.089057639407
 30
0.0
 11
1138.83546201918
 21
2228.089057639407
 31
0.0
  0
LINE
  5
C951
330
C003
100
AcDbEntity
  8
0
100
AcDbLine
 10
1158.83546201918
 20
2128.089057639407
 30
0.0
 11
1138.83546201918
 21
2128.089057639407
 31
0.0
  0
LINE
  5
C952
330
C003
100
AcDbEntity
  8
0
100
AcDbLine
 10
1148.426814647213
 20
2159.618935216602
 30
0.0
 11
1164.60567003783
 21
2172.540364941648
 31
0.0
  0
LINE
  5
C953
330
C003
100
AcDbEntity
  8
0
100
AcDbLine
 10
1148.426814647213
 20
2159.618935216602
 30
0.0
 11
1168.898829282165
 21
2162.719793916399
 31
0.0
  0
LINE
  5
C954
330
C003
100
AcDbEntity
  8
0
100
AcDbLine
 10
1166.752249659998
 20
2167.630079429023
 30
0.0
 11
1148.426814647213
 21
2159.618935216602
 31
0.0
  0
ENDSEC
  0
SECTION
  2
OBJECTS
  0
DICTIONARY
  5
BFA0
330
0
100
AcDbDictionary
281
     1
  3
ACAD_CIP_PREVIOUS_PRODUCT_INFO
350
C059
  3
ACAD_COLOR
350
BFF6
  3
ACAD_DETAILVIEWSTYLE
350
BFFD
  3
ACAD_FIELDLIST
350
C0A2
  3
ACAD_GROUP
350
BFA1
  3
ACAD_LAYOUT
350
BFF5
  3
ACAD_MATERIAL
350
BFA4
  3
ACAD_MLEADERSTYLE
350
BFF9
  3
ACAD_MLINESTYLE
350
BFF2
  3
ACAD_PLOTSETTINGS
350
BFF4
  3
ACAD_PLOTSTYLENAME
350
BFA2
  3
ACAD_SCALELIST
350
BFD6
  3
ACAD_SECTIONVIEWSTYLE
350
BFFB
  3
ACAD_TABLESTYLE
350
BFF7
  3
ACAD_VISUALSTYLE
350
BFBD
  3
ACDB_RECOMPOSE_DATA
350
C957
  3
AcDbVariableDictionary
350
C11A
  3
AcmDictionary
350
C07F
  3
AMG
350
C05A
  3
AMGSNAPSETTINGS
350
C0C4
  0
DICTIONARY
  5
C10A
330
BF96
100
AcDbDictionary
280
     1
281
     1
  3
ACAD_LAYERSTATES
360
C10B
  0
DICTIONARY
  5
C0B4
330
BFE8
100
AcDbDictionary
280
     1
281
     1
  3
ADSK_XREC_LAYER_RECONCILED
360
C0B5
  0
DICTIONARY
  5
C4CB
330
C003
100
AcDbDictionary
280
     1
281
     1
  3
ACAD_SORTENTS
360
C4CC
  0
XRECORD
  5
C059
102
{ACAD_REACTORS
330
BFA0
102
}
330
BFA0
100
AcDbXrecord
280
     1
300
AMECH_PP
300
2021
300
87400AMECH_PP_2021_0F
  0
DICTIONARY
  5
BFF6
102
{ACAD_REACTORS
330
BFA0
102
}
330
BFA0
100
AcDbDictionary
281
     1
  0
DICTIONARY
  5
BFFD
102
{ACAD_REACTORS
330
BFA0
102
}
330
BFA0
100
AcDbDictionary
281
     1
  3
Imperial24
350
BFFE
  3
Metric50
350
C79F
  0
FIELDLIST
  5
C0A2
102
{ACAD_REACTORS
330
BFA0
102
}
330
BFA0
100
AcDbIdSet
 90
       14
330
C6F5
330
C6F6
330
C6F7
330
C6F8
330
C6FC
330
C6FD
330
C6FE
330
C6FF
330
C793
330
C794
330
C795
330
C799
330
C79A
330
C79B
100
AcDbFieldList
  0
DICTIONARY
  5
BFA1
102
{ACAD_REACTORS
330
BFA0
102
}
330
BFA0
100
AcDbDictionary
281
     1
  0
DICTIONARY
  5
BFF5
102
{ACAD_REACTORS
330
BFA0
102
}
330
BFA0
100
AcDbDictionary
281
     1
  3
Model
350
C006
  3
レイアウト1
350
C002
  0
DICTIONARY
  5
BFA4
102
{ACAD_REACTORS
330
BFA0
102
}
330
BFA0
100
AcDbDictionary
281
     1
  3
ByBlock
350
BFAD
  3
ByLayer
350
BFA5
  3
Global
350
BFB5
  0
DICTIONARY
  5
BFF9
102
{ACAD_REACTORS
330
BFA0
102
}
330
BFA0
100
AcDbDictionary
281
     1
  3
Standard
350
BFFA
  0
DICTIONARY
  5
BFF2
102
{ACAD_REACTORS
330
BFA0
102
}
330
BFA0
100
AcDbDictionary
281
     1
  3
Standard
350
BFF3
  0
DICTIONARY
  5
BFF4
102
{ACAD_REACTORS
330
BFA0
102
}
330
BFA0
100
AcDbDictionary
281
     1
  0
ACDBDICTIONARYWDFLT
  5
BFA2
102
{ACAD_REACTORS
330
BFA0
102
}
330
BFA0
100
AcDbDictionary
281
     1
  3
Normal
350
BFA3
100
AcDbDictionaryWithDefault
340
BFA3
  0
DICTIONARY
  5
BFD6
102
{ACAD_REACTORS
330
BFA0
102
}
330
BFA0
100
AcDbDictionary
281
     1
  3
A0
350
BFD7
  3
A1
350
BFD8
  3
A2
350
BFD9
  3
A3
350
BFDA
  3
A4
350
BFDB
  3
A5
350
BFDC
  3
A6
350
BFDD
  3
A7
350
BFDE
  3
A8
350
BFDF
  3
A9
350
BFE0
  3
B0
350
BFE1
  3
B1
350
BFE2
  3
B2
350
BFE3
  3
B3
350
BFE4
  3
B4
350
BFE5
  3
B5
350
BFE6
  3
B6
350
BFE7
  0
DICTIONARY
  5
BFFB
102
{ACAD_REACTORS
330
BFA0
102
}
330
BFA0
100
AcDbDictionary
281
     1
  3
Imperial24
350
BFFC
  3
Metric50
350
C79C
  0
DICTIONARY
  5
BFF7
102
{ACAD_REACTORS
330
BFA0
102
}
330
BFA0
100
AcDbDictionary
281
     1
  3
Standard
350
BFF8
  0
DICTIONARY
  5
BFBD
102
{ACAD_REACTORS
330
BFA0
102
}
330
BFA0
100
AcDbDictionary
281
     1
  3
2dWireframe
350
BFC3
  3
Basic
350
BFC2
  3
Brighten
350
BFC9
  3
ColorChange
350
BFCD
  3
Conceptual
350
BFC6
  3
Dim
350
BFC8
  3
EdgeColorOff
350
BFD5
  3
Facepattern
350
BFCC
  3
Flat
350
BFBE
  3
FlatWithEdges
350
BFBF
  3
Gouraud
350
BFC0
  3
GouraudWithEdges
350
BFC1
  3
Hidden
350
BFC5
  3
JitterOff
350
BFD3
  3
Linepattern
350
BFCB
  3
OverhangOff
350
BFD4
  3
Realistic
350
BFC7
  3
Shaded
350
BFD2
  3
Shaded with edges
350
BFD1
  3
Shades of Gray
350
BFCE
  3
Sketchy
350
BFCF
  3
Thicken
350
BFCA
  3
Wireframe
350
BFC4
  3
X-Ray
350
BFD0
  0
XRECORD
  5
C957
102
{ACAD_REACTORS
330
BFA0
102
}
330
BFA0
100
AcDbXrecord
280
     1
 90
        1
330
BFF8
  0
DICTIONARY
  5
C11A
102
{ACAD_REACTORS
330
BFA0
102
}
330
BFA0
100
AcDbDictionary
281
     1
  3
CANNOSCALE
350
C120
  3
CMLEADERSTYLE
350
C11C
  3
CTABLESTYLE
350
C11B
  3
CVIEWDETAILSTYLE
350
C11D
  3
CVIEWSECTIONSTYLE
350
C11E
  3
LAYEREVAL
350
C122
  3
LAYERNOTIFY
350
C123
  3
LIGHTINGUNITS
350
C121
  3
MSLTSCALE
350
C11F
  3
XCLIPFRAME
350
C955
  0
DICTIONARY
  5
C07F
102
{ACAD_REACTORS
330
BFA0
102
}
330
BFA0
100
AcDbDictionary
281
     1
  3
AcmStdDictionary
350
C086
  0
DICTIONARY
  5
C05A
102
{ACAD_REACTORS
330
BFA0
102
}
330
BFA0
100
AcDbDictionary
281
     1
  0
DICTIONARY
  5
C0C4
102
{ACAD_REACTORS
330
BFA0
102
}
330
BFA0
100
AcDbDictionary
281
     1
  0
DICTIONARY
  5
C10B
102
{ACAD_REACTORS
330
C10A
102
}
330
C10A
100
AcDbDictionary
281
     1
  0
XRECORD
  5
C0B5
102
{ACAD_REACTORS
330
C0B4
102
}
330
C0B4
100
AcDbXrecord
280
     1
290
     1
  0
SORTENTSTABLE
  5
C4CC
102
{ACAD_REACTORS
330
C4CB
102
}
330
C4CB
100
AcDbSortentsTable
330
C003
331
91
  5
3F38
331
A86
  5
3F39
331
3B8C
  5
3F3A
331
3BE0
  5
40CA
331
3D64
  5
40CB
331
3F38
  5
40CC
331
3F39
  5
40CE
331
3F3A
  5
40CF
331
40CA
  5
40D0
331
40CB
  5
40D1
331
40CC
  5
40D2
331
40CE
  5
4157
331
40CF
  5
4158
331
40D0
  5
4159
331
40D1
  5
415B
331
40D2
  5
415C
331
4157
  5
415D
331
4158
  5
415E
331
4159
  5
4160
331
415B
  5
4161
331
415C
  5
4162
331
415D
  5
9BF9
331
415E
  5
9BFA
331
4160
  5
9BFC
331
4161
  5
9BFD
331
4162
  5
9BFE
331
9BF9
  5
9BFF
331
9BFA
  5
9C00
331
9BFC
  5
9C01
331
9BFD
  5
9C02
331
9BFE
  5
9C03
331
9BFF
  5
9C23
331
9C00
  5
9C24
331
9C01
  5
9C31
331
9C02
  5
9C37
331
9C03
  5
9C38
331
9C23
  5
9C39
331
9C24
  5
9C3A
331
9C31
  5
9C3B
331
9C37
  5
9C3C
331
9C38
  5
9C3D
331
9C39
  5
9C3E
331
9C3A
  5
9C3F
331
9C3B
  5
9C40
331
9C3C
  5
9C41
331
9C3D
  5
9C42
331
9C3E
  5
9C43
331
9C3F
  5
9C44
331
9C40
  5
9C45
331
9C41
  5
9C46
331
9C42
  5
9C47
331
9C43
  5
9C48
331
9C44
  5
9C49
331
9C45
  5
9C4A
331
9C46
  5
9C4B
331
9C47
  5
9C4C
331
9C48
  5
9C4D
331
9C49
  5
9C4E
331
9C4A
  5
9C4F
331
9C4B
  5
9C50
331
9C4C
  5
9C51
331
9C4D
  5
9C52
331
9C4E
  5
9C53
331
9C4F
  5
9C54
331
9C50
  5
9C55
331
9C51
  5
9C56
331
9C52
  5
9C57
331
9C53
  5
9C58
331
9C54
  5
9C59
331
9C55
  5
9C5A
331
9C56
  5
9C5B
331
9C57
  5
9C5C
331
9C58
  5
9C5D
331
9C59
  5
9C5E
331
9C5A
  5
9C5F
331
9C5B
  5
9C60
331
9C5C
  5
9C61
331
9C5D
  5
9C62
331
9C5E
  5
9C63
331
9C5F
  5
9C64
331
9C60
  5
9C65
331
9C61
  5
9C66
331
9C62
  5
9C67
331
9C63
  5
9C68
331
9C64
  5
9C69
331
9C65
  5
9C6A
331
9C66
  5
9C6B
331
9C67
  5
9C6C
331
9C68
  5
9C6D
331
9C69
  5
9C6E
331
9C6A
  5
9C6F
331
9C6B
  5
9C70
331
9C6C
  5
9C71
331
9C6D
  5
9C72
331
9C6E
  5
9C73
331
9C6F
  5
9C74
331
9C70
  5
9C75
331
9C71
  5
9C76
331
9C72
  5
9C77
331
9C73
  5
9C78
331
9C74
  5
9C79
331
9C75
  5
9C7A
331
9C76
  5
9C7B
331
9C77
  5
9C7C
331
9C78
  5
9C7D
331
9C79
  5
9C7E
331
9C7A
  5
9C7F
331
9C7B
  5
9C80
331
9C7C
  5
9C81
331
9C7D
  5
9C82
331
9C7E
  5
9C83
331
9C7F
  5
9C84
331
9C80
  5
9C85
331
9C81
  5
9C86
331
9C82
  5
9C87
331
9C83
  5
9C88
331
9C84
  5
9C89
331
9C85
  5
9C8A
331
9C86
  5
9C8F
331
9C87
  5
9C90
331
9C88
  5
9C91
331
9C89
  5
9C92
331
9C8A
  5
9C93
331
9C8F
  5
9C94
331
9C90
  5
9C96
331
9C91
  5
9C97
331
9C92
  5
9C98
331
9C93
  5
9C99
331
9C94
  5
9C9A
331
9C96
  5
9C9B
331
9C97
  5
9C9C
331
9C98
  5
9C9D
331
9C99
  5
9C9E
331
9C9A
  5
9C9F
331
9C9B
  5
9CA1
331
9C9C
  5
9CA2
331
9C9D
  5
9CA3
331
9C9E
  5
9CA5
331
9C9F
  5
9CA6
331
9CA1
  5
9CA7
331
9CA2
  5
9CA8
331
9CA3
  5
9CA9
331
9CA5
  5
9CAA
331
9CA6
  5
9CAB
331
9CA7
  5
9CAC
331
9CA8
  5
9CAD
331
9CA9
  5
9CAE
331
9CAA
  5
9CAF
331
9CAB
  5
9CB0
331
9CAC
  5
9CB1
331
9CAD
  5
9CB4
331
9CAE
  5
9CB5
331
9CAF
  5
9CBD
331
9CB0
  5
9CBE
331
9CB1
  5
9CBF
331
9CB4
  5
9CC2
331
9CB5
  5
9CC3
331
9CBD
  5
9CC4
331
9CBE
  5
9CC5
331
9CBF
  5
9CD1
331
9CC2
  5
9CD2
331
9CC3
  5
9CD3
331
9CC4
  5
9CF6
331
9CC5
  5
9CF7
331
9CD1
  5
9CF8
331
9CD2
  5
9CF9
331
9CD3
  5
9CFB
331
9CF6
  5
9CFC
331
9CF7
  5
9D02
331
9CF8
  5
9D03
331
9CF9
  5
9D04
331
9CFB
  5
9D05
331
9CFC
  5
9D3B
331
9D02
  5
9D5F
331
9D03
  5
9D60
331
9D04
  5
9D61
331
9D05
  5
9D62
331
9D3B
  5
9D6E
331
9D5F
  5
9D6F
331
9D60
  5
9D70
331
9D61
  5
9D71
331
9D62
  5
9D72
331
9D6E
  5
9D73
331
9D6F
  5
9D74
331
9D70
  5
9D75
331
9D71
  5
9D76
331
9D72
  5
9D77
331
9D73
  5
9D78
331
9D74
  5
9D79
331
9D75
  5
9D7A
331
9D76
  5
9D7B
331
9D77
  5
9D7C
331
9D78
  5
9D7D
331
9D79
  5
9D7E
331
9D7A
  5
9D7F
331
9D7B
  5
9D80
331
9D7C
  5
9D81
331
9D7D
  5
9D82
331
9D7E
  5
9D83
331
9D7F
  5
9D84
331
9D80
  5
9D85
331
9D81
  5
9D86
331
9D82
  5
9D87
331
9D83
  5
9D88
331
9D84
  5
9D89
331
9D85
  5
9D8A
331
9D86
  5
9D8B
331
9D87
  5
9D8C
331
9D88
  5
9D8D
331
9D89
  5
9D8E
331
9D8A
  5
9D8F
331
9D8B
  5
9D90
331
9D8C
  5
9D91
331
9D8D
  5
9D92
331
9D8E
  5
9D93
331
9D8F
  5
9D94
331
9D90
  5
9D95
331
9D91
  5
9D96
331
9D92
  5
9D97
331
9D93
  5
9D98
331
9D94
  5
9D99
331
9D95
  5
9D9A
331
9D96
  5
9D9B
331
9D97
  5
9D9C
331
9D98
  5
9D9D
331
9D99
  5
9D9E
331
9D9A
  5
9D9F
331
9D9B
  5
9DA0
331
9D9C
  5
9DA1
331
9D9D
  5
9DA2
331
9D9E
  5
9DA3
331
9D9F
  5
9DA4
331
9DA0
  5
9DA5
331
9DA1
  5
9DA6
331
9DA2
  5
9DA7
331
9DA3
  5
9DA8
331
9DA4
  5
9DA9
331
9DA5
  5
9DAA
331
9DA6
  5
9DAB
331
9DA7
  5
9DAC
331
9DA8
  5
9DAD
331
9DA9
  5
9DAE
331
9DAA
  5
9DAF
331
9DAB
  5
9DB0
331
9DAC
  5
9DB1
331
9DAD
  5
9DB2
331
9DAE
  5
9DB3
331
9DAF
  5
9DB4
331
9DB0
  5
9DB5
331
9DB1
  5
9DB6
331
9DB2
  5
9DB7
331
9DB3
  5
9DB8
331
9DB4
  5
9DB9
331
9DB5
  5
9DBA
331
9DB6
  5
9DBB
331
9DB7
  5
9DBD
331
9DB8
  5
9DBE
331
9DB9
  5
9DBF
331
9DBA
  5
9DC0
331
9DBB
  5
9DC1
331
9DBD
  5
9DC2
331
9DBE
  5
9DC4
331
9DBF
  5
9DC6
331
9DC0
  5
9DC7
331
9DC1
  5
9DC8
331
9DC2
  5
9DC9
331
9DC4
  5
9DCA
331
9DC6
  5
9DCB
331
9DC7
  5
9DCC
331
9DC8
  5
9DCD
331
9DC9
  5
9DCE
331
9DCA
  5
9DD0
331
9DCB
  5
9DD1
331
9DCC
  5
9DD2
331
9DCD
  5
9DD4
331
9DCE
  5
9DD5
331
9DD0
  5
9DD6
331
9DD1
  5
9DDA
331
9DD2
  5
9DDB
331
9DD4
  5
9DDC
331
9DD5
  5
9DDE
331
9DD6
  5
9DDF
331
9DDA
  5
9DE0
331
9DDB
  5
AD78
331
9DDC
  5
AD79
331
9DDE
  5
AD7A
331
9DDF
  5
AD7B
331
9DE0
  5
AD7C
331
AD78
  5
AD7D
331
AD79
  5
AD7E
331
AD7A
  5
AD7F
331
AD7B
  5
AD80
331
AD7C
  5
AD81
331
AD7D
  5
AD82
331
AD7E
  5
AD83
331
AD7F
  5
AD84
331
AD80
  5
AD85
331
AD81
  5
AD86
331
AD82
  5
AD87
331
AD83
  5
AD88
331
AD84
  5
AD89
331
AD86
  5
AD8B
331
AD87
  5
AD8C
331
AD88
  5
AD8D
331
AD89
  5
AD8E
331
AD8A
  5
AD8F
331
AD8B
  5
AD90
331
AD8C
  5
AD91
331
AD8D
  5
AD92
331
AD8E
  5
AD93
331
AD8F
  5
AD94
331
AD90
  5
AD95
331
AD91
  5
AD96
331
AD92
  5
AD97
331
AD93
  5
AD98
331
AD94
  5
AD99
331
AD95
  5
AD9A
331
AD96
  5
AD9B
331
AD97
  5
AD9C
331
AD98
  5
AD9D
331
AD9A
  5
AD9F
331
AD9B
  5
ADA0
331
AD9C
  5
ADA1
331
AD9D
  5
ADA2
331
AD9E
  5
ADA3
331
AD9F
  5
ADA4
331
ADA0
  5
ADA5
331
ADA1
  5
ADA6
331
ADA2
  5
ADA7
331
ADA3
  5
ADA8
331
ADA4
  5
ADA9
331
ADA5
  5
ADAA
331
ADA6
  5
ADAB
331
ADA7
  5
ADAC
331
ADA8
  5
ADAD
331
ADA9
  5
ADAE
331
ADAA
  5
ADAF
331
ADAB
  5
ADB0
331
ADAC
  5
ADB1
331
ADAE
  5
ADB3
331
ADAF
  5
ADB4
331
ADB0
  5
ADB5
331
ADB1
  5
ADB6
331
ADB2
  5
ADB7
331
ADB3
  5
ADB8
331
ADB4
  5
ADB9
331
ADB5
  5
ADBA
331
ADB6
  5
ADBB
331
ADB7
  5
ADBC
331
ADB8
  5
ADBD
331
ADB9
  5
ADBE
331
ADBA
  5
ADBF
331
ADBB
  5
ADC0
331
ADBC
  5
ADC1
331
ADBD
  5
ADC2
331
ADBE
  5
ADC3
331
ADBF
  5
ADC4
331
ADC0
  5
ADC5
331
ADC2
  5
ADC7
331
ADC3
  5
ADC9
331
ADC4
  5
ADCA
331
ADC5
  5
ADCB
331
ADC6
  5
ADCC
331
ADC7
  5
ADCD
331
ADC9
  5
ADCE
331
ADCA
  5
ADCF
331
ADCB
  5
ADD0
331
ADCC
  5
ADD1
331
ADCD
  5
ADD2
331
ADCE
  5
ADD3
331
ADCF
  5
ADD4
331
ADD0
  5
ADD5
331
ADD1
  5
ADD6
331
ADD2
  5
ADD7
331
ADD3
  5
ADD8
331
ADD4
  5
ADD9
331
ADD5
  5
ADDA
331
ADD6
  5
ADDB
331
ADD7
  5
ADDC
331
ADD8
  5
ADDD
331
ADD9
  5
ADDE
331
ADDA
  5
ADDF
331
ADDB
  5
ADE0
331
ADDC
  5
ADE1
331
ADDD
  5
ADE2
331
ADDE
  5
ADE3
331
ADDF
  5
ADE4
331
ADE0
  5
ADE5
331
ADE1
  5
ADE6
331
ADE2
  5
ADE7
331
ADE3
  5
ADE8
331
ADE4
  5
ADE9
331
ADE5
  5
ADEA
331
ADE6
  5
ADEB
331
ADE7
  5
ADEC
331
ADE8
  5
ADED
331
ADE9
  5
ADEE
331
ADEA
  5
ADEF
331
ADEB
  5
ADF0
331
ADEC
  5
ADF1
331
ADED
  5
ADF2
331
ADEE
  5
ADF3
331
ADEF
  5
ADF4
331
ADF0
  5
ADF5
331
ADF1
  5
ADF6
331
ADF2
  5
ADF7
331
ADF3
  5
ADF8
331
ADF4
  5
ADF9
331
ADF5
  5
ADFA
331
ADF6
  5
ADFB
331
ADF7
  5
ADFC
331
ADF8
  5
ADFD
331
ADF9
  5
ADFE
331
ADFA
  5
ADFF
331
ADFB
  5
AE00
331
ADFC
  5
AE01
331
ADFD
  5
AE02
331
ADFE
  5
AE03
331
ADFF
  5
AE04
331
AE00
  5
AE05
331
AE01
  5
AE06
331
AE02
  5
AE07
331
AE03
  5
AE08
331
AE04
  5
AE09
331
AE05
  5
AE0A
331
AE06
  5
AE0B
331
AE07
  5
AE0C
331
AE08
  5
AE0D
331
AE09
  5
AE0E
331
AE0A
  5
AE0F
331
AE0B
  5
AE10
331
AE0C
  5
AE11
331
AE0D
  5
AE12
331
AE0E
  5
AE13
331
AE0F
  5
AE14
331
AE10
  5
AE15
331
AE11
  5
AE16
331
AE12
  5
AE17
331
AE13
  5
AE18
331
AE14
  5
AE19
331
AE15
  5
AE1A
331
AE16
  5
AE1B
331
AE17
  5
AE1C
331
AE18
  5
AE1D
331
AE19
  5
AE1E
331
AE1A
  5
AE1F
331
AE1B
  5
AE20
331
AE1C
  5
AE22
331
AE1D
  5
AE2C
331
AE1E
  5
AE2D
331
AE1F
  5
AE2E
331
AE20
  5
AE2F
331
AE22
  5
AE30
331
AE2C
  5
AE34
331
AE2D
  5
AE36
331
AE2E
  5
AE37
331
AE2F
  5
AE38
331
AE30
  5
AE39
331
AE34
  5
AE3A
331
AE36
  5
AE3B
331
AE37
  5
AE3C
331
AE38
  5
AE3D
331
AE39
  5
AE3E
331
AE3A
  5
AE3F
331
AE3B
  5
AE40
331
AE3C
  5
AE41
331
AE3D
  5
AE42
331
AE3E
  5
AE43
331
AE3F
  5
AE44
331
AE40
  5
AE45
331
AE41
  5
AE46
331
AE42
  5
AE47
331
AE43
  5
AE48
331
AE44
  5
AE49
331
AE45
  5
AE4A
331
AE46
  5
AE4B
331
AE47
  5
AE4C
331
AE48
  5
AE4D
331
AE49
  5
AE4E
331
AE4A
  5
AE4F
331
AE4B
  5
AE50
331
AE4C
  5
AE51
331
AE4D
  5
AE52
331
AE4E
  5
AE53
331
AE4F
  5
AE54
331
AE50
  5
AE55
331
AE51
  5
AE56
331
AE52
  5
AE57
331
AE53
  5
AE58
331
AE54
  5
AE59
331
AE55
  5
AE5A
331
AE56
  5
AE5B
331
AE57
  5
AE5C
331
AE58
  5
AE5D
331
AE59
  5
AE5E
331
AE5A
  5
AE5F
331
AE5B
  5
AE60
331
AE5C
  5
AE61
331
AE5D
  5
AE62
331
AE5E
  5
AE63
331
AE5F
  5
AE64
331
AE60
  5
AE65
331
AE61
  5
AE66
331
AE62
  5
AE67
331
AE63
  5
AE68
331
AE64
  5
AE69
331
AE65
  5
AE6A
331
AE66
  5
AE6B
331
AE67
  5
AE6C
331
AE68
  5
AE6D
331
AE69
  5
AE6E
331
AE6A
  5
AE6F
331
AE6B
  5
AE70
331
AE6C
  5
AE71
331
AE6D
  5
AE72
331
AE6E
  5
AE73
331
AE6F
  5
AE74
331
AE70
  5
AE75
331
AE71
  5
AE76
331
AE72
  5
AE77
331
AE73
  5
AE78
331
AE74
  5
AE79
331
AE75
  5
AE7A
331
AE76
  5
AE7B
331
AE77
  5
AE7C
331
AE78
  5
AE7D
331
AE79
  5
AE7E
331
AE7A
  5
AE7F
331
AE7B
  5
AE80
331
AE7C
  5
AE81
331
AE7D
  5
AE82
331
AE7E
  5
AE83
331
AE7F
  5
AE84
331
AE80
  5
B022
331
AE81
  5
B023
331
AE82
  5
B024
331
AE83
  5
B025
331
AE84
  5
B617
331
B617
  5
B623
331
B618
  5
B626
331
B619
  5
B627
331
B61A
  5
B628
331
B622
  5
B629
331
B623
  5
B62A
331
B626
  5
B62C
331
B627
  5
B62D
331
B628
  5
B62E
331
B629
  5
B62F
331
B62A
  5
B631
331
B62C
  5
B632
331
B62D
  5
B633
331
B62E
  5
B634
331
B62F
  5
B635
331
B631
  5
B789
331
B632
  5
B78A
331
B633
  5
B78B
331
B634
  5
B791
331
B635
  5
B792
331
B789
  5
B793
331
B78A
  5
B794
331
B78B
  5
B795
331
B791
  5
B799
331
B792
  5
B79A
331
B793
  5
B79B
331
B794
  5
B79C
331
B795
  5
B79D
331
B799
  5
B7A1
331
B79A
  5
B7A2
331
B79B
  5
B7A3
331
B79C
  5
B7A7
331
B79D
  5
B7A8
331
B7A1
  5
B7A9
331
B7A2
  5
B7AD
331
B7A3
  5
B7AE
331
B7A7
  5
B7AF
331
B7A8
  5
B7B3
331
B7A9
  5
B7B4
331
B7AD
  5
B7B5
331
B7AE
  5
B7B9
331
B7AF
  5
B7BB
331
B7B3
  5
B7BE
331
B7B4
  5
B7BF
331
B7B9
  5
B7C0
331
B7BB
  5
B7C2
331
B7BD
  5
B7C4
331
B7BE
  5
B7C6
331
B7BF
  5
B7C7
331
B7C0
  5
B7C8
331
B7C2
  5
B7CC
331
B7C4
  5
B7CD
331
B7C6
  5
B7CE
331
B7C7
  5
B7CF
331
B7C8
  5
B7D0
331
B7CC
  5
B7D1
331
B7CD
  5
B7D5
331
B7CE
  5
B7D6
331
B7CF
  5
B7D7
331
B7D0
  5
B7D8
331
B7D1
  5
B7DC
331
B7D5
  5
B7DD
331
B7D6
  5
B7DE
331
B7D7
  5
B7DF
331
B7D8
  5
B7E3
331
B7DC
  5
B7E4
331
B7DD
  5
B7E5
331
B7DE
  5
B7E6
331
B7DF
  5
B7EB
331
B7E3
  5
B803
331
B7E4
  5
B804
331
B7E5
  5
B88C
331
B7E6
  5
B88D
331
B7EB
  5
B8F4
331
B803
  5
B8F5
331
B804
  5
B8F6
331
B88C
  5
B8F7
331
B88D
  5
B8F8
331
B8F4
  5
B8F9
331
B8F5
  5
B8FA
331
B8F6
  5
B8FB
331
B8F7
  5
B8FC
331
B8F8
  5
B8FD
331
B8F9
  5
B8FE
331
B8FA
  5
B8FF
331
B8FB
  5
B900
331
B8FC
  5
B901
331
B8FD
  5
B902
331
B8FE
  5
B903
331
B8FF
  5
B904
331
B900
  5
B905
331
B901
  5
B906
331
B902
  5
B907
331
B903
  5
B908
331
B904
  5
B909
331
B905
  5
B90A
331
B906
  5
B90B
331
B907
  5
B90C
331
B908
  5
B90D
331
B909
  5
B90E
331
B90A
  5
B90F
331
B90B
  5
B910
331
B90C
  5
B911
331
B90D
  5
B912
331
B90E
  5
B913
331
B90F
  5
B914
331
B910
  5
B915
331
B911
  5
B916
331
B912
  5
B917
331
B913
  5
B918
331
B914
  5
B919
331
B915
  5
B91A
331
B916
  5
B91B
331
B917
  5
B91C
331
B918
  5
B91D
331
B919
  5
B91E
331
B91A
  5
B91F
331
B91B
  5
B920
331
B91C
  5
B921
331
B91D
  5
B922
331
B91E
  5
B923
331
B91F
  5
B924
331
B920
  5
B925
331
B921
  5
B926
331
B922
  5
B927
331
B923
  5
B928
331
B924
  5
B929
331
B925
  5
B92A
331
B926
  5
B92B
331
B927
  5
B92C
331
B928
  5
B934
331
B929
  5
B935
331
B931
  5
B936
331
B932
  5
B937
331
B933
  5
B938
331
B934
  5
B939
331
B935
  5
B93A
331
B936
  5
B93B
331
B937
  5
B93C
331
B938
  5
B93D
331
B939
  5
B93E
331
B93A
  5
B93F
331
B93B
  5
B940
331
B93C
  5
B941
331
B93D
  5
B942
331
B93E
  5
B943
331
B93F
  5
B944
331
B940
  5
B945
331
B941
  5
B946
331
B942
  5
B947
331
B943
  5
B948
331
B944
  5
B949
331
B945
  5
B94A
331
B946
  5
B94B
331
B947
  5
B94C
331
B948
  5
B94D
331
B949
  5
B94E
331
B94A
  5
B94F
331
B94B
  5
B950
331
B94C
  5
B951
331
B94D
  5
B952
331
B94E
  5
B954
331
B94F
  5
B956
331
B950
  5
B957
331
B951
  5
B959
331
B952
  5
B95B
331
B954
  5
B95C
331
B956
  5
B95D
331
B957
  5
B95E
331
B959
  5
B95F
331
B95B
  5
B960
331
B95C
  5
B961
331
B95D
  5
BF32
331
B95E
  5
BF34
331
B95F
  5
BF35
331
B960
  5
BF3F
331
B961
  5
BF40
331
BF3C
  5
BF41
331
BF3D
  5
BF42
331
BF3E
  5
BF43
331
BF3F
  5
C1FA
331
BF40
  5
C1FB
331
BF41
  5
C1FC
331
BF42
  5
C1FD
331
BF43
  5
C1FE
331
C94C
  5
C94F
331
C94D
  5
C950
331
C94E
  5
C951
331
C94F
  5
C952
331
C950
  5
C953
331
C951
  5
C954
331
C952
  5
C94C
331
C953
  5
C94D
331
C954
  5
C94E
  0
ACDBDETAILVIEWSTYLE
  5
BFFE
102
{ACAD_XDICTIONARY
360
C98A
102
}
102
{ACAD_REACTORS
330
BFFD
330
C6F0
102
}
330
BFFD
100
AcDbModelDocViewStyle
 70
     0
  3
Imperial24
290
     0
100
AcDbDetailViewStyle
 70
     0
 71
     0
 90
        3
 71
     1
340
BFE9
 62
   256
 40
0.24
340
0
 62
   256
 40
0.24
300

 40
0.36
280
     3
 71
     2
340
BFF0
 90
       25
 62
   256
 71
     3
340
BFE9
 62
   256
 40
0.24
 90
        1
 40
0.75
 90
        1
300
%<\AcVar ViewType \f "%tc1">% %<\AcVar ViewDetailId>%\PSCALE %<\AcVar ViewScale \f "%sn">%
 71
     4
340
BFF0
 90
       25
 62
   256
340
BFF0
 90
       25
 62
   256
280
     0
  0
ACDBDETAILVIEWSTYLE
  5
C79F
102
{ACAD_XDICTIONARY
360
C98E
102
}
102
{ACAD_REACTORS
330
C814
330
BFFD
330
C834
102
}
330
BFFD
100
AcDbModelDocViewStyle
 70
     0
  3
Metric50
290
     0
100
AcDbDetailViewStyle
 70
     0
 71
     0
 90
        3
 71
     1
340
BFE9
 62
   256
 40
5.0
340
0
 62
   256
 40
5.0
300

 40
0.0
280
     1
 71
     2
340
BFF0
 90
       25
 62
   256
 71
     3
340
BFE9
 62
   256
 40
5.0
 90
        0
 40
15.0
 90
        1
300
%<\AcVar ViewDetailId>% (%<\AcVar ViewScale \f "%sn">%)
 71
     4
340
BFF0
 90
       25
 62
   256
340
BFF0
 90
       25
 62
   256
280
     0
  0
LAYOUT
  5
C006
102
{ACAD_REACTORS
330
BFF5
102
}
330
BFF5
100
AcDbPlotSettings
  1

  2
産機2f_DocuPrint 4050
  4

  6

 40
0.0
 41
0.0
 42
0.0
 43
0.0
 44
0.0
 45
0.0
 46
0.0
 47
0.0
 48
0.0
 49
0.0
140
0.0
141
0.0
142
1.0
143
1.0
 70
  1712
 72
     0
 73
     0
 74
     0
  7

 75
     0
147
1.0
 76
     0
 77
     2
 78
   300
148
0.0
149
0.0
100
AcDbLayout
  1
Model
 70
     1
 71
     0
 10
0.0
 20
0.0
 11
12.0
 21
9.0
 12
0.0
 22
0.0
 32
0.0
 14
0.0
 24
0.0
 34
0.0
 15
0.0
 25
0.0
 35
0.0
146
0.0
 13
0.0
 23
0.0
 33
0.0
 16
1.0
 26
0.0
 36
0.0
 17
0.0
 27
1.0
 37
0.0
 76
     0
330
C003
331
C007
  0
LAYOUT
  5
C002
102
{ACAD_REACTORS
330
BFF5
102
}
330
BFF5
100
AcDbPlotSettings
  1

  2
産機2f_DocuPrint 4050
  4

  6

 40
0.0
 41
0.0
 42
0.0
 43
0.0
 44
0.0
 45
0.0
 46
0.0
 47
0.0
 48
0.0
 49
0.0
140
0.0
141
0.0
142
1.0
143
1.0
 70
   688
 72
     0
 73
     0
 74
     5
  7

 75
    16
147
1.0
 76
     0
 77
     2
 78
   300
148
0.0
149
0.0
100
AcDbLayout
  1
レイアウト1
 70
     0
 71
     1
 10
0.0
 20
0.0
 11
12.0
 21
9.0
 12
0.0
 22
0.0
 32
0.0
 14
1.000000000000000E+20
 24
1.000000000000000E+20
 34
1.000000000000000E+20
 15
-1.000000000000000E+20
 25
-1.000000000000000E+20
 35
-1.000000000000000E+20
146
0.0
 13
0.0
 23
0.0
 33
0.0
 16
1.0
 26
0.0
 36
0.0
 17
0.0
 27
1.0
 37
0.0
 76
     0
330
BFFF
  0
MATERIAL
  5
BFAD
102
{ACAD_XDICTIONARY
360
BFAE
102
}
102
{ACAD_REACTORS
330
BFA4
102
}
330
BFA4
100
AcDbMaterial
  1
ByBlock
 72
     0
 43
0.0208333333333333
 43
0.0
 43
0.0
 43
0.0
 43
0.0
 43
0.0208333333333333
 43
0.0
 43
0.0
 43
0.0
 43
0.0
 43
1.0
 43
0.0
 43
0.0
 43
0.0
 43
0.0
 43
1.0
 77
     0
 47
0.0208333333333333
 47
0.0
 47
0.0
 47
0.0
 47
0.0
 47
0.0208333333333333
 47
0.0
 47
0.0
 47
0.0
 47
0.0
 47
1.0
 47
0.0
 47
0.0
 47
0.0
 47
0.0
 47
1.0
171
     0
 49
0.0208333333333333
 49
0.0
 49
0.0
 49
0.0
 49
0.0
 49
0.0208333333333333
 49
0.0
 49
0.0
 49
0.0
 49
0.0
 49
1.0
 49
0.0
 49
0.0
 49
0.0
 49
0.0
 49
1.0
175
     0
142
0.0208333333333333
142
0.0
142
0.0
142
0.0
142
0.0
142
0.0208333333333333
142
0.0
142
0.0
142
0.0
142
0.0
142
1.0
142
0.0
142
0.0
142
0.0
142
0.0
142
1.0
179
     0
144
0.0208333333333333
144
0.0
144
0.0
144
0.0
144
0.0
144
0.0208333333333333
144
0.0
144
0.0
144
0.0
144
0.0
144
1.0
144
0.0
144
0.0
144
0.0
144
0.0
144
1.0
147
0.0208333333333333
147
0.0
147
0.0
147
0.0
147
0.0
147
0.0208333333333333
147
0.0
147
0.0
147
0.0
147
0.0
147
1.0
147
0.0
147
0.0
147
0.0
147
0.0
147
1.0
  0
MATERIAL
  5
BFA5
102
{ACAD_XDICTIONARY
360
BFA6
102
}
102
{ACAD_REACTORS
330
BFA4
102
}
330
BFA4
100
AcDbMaterial
  1
ByLayer
 72
     0
 43
0.0208333333333333
 43
0.0
 43
0.0
 43
0.0
 43
0.0
 43
0.0208333333333333
 43
0.0
 43
0.0
 43
0.0
 43
0.0
 43
1.0
 43
0.0
 43
0.0
 43
0.0
 43
0.0
 43
1.0
 77
     0
 47
0.0208333333333333
 47
0.0
 47
0.0
 47
0.0
 47
0.0
 47
0.0208333333333333
 47
0.0
 47
0.0
 47
0.0
 47
0.0
 47
1.0
 47
0.0
 47
0.0
 47
0.0
 47
0.0
 47
1.0
171
     0
 49
0.0208333333333333
 49
0.0
 49
0.0
 49
0.0
 49
0.0
 49
0.0208333333333333
 49
0.0
 49
0.0
 49
0.0
 49
0.0
 49
1.0
 49
0.0
 49
0.0
 49
0.0
 49
0.0
 49
1.0
175
     0
142
0.0208333333333333
142
0.0
142
0.0
142
0.0
142
0.0
142
0.0208333333333333
142
0.0
142
0.0
142
0.0
142
0.0
142
1.0
142
0.0
142
0.0
142
0.0
142
0.0
142
1.0
179
     0
144
0.0208333333333333
144
0.0
144
0.0
144
0.0
144
0.0
144
0.0208333333333333
144
0.0
144
0.0
144
0.0
144
0.0
144
1.0
144
0.0
144
0.0
144
0.0
144
0.0
144
1.0
147
0.0208333333333333
147
0.0
147
0.0
147
0.0
147
0.0
147
0.0208333333333333
147
0.0
147
0.0
147
0.0
147
0.0
147
1.0
147
0.0
147
0.0
147
0.0
147
0.0
147
1.0
  0
MATERIAL
  5
BFB5
102
{ACAD_XDICTIONARY
360
BFB6
102
}
102
{ACAD_REACTORS
330
BFA4
102
}
330
BFA4
100
AcDbMaterial
  1
Global
 72
     0
 43
0.0208333333333333
 43
0.0
 43
0.0
 43
0.0
 43
0.0
 43
0.0208333333333333
 43
0.0
 43
0.0
 43
0.0
 43
0.0
 43
1.0
 43
0.0
 43
0.0
 43
0.0
 43
0.0
 43
1.0
 77
     0
 47
0.0208333333333333
 47
0.0
 47
0.0
 47
0.0
 47
0.0
 47
0.0208333333333333
 47
0.0
 47
0.0
 47
0.0
 47
0.0
 47
1.0
 47
0.0
 47
0.0
 47
0.0
 47
0.0
 47
1.0
171
     0
 49
0.0208333333333333
 49
0.0
 49
0.0
 49
0.0
 49
0.0
 49
0.0208333333333333
 49
0.0
 49
0.0
 49
0.0
 49
0.0
 49
1.0
 49
0.0
 49
0.0
 49
0.0
 49
0.0
 49
1.0
175
     0
142
0.0208333333333333
142
0.0
142
0.0
142
0.0
142
0.0
142
0.0208333333333333
142
0.0
142
0.0
142
0.0
142
0.0
142
1.0
142
0.0
142
0.0
142
0.0
142
0.0
142
1.0
179
     0
144
0.0208333333333333
144
0.0
144
0.0
144
0.0
144
0.0
144
0.0208333333333333
144
0.0
144
0.0
144
0.0
144
0.0
144
1.0
144
0.0
144
0.0
144
0.0
144
0.0
144
1.0
147
0.0208333333333333
147
0.0
147
0.0
147
0.0
147
0.0
147
0.0208333333333333
147
0.0
147
0.0
147
0.0
147
0.0
147
1.0
147
0.0
147
0.0
147
0.0
147
0.0
147
1.0
  0
MLEADERSTYLE
  5
BFFA
102
{ACAD_REACTORS
330
BFF9
102
}
330
BFF9
100
AcDbMLeaderStyle
170
     2
171
     1
172
     0
 90
        2
 40
0.0
 41
0.0
173
     1
 91
-1056964608
340
BFEE
 92
       -2
290
     1
 42
0.09
291
     1
 43
0.36
  3
Standard
 44
0.18
300

342
BFE9
174
     1
178
     6
175
     1
176
     0
 93
-1056964608
 45
0.18
292
     0
297
     0
 46
0.18
 94
-1056964608
 47
1.0
 49
1.0
140
1.0
293
     1
141
0.0
294
     1
177
     0
142
1.0
295
     0
296
     0
143
0.125
1001
ACAD_MLEADERVER
1070
     2
  0
MLINESTYLE
  5
BFF3
102
{ACAD_REACTORS
330
BFF2
102
}
330
BFF2
100
AcDbMlineStyle
  2
STANDARD
 70
     0
  3

 62
   256
 51
90.0
 52
90.0
 71
     2
 49
0.5
 62
   256
  6
BYLAYER
 49
-0.5
 62
   256
  6
BYLAYER
  0
ACDBPLACEHOLDER
  5
BFA3
102
{ACAD_REACTORS
330
BFA2
102
}
330
BFA2
  0
SCALE
  5
BFD7
102
{ACAD_REACTORS
330
BFD6
102
}
330
BFD6
100
AcDbScale
 70
     0
300
1:1
140
1.0
141
1.0
290
     1
  0
SCALE
  5
BFD8
102
{ACAD_REACTORS
330
BFD6
102
}
330
BFD6
100
AcDbScale
 70
     0
300
1/128" = 1'-0"
140
0.0078125
141
12.0
290
     0
  0
SCALE
  5
BFD9
102
{ACAD_REACTORS
330
BFD6
102
}
330
BFD6
100
AcDbScale
 70
     0
300
1/64" = 1'-0"
140
0.015625
141
12.0
290
     0
  0
SCALE
  5
BFDA
102
{ACAD_REACTORS
330
BFD6
102
}
330
BFD6
100
AcDbScale
 70
     0
300
1/32" = 1'-0"
140
0.03125
141
12.0
290
     0
  0
SCALE
  5
BFDB
102
{ACAD_REACTORS
330
BFD6
102
}
330
BFD6
100
AcDbScale
 70
     0
300
1/16" = 1'-0"
140
0.0625
141
12.0
290
     0
  0
SCALE
  5
BFDC
102
{ACAD_REACTORS
330
BFD6
102
}
330
BFD6
100
AcDbScale
 70
     0
300
3/32" = 1'-0"
140
0.09375
141
12.0
290
     0
  0
SCALE
  5
BFDD
102
{ACAD_REACTORS
330
BFD6
102
}
330
BFD6
100
AcDbScale
 70
     0
300
1/8" = 1'-0"
140
0.125
141
12.0
290
     0
  0
SCALE
  5
BFDE
102
{ACAD_REACTORS
330
BFD6
102
}
330
BFD6
100
AcDbScale
 70
     0
300
3/16" = 1'-0"
140
0.1875
141
12.0
290
     0
  0
SCALE
  5
BFDF
102
{ACAD_REACTORS
330
BFD6
102
}
330
BFD6
100
AcDbScale
 70
     0
300
1/4" = 1'-0"
140
0.25
141
12.0
290
     0
  0
SCALE
  5
BFE0
102
{ACAD_REACTORS
330
BFD6
102
}
330
BFD6
100
AcDbScale
 70
     0
300
3/8" = 1'-0"
140
0.375
141
12.0
290
     0
  0
SCALE
  5
BFE1
102
{ACAD_REACTORS
330
BFD6
102
}
330
BFD6
100
AcDbScale
 70
     0
300
1/2" = 1'-0"
140
0.5
141
12.0
290
     0
  0
SCALE
  5
BFE2
102
{ACAD_REACTORS
330
BFD6
102
}
330
BFD6
100
AcDbScale
 70
     0
300
3/4" = 1'-0"
140
0.75
141
12.0
290
     0
  0
SCALE
  5
BFE3
102
{ACAD_REACTORS
330
BFD6
102
}
330
BFD6
100
AcDbScale
 70
     0
300
1" = 1'-0"
140
1.0
141
12.0
290
     0
  0
SCALE
  5
BFE4
102
{ACAD_REACTORS
330
BFD6
102
}
330
BFD6
100
AcDbScale
 70
     0
300
1-1/2" = 1'-0"
140
1.5
141
12.0
290
     0
  0
SCALE
  5
BFE5
102
{ACAD_REACTORS
330
BFD6
102
}
330
BFD6
100
AcDbScale
 70
     0
300
3" = 1'-0"
140
3.0
141
12.0
290
     0
  0
SCALE
  5
BFE6
102
{ACAD_REACTORS
330
BFD6
102
}
330
BFD6
100
AcDbScale
 70
     0
300
6" = 1'-0"
140
6.0
141
12.0
290
     0
  0
SCALE
  5
BFE7
102
{ACAD_REACTORS
330
BFD6
102
}
330
BFD6
100
AcDbScale
 70
     0
300
1'-0" = 1'-0"
140
12.0
141
12.0
290
     0
  0
ACDBSECTIONVIEWSTYLE
  5
BFFC
102
{ACAD_XDICTIONARY
360
C988
102
}
102
{ACAD_REACTORS
330
BFFB
330
C6EF
102
}
330
BFFB
100
AcDbModelDocViewStyle
 70
     0
  3
Imperial24
290
     0
100
AcDbSectionViewStyle
 70
     0
 71
     0
 90
       78
 71
     1
340
BFE9
 62
   256
 40
0.24
340
0
340
0
 62
   256
 40
0.24
300
I, O, Q, S, X, Z
 40
0.48
 90
        3
 40
0.18
 90
        1
 71
     2
340
BFF0
 90
       25
 62
   256
340
BFF0
 90
       50
 62
   256
 40
0.24
 40
0.0
 40
0.24
 71
     3
340
BFE9
 62
   256
 40
0.24
 90
        1
 40
0.75
 90
        1
300
%<\AcVar ViewType \f "%tc1">% %<\AcVar ViewSectionStartId>%-%<\AcVar ViewSectionEndId>%\PSCALE %<\AcVar ViewScale \f "%sn">%
 71
     4
 62
   256
 62
   257
300
ANSI31
 40
1.0
 90
        0
290
     0
290
     0
 90
        6
 40
0.0
 40
1.570796326794896
 40
0.2617993877991494
 40
1.308996938995747
 40
-0.2617993877991494
 40
1.832595714594044
  0
ACDBSECTIONVIEWSTYLE
  5
C79C
102
{ACAD_XDICTIONARY
360
C98C
102
}
102
{ACAD_REACTORS
330
C818
330
BFFB
330
C836
102
}
330
BFFB
100
AcDbModelDocViewStyle
 70
     0
  3
Metric50
290
     0
100
AcDbSectionViewStyle
 70
     0
 71
     0
 90
      102
 71
     1
340
BFE9
 62
   256
 40
5.0
340
0
340
0
 62
   256
 40
5.0
300
I, O, Q, S, X, Z
 40
10.0
 90
        0
 40
2.5
 90
        0
 71
     2
340
BFF0
 90
       25
 62
   256
340
BFF0
 90
       50
 62
   256
 40
5.0
 40
2.5
 40
5.0
 71
     3
340
BFE9
 62
   256
 40
5.0
 90
        0
 40
15.0
 90
        1
300
%<\AcVar ViewSectionStartId>%-%<\AcVar ViewSectionEndId>% (%<\AcVar ViewScale \f "%sn">%)
 71
     4
 62
   256
 62
   257
300
ANSI31
 40
1.0
 90
        0
290
     0
290
     0
 90
        6
 40
0.0
 40
1.570796326794896
 40
0.2617993877991494
 40
1.308996938995747
 40
-0.2617993877991494
 40
1.832595714594046
  0
TABLESTYLE
  5
BFF8
102
{ACAD_XDICTIONARY
360
C124
102
}
102
{ACAD_REACTORS
330
BFF7
102
}
330
BFF7
100
AcDbTableStyle
  3
Standard
 70
     0
 71
     0
 40
0.06
 41
0.06
280
     0
281
     0
  7
STANDARD
140
0.18
170
     2
 62
     0
 63
     7
283
     0
 90
      512
 91
        0
  1

274
    -2
284
     1
 64
     0
275
    -2
285
     1
 65
     0
276
    -2
286
     1
 66
     0
277
    -2
287
     1
 67
     0
278
    -2
288
     1
 68
     0
279
    -2
289
     1
 69
     0
  7
STANDARD
140
0.25
170
     5
 62
     0
 63
     7
283
     0
 90
      512
 91
        0
  1

274
    -2
284
     1
 64
     0
275
    -2
285
     1
 65
     0
276
    -2
286
     1
 66
     0
277
    -2
287
     1
 67
     0
278
    -2
288
     1
 68
     0
279
    -2
289
     1
 69
     0
  7
STANDARD
140
0.18
170
     5
 62
     0
 63
     7
283
     0
 90
      512
 91
        0
  1

274
    -2
284
     1
 64
     0
275
    -2
285
     1
 65
     0
276
    -2
286
     1
 66
     0
277
    -2
287
     1
 67
     0
278
    -2
288
     1
 68
     0
279
    -2
289
     1
 69
     0
  0
VISUALSTYLE
  5
BFC3
102
{ACAD_XDICTIONARY
360
C962
102
}
102
{ACAD_REACTORS
330
BFBD
102
}
330
BFBD
100
AcDbVisualStyle
  2

 70
     4
 71
     0
 72
     2
 73
     0
 90
        0
 40
-0.6
 41
-30.0
 62
     5
 63
     7
421
 16777215
 74
     1
 91
        4
 64
     7
 65
   257
 75
     1
175
     1
 42
1.0
 92
        0
 66
   257
 43
1.0
 76
     1
 77
     6
 78
     2
 67
     7
 79
     5
170
     0
171
     0
290
     0
174
     0
 93
        1
 44
0.0
173
     0
291
     0
 45
0.0
1001
ACAD
1000
AcDbSavedByObjectVersion
1070
     0
  0
VISUALSTYLE
  5
BFC2
102
{ACAD_XDICTIONARY
360
C960
102
}
102
{ACAD_REACTORS
330
BFBD
102
}
330
BFBD
100
AcDbVisualStyle
  2

 70
     7
 71
     1
 72
     0
 73
     1
 90
        0
 40
-0.6
 41
-30.0
 62
     5
 63
     7
421
 16777215
 74
     0
 91
        4
 64
     7
 65
   257
 75
     1
175
     1
 42
1.0
 92
        8
 66
     7
 43
1.0
 76
     1
 77
     6
 78
     2
 67
     7
 79
     5
170
     0
171
     0
290
     0
174
     0
 93
        1
 44
0.0
173
     0
291
     1
 45
0.0
1001
ACAD
1000
AcDbSavedByObjectVersion
1070
     0
  0
VISUALSTYLE
  5
BFC9
102
{ACAD_XDICTIONARY
360
C96E
102
}
102
{ACAD_REACTORS
330
BFBD
102
}
330
BFBD
100
AcDbVisualStyle
  2

 70
    12
 71
     2
 72
     2
 73
     0
 90
        0
 40
-0.6
 41
-30.0
 62
     5
 63
     7
421
 16777215
 74
     1
 91
        4
 64
     7
 65
   257
 75
     1
175
     1
 42
1.0
 92
        8
 66
     7
 43
1.0
 76
     1
 77
     6
 78
     2
 67
     7
 79
     5
170
     0
171
     0
290
     0
174
     0
 93
        1
 44
50.0
173
     0
291
     1
 45
0.0
1001
ACAD
1000
AcDbSavedByObjectVersion
1070
     0
  0
VISUALSTYLE
  5
BFCD
102
{ACAD_XDICTIONARY
360
C976
102
}
102
{ACAD_REACTORS
330
BFBD
102
}
330
BFBD
100
AcDbVisualStyle
  2

 70
    16
 71
     2
 72
     2
 73
     3
 90
        0
 40
-0.6
 41
-30.0
 62
     5
 63
     8
421
  8421504
 74
     1
 91
        4
 64
     7
 65
   257
 75
     1
175
     1
 42
1.0
 92
        8
 66
     8
424
  8421504
 43
1.0
 76
     1
 77
     6
 78
     2
 67
     7
 79
     5
170
     0
171
     0
290
     0
174
     0
 93
        1
 44
0.0
173
     0
291
     1
 45
0.0
1001
ACAD
1000
AcDbSavedByObjectVersion
1070
     0
  0
VISUALSTYLE
  5
BFC6
102
{ACAD_XDICTIONARY
360
C968
102
}
102
{ACAD_REACTORS
330
BFBD
102
}
330
BFBD
100
AcDbVisualStyle
  2

 70
     9
 71
     3
 72
     2
 73
     0
 90
        0
 40
-0.6
 41
-30.0
 62
     5
 63
     7
421
 16777215
 74
     2
 91
        2
 64
     7
 65
   257
 75
     1
175
     1
 42
179.0
 92
        8
 66
     7
 43
1.0
 76
     1
 77
     6
 78
     2
 67
     7
 79
     3
170
     0
171
     0
290
     0
174
     0
 93
        1
 44
0.0
173
     0
291
     0
 45
0.0
1001
ACAD
1000
AcDbSavedByObjectVersion
1070
     0
  0
VISUALSTYLE
  5
BFC8
102
{ACAD_XDICTIONARY
360
C96C
102
}
102
{ACAD_REACTORS
330
BFBD
102
}
330
BFBD
100
AcDbVisualStyle
  2

 70
    11
 71
     2
 72
     2
 73
     0
 90
        0
 40
-0.6
 41
-30.0
 62
     5
 63
     7
421
 16777215
 74
     1
 91
        4
 64
     7
 65
   257
 75
     1
175
     1
 42
1.0
 92
        8
 66
     7
 43
1.0
 76
     1
 77
     6
 78
     2
 67
     7
 79
     5
170
     0
171
     0
290
     0
174
     0
 93
        1
 44
-50.0
173
     0
291
     1
 45
0.0
1001
ACAD
1000
AcDbSavedByObjectVersion
1070
     0
  0
VISUALSTYLE
  5
BFD5
102
{ACAD_XDICTIONARY
360
C986
102
}
102
{ACAD_REACTORS
330
BFBD
102
}
330
BFBD
100
AcDbVisualStyle
  2

 70
    22
 71
     2
 72
     2
 73
     0
 90
        0
 40
-0.6
 41
-30.0
 62
     5
 63
     7
421
 16777215
 74
     1
 91
        4
 64
     7
 65
   257
 75
     1
175
     1
 42
1.0
 92
        8
 66
     7
 43
1.0
 76
     1
 77
     6
 78
     2
 67
     7
 79
     5
170
     0
171
     0
290
     0
174
     0
 93
        1
 44
0.0
173
     0
291
     1
 45
0.0
1001
ACAD
1000
AcDbSavedByObjectVersion
1070
     0
  0
VISUALSTYLE
  5
BFCC
102
{ACAD_XDICTIONARY
360
C974
102
}
102
{ACAD_REACTORS
330
BFBD
102
}
330
BFBD
100
AcDbVisualStyle
  2

 70
    15
 71
     2
 72
     2
 73
     0
 90
        0
 40
-0.6
 41
-30.0
 62
     5
 63
     7
421
 16777215
 74
     1
 91
        4
 64
     7
 65
   257
 75
     1
175
     1
 42
1.0
 92
        8
 66
     7
 43
1.0
 76
     1
 77
     6
 78
     2
 67
     7
 79
     5
170
     0
171
     0
290
     0
174
     0
 93
        1
 44
0.0
173
     0
291
     1
 45
0.0
1001
ACAD
1000
AcDbSavedByObjectVersion
1070
     0
  0
VISUALSTYLE
  5
BFBE
102
{ACAD_XDICTIONARY
360
C958
102
}
102
{ACAD_REACTORS
330
BFBD
102
}
330
BFBD
100
AcDbVisualStyle
  2

 70
     0
 71
     2
 72
     1
 73
     1
 90
        2
 40
-0.6
 41
30.0
 62
     5
 63
     7
421
 16777215
 74
     0
 91
        0
 64
     7
 65
   257
 75
     1
175
     1
 42
1.0
 92
        8
 66
     7
 43
1.0
 76
     1
 77
     6
 78
     2
 67
     7
 79
     5
170
     0
171
     0
290
     0
174
     0
 93
       13
 44
0.0
173
     0
291
     1
 45
0.0
1001
ACAD
1000
AcDbSavedByObjectVersion
1070
     0
  0
VISUALSTYLE
  5
BFBF
102
{ACAD_XDICTIONARY
360
C95A
102
}
102
{ACAD_REACTORS
330
BFBD
102
}
330
BFBD
100
AcDbVisualStyle
  2

 70
     1
 71
     2
 72
     1
 73
     1
 90
        2
 40
-0.6
 41
30.0
 62
     5
 63
     7
421
 16777215
 74
     1
 91
        0
 64
     7
 65
   257
 75
     1
175
     1
 42
1.0
 92
        0
 66
   257
 43
1.0
 76
     1
 77
     6
 78
     2
 67
     7
 79
     5
170
     0
171
     0
290
     0
174
     0
 93
       13
 44
0.0
173
     0
291
     1
 45
0.0
1001
ACAD
1000
AcDbSavedByObjectVersion
1070
     0
  0
VISUALSTYLE
  5
BFC0
102
{ACAD_XDICTIONARY
360
C95C
102
}
102
{ACAD_REACTORS
330
BFBD
102
}
330
BFBD
100
AcDbVisualStyle
  2

 70
     2
 71
     2
 72
     2
 73
     1
 90
        2
 40
-0.6
 41
30.0
 62
     5
 63
     7
421
 16777215
 74
     0
 91
        0
 64
     7
 65
   257
 75
     1
175
     1
 42
1.0
 92
        0
 66
     7
 43
1.0
 76
     1
 77
     6
 78
     2
 67
     7
 79
     5
170
     0
171
     0
290
     0
174
     0
 93
       13
 44
0.0
173
     0
291
     1
 45
0.0
1001
ACAD
1000
AcDbSavedByObjectVersion
1070
     0
  0
VISUALSTYLE
  5
BFC1
102
{ACAD_XDICTIONARY
360
C95E
102
}
102
{ACAD_REACTORS
330
BFBD
102
}
330
BFBD
100
AcDbVisualStyle
  2

 70
     3
 71
     2
 72
     2
 73
     1
 90
        2
 40
-0.6
 41
30.0
 62
     5
 63
     7
421
 16777215
 74
     1
 91
        0
 64
     7
 65
   257
 75
     1
175
     1
 42
1.0
 92
        0
 66
   257
 43
1.0
 76
     1
 77
     6
 78
     2
 67
     7
 79
     5
170
     0
171
     0
290
     0
174
     0
 93
       13
 44
0.0
173
     0
291
     1
 45
0.0
1001
ACAD
1000
AcDbSavedByObjectVersion
1070
     0
  0
VISUALSTYLE
  5
BFC5
102
{ACAD_XDICTIONARY
360
C966
102
}
102
{ACAD_REACTORS
330
BFBD
102
}
330
BFBD
100
AcDbVisualStyle
  2

 70
     6
 71
     1
 72
     2
 73
     2
 90
        0
 40
-0.6
 41
-30.0
 62
     5
 63
     7
421
 16777215
 74
     2
 91
        2
 64
     7
 65
   257
 75
     2
175
     1
 42
40.0
 92
        0
 66
   257
 43
1.0
 76
     1
 77
     6
 78
     2
 67
     7
 79
     3
170
     0
171
     0
290
     0
174
     0
 93
        1
 44
0.0
173
     0
291
     0
 45
0.0
1001
ACAD
1000
AcDbSavedByObjectVersion
1070
     0
  0
VISUALSTYLE
  5
BFD3
102
{ACAD_XDICTIONARY
360
C982
102
}
102
{ACAD_REACTORS
330
BFBD
102
}
330
BFBD
100
AcDbVisualStyle
  2

 70
    20
 71
     2
 72
     2
 73
     0
 90
        0
 40
-0.6
 41
-30.0
 62
     5
 63
     7
421
 16777215
 74
     1
 91
        4
 64
     7
 65
   257
 75
     1
175
     1
 42
1.0
 92
       10
 66
     7
 43
1.0
 76
     1
 77
     6
 78
     2
 67
     7
 79
     5
170
     0
171
     0
290
     0
174
     0
 93
        1
 44
0.0
173
     0
291
     1
 45
0.0
1001
ACAD
1000
AcDbSavedByObjectVersion
1070
     0
  0
VISUALSTYLE
  5
BFCB
102
{ACAD_XDICTIONARY
360
C972
102
}
102
{ACAD_REACTORS
330
BFBD
102
}
330
BFBD
100
AcDbVisualStyle
  2

 70
    14
 71
     2
 72
     2
 73
     0
 90
        0
 40
-0.6
 41
-30.0
 62
     5
 63
     7
421
 16777215
 74
     1
 91
        4
 64
     7
 65
   257
 75
     7
175
     7
 42
1.0
 92
        8
 66
     7
 43
1.0
 76
     1
 77
     6
 78
     2
 67
     7
 79
     5
170
     0
171
     0
290
     0
174
     0
 93
        1
 44
0.0
173
     0
291
     1
 45
0.0
1001
ACAD
1000
AcDbSavedByObjectVersion
1070
     0
  0
VISUALSTYLE
  5
BFD4
102
{ACAD_XDICTIONARY
360
C984
102
}
102
{ACAD_REACTORS
330
BFBD
102
}
330
BFBD
100
AcDbVisualStyle
  2

 70
    21
 71
     2
 72
     2
 73
     0
 90
        0
 40
-0.6
 41
-30.0
 62
     5
 63
     7
421
 16777215
 74
     1
 91
        4
 64
     7
 65
   257
 75
     1
175
     1
 42
1.0
 92
        9
 66
     7
 43
1.0
 76
     1
 77
     6
 78
     2
 67
     7
 79
     5
170
     0
171
     0
290
     0
174
     0
 93
        1
 44
0.0
173
     0
291
     1
 45
0.0
1001
ACAD
1000
AcDbSavedByObjectVersion
1070
     0
  0
VISUALSTYLE
  5
BFC7
102
{ACAD_XDICTIONARY
360
C96A
102
}
102
{ACAD_REACTORS
330
BFBD
102
}
330
BFBD
100
AcDbVisualStyle
  2

 70
     8
 71
     2
 72
     3
 73
     0
 90
        2
 40
-0.6
 41
30.0
 62
     5
 63
     7
421
 16777215
 74
     0
 91
        0
 64
     7
 65
   257
 75
     1
175
     1
 42
1.0
 92
        8
 66
   257
 43
1.0
 76
     1
 77
     6
 78
     2
 67
     7
 79
     3
170
     0
171
     0
290
     0
174
     0
 93
       13
 44
0.0
173
     0
291
     0
 45
0.0
1001
ACAD
1000
AcDbSavedByObjectVersion
1070
     0
  0
VISUALSTYLE
  5
BFD2
102
{ACAD_XDICTIONARY
360
C980
102
}
102
{ACAD_REACTORS
330
BFBD
102
}
330
BFBD
100
AcDbVisualStyle
  2

 70
    27
 71
     2
 72
     2
 73
     1
 90
        2
 40
-0.6
 41
30.0
 62
     5
 63
     7
421
 16777215
 74
     0
 91
        4
 64
     7
 65
   257
 75
     1
175
     1
 42
1.0
 92
        8
 66
   257
 43
1.0
 76
     1
 77
     6
 78
     2
 67
     8
425
  7895160
 79
     3
170
     0
171
     0
290
     0
174
     0
 93
        5
 44
0.0
173
     0
291
     0
 45
0.0
1001
ACAD
1000
AcDbSavedByObjectVersion
1070
     0
  0
VISUALSTYLE
  5
BFD1
102
{ACAD_XDICTIONARY
360
C97E
102
}
102
{ACAD_REACTORS
330
BFBD
102
}
330
BFBD
100
AcDbVisualStyle
  2

 70
    26
 71
     2
 72
     2
 73
     1
 90
        2
 40
-0.6
 41
30.0
 62
     5
 63
     7
421
 16777215
 74
     1
 91
        2
 64
     7
 65
   257
 75
     2
175
     1
 42
1.0
 92
        8
 66
   257
 43
1.0
 76
     1
 77
     6
 78
     2
 67
     7
 79
     3
170
     0
171
     0
290
     0
174
     0
 93
        5
 44
0.0
173
     0
291
     0
 45
0.0
1001
ACAD
1000
AcDbSavedByObjectVersion
1070
     0
  0
VISUALSTYLE
  5
BFCE
102
{ACAD_XDICTIONARY
360
C978
102
}
102
{ACAD_REACTORS
330
BFBD
102
}
330
BFBD
100
AcDbVisualStyle
  2

 70
    23
 71
     2
 72
     2
 73
     3
 90
        0
 40
-0.6
 41
-30.0
 62
     5
 63
     7
421
 16777215
 74
     2
 91
        2
 64
     7
 65
     7
 75
     1
175
     1
 42
40.0
 92
        8
 66
     7
 43
1.0
 76
     1
 77
     6
 78
     2
 67
     7
 79
     3
170
     0
171
     0
290
     0
174
     0
 93
        1
 44
0.0
173
     0
291
     0
 45
0.0
1001
ACAD
1000
AcDbSavedByObjectVersion
1070
     0
  0
VISUALSTYLE
  5
BFCF
102
{ACAD_XDICTIONARY
360
C97A
102
}
102
{ACAD_REACTORS
330
BFBD
102
}
330
BFBD
100
AcDbVisualStyle
  2

 70
    24
 71
     1
 72
     2
 73
     2
 90
        0
 40
-0.6
 41
-30.0
 62
     5
 63
     7
421
 16777215
 74
     2
 91
        2
 64
     7
 65
     7
 75
     1
175
     1
 42
40.0
 92
       11
 66
     7
 43
1.0
 76
     1
 77
     6
 78
     2
 67
     7
 79
     6
170
     0
171
     0
290
     0
174
     0
 93
        1
 44
0.0
173
     0
291
     0
 45
0.0
1001
ACAD
1000
AcDbSavedByObjectVersion
1070
     0
  0
VISUALSTYLE
  5
BFCA
102
{ACAD_XDICTIONARY
360
C970
102
}
102
{ACAD_REACTORS
330
BFBD
102
}
330
BFBD
100
AcDbVisualStyle
  2

 70
    13
 71
     2
 72
     2
 73
     0
 90
        0
 40
-0.6
 41
-30.0
 62
     5
 63
     7
421
 16777215
 74
     1
 91
        4
 64
     7
 65
   257
 75
     1
175
     1
 42
1.0
 92
       12
 66
     7
 43
1.0
 76
     1
 77
     6
 78
     2
 67
     7
 79
     5
170
     0
171
     0
290
     0
174
     0
 93
        1
 44
0.0
173
     0
291
     1
 45
0.0
1001
ACAD
1000
AcDbSavedByObjectVersion
1070
     0
  0
VISUALSTYLE
  5
BFC4
102
{ACAD_XDICTIONARY
360
C964
102
}
102
{ACAD_REACTORS
330
BFBD
102
}
330
BFBD
100
AcDbVisualStyle
  2

 70
     5
 71
     0
 72
     2
 73
     0
 90
        0
 40
-0.6
 41
-30.0
 62
     5
 63
     7
421
 16777215
 74
     1
 91
        4
 64
     7
 65
   257
 75
     1
175
     1
 42
1.0
 92
        0
 66
   257
 43
1.0
 76
     1
 77
     6
 78
     2
 67
     7
 79
     3
170
     0
171
     0
290
     0
174
     0
 93
        1
 44
0.0
173
     0
291
     0
 45
0.0
1001
ACAD
1000
AcDbSavedByObjectVersion
1070
     0
  0
VISUALSTYLE
  5
BFD0
102
{ACAD_XDICTIONARY
360
C97C
102
}
102
{ACAD_REACTORS
330
BFBD
102
}
330
BFBD
100
AcDbVisualStyle
  2

 70
    25
 71
     2
 72
     2
 73
     1
 90
        1
 40
0.5
 41
-30.0
 62
     5
 63
     7
421
 16777215
 74
     1
 91
        0
 64
     7
 65
   257
 75
     1
175
     1
 42
1.0
 92
        8
 66
     7
 43
1.0
 76
     1
 77
     6
 78
     2
 67
     7
 79
     3
170
     0
171
     0
290
     0
174
     0
 93
       13
 44
0.0
173
     0
291
     0
 45
0.0
1001
ACAD
1000
AcDbSavedByObjectVersion
1070
     0
  0
DICTIONARYVAR
  5
C120
102
{ACAD_REACTORS
330
C11A
102
}
330
C11A
100
DictionaryVariables
280
     0
  1
1:1
  0
DICTIONARYVAR
  5
C11C
102
{ACAD_REACTORS
330
C11A
102
}
330
C11A
100
DictionaryVariables
280
     0
  1
STANDARD
  0
DICTIONARYVAR
  5
C11B
102
{ACAD_REACTORS
330
C11A
102
}
330
C11A
100
DictionaryVariables
280
     0
  1
STANDARD
  0
DICTIONARYVAR
  5
C11D
102
{ACAD_REACTORS
330
C11A
102
}
330
C11A
100
DictionaryVariables
280
     0
  1
Metric50
  0
DICTIONARYVAR
  5
C11E
102
{ACAD_REACTORS
330
C11A
102
}
330
C11A
100
DictionaryVariables
280
     0
  1
Metric50
  0
DICTIONARYVAR
  5
C122
102
{ACAD_REACTORS
330
C11A
102
}
330
C11A
100
DictionaryVariables
280
     0
  1
1
  0
DICTIONARYVAR
  5
C123
102
{ACAD_REACTORS
330
C11A
102
}
330
C11A
100
DictionaryVariables
280
     0
  1
15
  0
DICTIONARYVAR
  5
C121
102
{ACAD_REACTORS
330
C11A
102
}
330
C11A
100
DictionaryVariables
280
     0
  1
0
  0
DICTIONARYVAR
  5
C11F
102
{ACAD_REACTORS
330
C11A
102
}
330
C11A
100
DictionaryVariables
280
     0
  1
0
  0
DICTIONARYVAR
  5
C955
102
{ACAD_REACTORS
330
C11A
102
}
330
C11A
100
DictionaryVariables
280
     0
  1
2
  0
DICTIONARY
  5
C086
102
{ACAD_REACTORS
330
C07F
102
}
330
C07F
100
AcDbDictionary
281
     1
  0
DICTIONARY
  5
C98A
330
BFFE
100
AcDbDictionary
280
     1
281
     1
  3
ACAD_XREC_ROUNDTRIP
360
C98B
  0
DICTIONARY
  5
C98E
330
C79F
100
AcDbDictionary
280
     1
281
     1
  3
ACAD_XREC_ROUNDTRIP
360
C98F
  0
DICTIONARY
  5
BFAE
330
BFAD
100
AcDbDictionary
280
     1
281
     1
  3
BUMPTILE
360
BFB0
  3
DIFFUSETILE
360
BFAF
  3
OPACITYTILE
360
BFB3
  3
REFLECTIONTILE
360
BFB2
  3
REFRACTIONTILE
360
BFB4
  3
SPECULARTILE
360
BFB1
  0
DICTIONARY
  5
BFA6
330
BFA5
100
AcDbDictionary
280
     1
281
     1
  3
BUMPTILE
360
BFA8
  3
DIFFUSETILE
360
BFA7
  3
OPACITYTILE
360
BFAB
  3
REFLECTIONTILE
360
BFAA
  3
REFRACTIONTILE
360
BFAC
  3
SPECULARTILE
360
BFA9
  0
DICTIONARY
  5
BFB6
330
BFB5
100
AcDbDictionary
280
     1
281
     1
  3
BUMPTILE
360
BFB8
  3
DIFFUSETILE
360
BFB7
  3
OPACITYTILE
360
BFBB
  3
REFLECTIONTILE
360
BFBA
  3
REFRACTIONTILE
360
BFBC
  3
SPECULARTILE
360
BFB9
  0
DICTIONARY
  5
C988
330
BFFC
100
AcDbDictionary
280
     1
281
     1
  3
ACAD_XREC_ROUNDTRIP
360
C989
  0
DICTIONARY
  5
C98C
330
C79C
100
AcDbDictionary
280
     1
281
     1
  3
ACAD_XREC_ROUNDTRIP
360
C98D
  0
DICTIONARY
  5
C124
330
BFF8
100
AcDbDictionary
280
     1
281
     1
  3
ACAD_ROUNDTRIP_2008_TABLESTYLE_CELLSTYLEMAP
360
C956
  0
DICTIONARY
  5
C962
330
BFC3
100
AcDbDictionary
280
     1
281
     1
  3
ACAD_XREC_ROUNDTRIP
360
C963
  0
DICTIONARY
  5
C960
330
BFC2
100
AcDbDictionary
280
     1
281
     1
  3
ACAD_XREC_ROUNDTRIP
360
C961
  0
DICTIONARY
  5
C96E
330
BFC9
100
AcDbDictionary
280
     1
281
     1
  3
ACAD_XREC_ROUNDTRIP
360
C96F
  0
DICTIONARY
  5
C976
330
BFCD
100
AcDbDictionary
280
     1
281
     1
  3
ACAD_XREC_ROUNDTRIP
360
C977
  0
DICTIONARY
  5
C968
330
BFC6
100
AcDbDictionary
280
     1
281
     1
  3
ACAD_XREC_ROUNDTRIP
360
C969
  0
DICTIONARY
  5
C96C
330
BFC8
100
AcDbDictionary
280
     1
281
     1
  3
ACAD_XREC_ROUNDTRIP
360
C96D
  0
DICTIONARY
  5
C986
330
BFD5
100
AcDbDictionary
280
     1
281
     1
  3
ACAD_XREC_ROUNDTRIP
360
C987
  0
DICTIONARY
  5
C974
330
BFCC
100
AcDbDictionary
280
     1
281
     1
  3
ACAD_XREC_ROUNDTRIP
360
C975
  0
DICTIONARY
  5
C958
330
BFBE
100
AcDbDictionary
280
     1
281
     1
  3
ACAD_XREC_ROUNDTRIP
360
C959
  0
DICTIONARY
  5
C95A
330
BFBF
100
AcDbDictionary
280
     1
281
     1
  3
ACAD_XREC_ROUNDTRIP
360
C95B
  0
DICTIONARY
  5
C95C
330
BFC0
100
AcDbDictionary
280
     1
281
     1
  3
ACAD_XREC_ROUNDTRIP
360
C95D
  0
DICTIONARY
  5
C95E
330
BFC1
100
AcDbDictionary
280
     1
281
     1
  3
ACAD_XREC_ROUNDTRIP
360
C95F
  0
DICTIONARY
  5
C966
330
BFC5
100
AcDbDictionary
280
     1
281
     1
  3
ACAD_XREC_ROUNDTRIP
360
C967
  0
DICTIONARY
  5
C982
330
BFD3
100
AcDbDictionary
280
     1
281
     1
  3
ACAD_XREC_ROUNDTRIP
360
C983
  0
DICTIONARY
  5
C972
330
BFCB
100
AcDbDictionary
280
     1
281
     1
  3
ACAD_XREC_ROUNDTRIP
360
C973
  0
DICTIONARY
  5
C984
330
BFD4
100
AcDbDictionary
280
     1
281
     1
  3
ACAD_XREC_ROUNDTRIP
360
C985
  0
DICTIONARY
  5
C96A
330
BFC7
100
AcDbDictionary
280
     1
281
     1
  3
ACAD_XREC_ROUNDTRIP
360
C96B
  0
DICTIONARY
  5
C980
330
BFD2
100
AcDbDictionary
280
     1
281
     1
  3
ACAD_XREC_ROUNDTRIP
360
C981
  0
DICTIONARY
  5
C97E
330
BFD1
100
AcDbDictionary
280
     1
281
     1
  3
ACAD_XREC_ROUNDTRIP
360
C97F
  0
DICTIONARY
  5
C978
330
BFCE
100
AcDbDictionary
280
     1
281
     1
  3
ACAD_XREC_ROUNDTRIP
360
C979
  0
DICTIONARY
  5
C97A
330
BFCF
100
AcDbDictionary
280
     1
281
     1
  3
ACAD_XREC_ROUNDTRIP
360
C97B
  0
DICTIONARY
  5
C970
330
BFCA
100
AcDbDictionary
280
     1
281
     1
  3
ACAD_XREC_ROUNDTRIP
360
C971
  0
DICTIONARY
  5
C964
330
BFC4
100
AcDbDictionary
280
     1
281
     1
  3
ACAD_XREC_ROUNDTRIP
360
C965
  0
DICTIONARY
  5
C97C
330
BFD0
100
AcDbDictionary
280
     1
281
     1
  3
ACAD_XREC_ROUNDTRIP
360
C97D
  0
XRECORD
  5
C98B
102
{ACAD_REACTORS
330
C98A
102
}
330
C98A
100
AcDbXrecord
280
     1
102
DISPLAYNAME
  1
Imperial24
102
FLAGS
 90
        0
  0
XRECORD
  5
C98F
102
{ACAD_REACTORS
330
C98E
102
}
330
C98E
100
AcDbXrecord
280
     1
102
DISPLAYNAME
  1
Metric50
102
FLAGS
 90
        0
  0
XRECORD
  5
BFB0
102
{ACAD_REACTORS
330
BFAE
102
}
330
BFAE
100
AcDbXrecord
280
     1
270
     1
271
     1
  0
XRECORD
  5
BFAF
102
{ACAD_REACTORS
330
BFAE
102
}
330
BFAE
100
AcDbXrecord
280
     1
270
     1
271
     1
  0
XRECORD
  5
BFB3
102
{ACAD_REACTORS
330
BFAE
102
}
330
BFAE
100
AcDbXrecord
280
     1
270
     1
271
     1
  0
XRECORD
  5
BFB2
102
{ACAD_REACTORS
330
BFAE
102
}
330
BFAE
100
AcDbXrecord
280
     1
270
     1
271
     1
  0
XRECORD
  5
BFB4
102
{ACAD_REACTORS
330
BFAE
102
}
330
BFAE
100
AcDbXrecord
280
     1
270
     1
271
     1
  0
XRECORD
  5
BFB1
102
{ACAD_REACTORS
330
BFAE
102
}
330
BFAE
100
AcDbXrecord
280
     1
270
     1
271
     1
  0
XRECORD
  5
BFA8
102
{ACAD_REACTORS
330
BFA6
102
}
330
BFA6
100
AcDbXrecord
280
     1
270
     1
271
     1
  0
XRECORD
  5
BFA7
102
{ACAD_REACTORS
330
BFA6
102
}
330
BFA6
100
AcDbXrecord
280
     1
270
     1
271
     1
  0
XRECORD
  5
BFAB
102
{ACAD_REACTORS
330
BFA6
102
}
330
BFA6
100
AcDbXrecord
280
     1
270
     1
271
     1
  0
XRECORD
  5
BFAA
102
{ACAD_REACTORS
330
BFA6
102
}
330
BFA6
100
AcDbXrecord
280
     1
270
     1
271
     1
  0
XRECORD
  5
BFAC
102
{ACAD_REACTORS
330
BFA6
102
}
330
BFA6
100
AcDbXrecord
280
     1
270
     1
271
     1
  0
XRECORD
  5
BFA9
102
{ACAD_REACTORS
330
BFA6
102
}
330
BFA6
100
AcDbXrecord
280
     1
270
     1
271
     1
  0
XRECORD
  5
BFB8
102
{ACAD_REACTORS
330
BFB6
102
}
330
BFB6
100
AcDbXrecord
280
     1
270
     1
271
     1
  0
XRECORD
  5
BFB7
102
{ACAD_REACTORS
330
BFB6
102
}
330
BFB6
100
AcDbXrecord
280
     1
270
     1
271
     1
  0
XRECORD
  5
BFBB
102
{ACAD_REACTORS
330
BFB6
102
}
330
BFB6
100
AcDbXrecord
280
     1
270
     1
271
     1
  0
XRECORD
  5
BFBA
102
{ACAD_REACTORS
330
BFB6
102
}
330
BFB6
100
AcDbXrecord
280
     1
270
     1
271
     1
  0
XRECORD
  5
BFBC
102
{ACAD_REACTORS
330
BFB6
102
}
330
BFB6
100
AcDbXrecord
280
     1
270
     1
271
     1
  0
XRECORD
  5
BFB9
102
{ACAD_REACTORS
330
BFB6
102
}
330
BFB6
100
AcDbXrecord
280
     1
270
     1
271
     1
  0
XRECORD
  5
C989
102
{ACAD_REACTORS
330
C988
102
}
330
C988
100
AcDbXrecord
280
     1
102
DISPLAYNAME
  1
Imperial24
102
FLAGS
 90
        0
  0
XRECORD
  5
C98D
102
{ACAD_REACTORS
330
C98C
102
}
330
C98C
100
AcDbXrecord
280
     1
102
DISPLAYNAME
  1
Metric50
102
FLAGS
 90
        0
  0
CELLSTYLEMAP
  5
C956
102
{ACAD_REACTORS
330
C124
102
}
330
C124
100
AcDbCellStyleMap
 90
        3
300
CELLSTYLE
  1
TABLEFORMAT_BEGIN
 90
        5
170
     1
 91
        0
 92
    32768
 62
   257
 93
        1
300
CONTENTFORMAT
  1
CONTENTFORMAT_BEGIN
 90
        0
 91
        0
 92
      512
 93
        0
300

 40
0.0
140
1.0
 94
        5
 62
     0
340
BFE9
144
0.25
309
CONTENTFORMAT_END
171
     1
301
MARGIN
  1
CELLMARGIN_BEGIN
 40
0.06
 40
0.06
 40
0.06
 40
0.06
 40
0.18
 40
0.18
309
CELLMARGIN_END
 94
        6
 95
        1
302
GRIDFORMAT
  1
GRIDFORMAT_BEGIN
 90
        0
 91
        1
 62
     0
 92
       -2
340
0
 93
        0
 40
0.045
309
GRIDFORMAT_END
 95
        2
302
GRIDFORMAT
  1
GRIDFORMAT_BEGIN
 90
        0
 91
        1
 62
     0
 92
       -2
340
0
 93
        0
 40
0.045
309
GRIDFORMAT_END
 95
        4
302
GRIDFORMAT
  1
GRIDFORMAT_BEGIN
 90
        0
 91
        1
 62
     0
 92
       -2
340
0
 93
        0
 40
0.045
309
GRIDFORMAT_END
 95
        8
302
GRIDFORMAT
  1
GRIDFORMAT_BEGIN
 90
        0
 91
        1
 62
     0
 92
       -2
340
0
 93
        0
 40
0.045
309
GRIDFORMAT_END
 95
       16
302
GRIDFORMAT
  1
GRIDFORMAT_BEGIN
 90
        0
 91
        1
 62
     0
 92
       -2
340
0
 93
        0
 40
0.045
309
GRIDFORMAT_END
 95
       32
302
GRIDFORMAT
  1
GRIDFORMAT_BEGIN
 90
        0
 91
        1
 62
     0
 92
       -2
340
0
 93
        0
 40
0.045
309
GRIDFORMAT_END
309
TABLEFORMAT_END
  1
CELLSTYLE_BEGIN
 90
        1
 91
        1
300
_TITLE
309
CELLSTYLE_END
300
CELLSTYLE
  1
TABLEFORMAT_BEGIN
 90
        5
170
     1
 91
        0
 92
        0
 62
   257
 93
        1
300
CONTENTFORMAT
  1
CONTENTFORMAT_BEGIN
 90
        0
 91
        0
 92
      512
 93
        0
300

 40
0.0
140
1.0
 94
        5
 62
     0
340
BFE9
144
0.18
309
CONTENTFORMAT_END
171
     1
301
MARGIN
  1
CELLMARGIN_BEGIN
 40
0.06
 40
0.06
 40
0.06
 40
0.06
 40
0.18
 40
0.18
309
CELLMARGIN_END
 94
        6
 95
        1
302
GRIDFORMAT
  1
GRIDFORMAT_BEGIN
 90
        0
 91
        1
 62
     0
 92
       -2
340
0
 93
        0
 40
0.045
309
GRIDFORMAT_END
 95
        2
302
GRIDFORMAT
  1
GRIDFORMAT_BEGIN
 90
        0
 91
        1
 62
     0
 92
       -2
340
0
 93
        0
 40
0.045
309
GRIDFORMAT_END
 95
        4
302
GRIDFORMAT
  1
GRIDFORMAT_BEGIN
 90
        0
 91
        1
 62
     0
 92
       -2
340
0
 93
        0
 40
0.045
309
GRIDFORMAT_END
 95
        8
302
GRIDFORMAT
  1
GRIDFORMAT_BEGIN
 90
        0
 91
        1
 62
     0
 92
       -2
340
0
 93
        0
 40
0.045
309
GRIDFORMAT_END
 95
       16
302
GRIDFORMAT
  1
GRIDFORMAT_BEGIN
 90
        0
 91
        1
 62
     0
 92
       -2
340
0
 93
        0
 40
0.045
309
GRIDFORMAT_END
 95
       32
302
GRIDFORMAT
  1
GRIDFORMAT_BEGIN
 90
        0
 91
        1
 62
     0
 92
       -2
340
0
 93
        0
 40
0.045
309
GRIDFORMAT_END
309
TABLEFORMAT_END
  1
CELLSTYLE_BEGIN
 90
        2
 91
        1
300
_HEADER
309
CELLSTYLE_END
300
CELLSTYLE
  1
TABLEFORMAT_BEGIN
 90
        5
170
     1
 91
        0
 92
        0
 62
   257
 93
        1
300
CONTENTFORMAT
  1
CONTENTFORMAT_BEGIN
 90
        0
 91
        0
 92
      512
 93
        0
300

 40
0.0
140
1.0
 94
        2
 62
     0
340
BFE9
144
0.18
309
CONTENTFORMAT_END
171
     1
301
MARGIN
  1
CELLMARGIN_BEGIN
 40
0.06
 40
0.06
 40
0.06
 40
0.06
 40
0.18
 40
0.18
309
CELLMARGIN_END
 94
        6
 95
        1
302
GRIDFORMAT
  1
GRIDFORMAT_BEGIN
 90
        0
 91
        1
 62
     0
 92
       -2
340
0
 93
        0
 40
0.045
309
GRIDFORMAT_END
 95
        2
302
GRIDFORMAT
  1
GRIDFORMAT_BEGIN
 90
        0
 91
        1
 62
     0
 92
       -2
340
0
 93
        0
 40
0.045
309
GRIDFORMAT_END
 95
        4
302
GRIDFORMAT
  1
GRIDFORMAT_BEGIN
 90
        0
 91
        1
 62
     0
 92
       -2
340
0
 93
        0
 40
0.045
309
GRIDFORMAT_END
 95
        8
302
GRIDFORMAT
  1
GRIDFORMAT_BEGIN
 90
        0
 91
        1
 62
     0
 92
       -2
340
0
 93
        0
 40
0.045
309
GRIDFORMAT_END
 95
       16
302
GRIDFORMAT
  1
GRIDFORMAT_BEGIN
 90
        0
 91
        1
 62
     0
 92
       -2
340
0
 93
        0
 40
0.045
309
GRIDFORMAT_END
 95
       32
302
GRIDFORMAT
  1
GRIDFORMAT_BEGIN
 90
        0
 91
        1
 62
     0
 92
       -2
340
0
 93
        0
 40
0.045
309
GRIDFORMAT_END
309
TABLEFORMAT_END
  1
CELLSTYLE_BEGIN
 90
        3
 91
        2
300
_DATA
309
CELLSTYLE_END
  0
XRECORD
  5
C963
102
{ACAD_REACTORS
330
C962
102
}
330
C962
100
AcDbXrecord
280
     1
102
RTVSPost2010Prop28
280
     1
102
RTVSPost2010PropOp28
 70
     1
102
RTVSPost2010Prop29
280
     1
102
RTVSPost2010PropOp29
 70
     1
102
RTVSPost2010Prop30
280
     0
102
RTVSPost2010PropOp30
 70
     1
102
RTVSPost2010Prop31
280
     0
102
RTVSPost2010PropOp31
 70
     1
102
RTVSPost2010Prop32
280
     0
102
RTVSPost2010PropOp32
 70
     1
102
RTVSPost2010Prop33
280
     0
102
RTVSPost2010PropOp33
 70
     1
102
RTVSPost2010Prop34
280
     0
102
RTVSPost2010PropOp34
 70
     1
102
RTVSPost2010Prop35
280
     0
102
RTVSPost2010PropOp35
 70
     1
102
RTVSPost2010Prop36
280
     0
102
RTVSPost2010PropOp36
 70
     1
102
RTVSPost2010Prop37
 90
       50
102
RTVSPost2010PropOp37
 70
     1
102
RTVSPost2010Prop38
140
0.0
102
RTVSPost2010PropOp38
 70
     1
102
RTVSPost2010Prop39
140
1.0
102
RTVSPost2010PropOp39
 70
     1
102
RTVSPost2010Prop40
 90
        0
102
RTVSPost2010PropOp40
 70
     1
102
RTVSPost2010Prop41ColorIndex
 90
       18
102
RTVSPost2010Prop41ColorRGB
 90
-16777216
102
RTVSPost2010PropOp41
 70
     1
102
RTVSPost2010Prop42
 90
       50
102
RTVSPost2010PropOp42
 70
     1
102
RTVSPost2010Prop43
 90
        3
102
RTVSPost2010PropOp43
 70
     1
102
RTVSPost2010Prop44ColorIndex
 90
        5
102
RTVSPost2010Prop44ColorRGB
 90
      255
102
RTVSPost2010PropOp44
 70
     1
102
RTVSPost2010Prop45
280
     0
102
RTVSPost2010PropOp45
 70
     1
102
RTVSPost2010Prop46
 90
       50
102
RTVSPost2010PropOp46
 70
     1
102
RTVSPost2010Prop47
 90
       50
102
RTVSPost2010PropOp47
 70
     1
102
RTVSPost2010Prop48
 90
       50
102
RTVSPost2010PropOp48
 70
     1
102
RTVSPost2010Prop49
280
     0
102
RTVSPost2010PropOp49
 70
     1
102
RTVSPost2010Prop50
 90
       50
102
RTVSPost2010PropOp50
 70
     1
102
RTVSPost2010Prop51ColorIndex
 90
      256
102
RTVSPost2010Prop51ColorRGB
 90
-16777216
102
RTVSPost2010PropOp51
 70
     0
102
RTVSPost2010Prop52
140
1.0
102
RTVSPost2010PropOp52
 70
     0
102
RTVSPost2010Prop53
 90
        2
102
RTVSPost2010PropOp53
 70
     1
102
RTVSPost2010Prop54
  1
strokes_ogs.tif
102
RTVSPost2010PropOp54
 70
     1
102
RTVSPost2010Prop55
280
     0
102
RTVSPost2010PropOp55
 70
     1
102
RTVSPost2010Prop56
140
1.0
102
RTVSPost2010PropOp56
 70
     1
102
RTVSPost2010Prop57
140
1.0
102
RTVSPost2010PropOp57
 70
     1
102
RTVSPropertyOp0
 70
     1
102
RTVSPropertyOp1
 70
     1
102
RTVSPropertyOp2
 70
     1
102
RTVSPropertyOp3
 70
     1
102
RTVSPropertyOp4
 70
     1
102
RTVSPropertyOp5
 70
     1
102
RTVSPropertyOp6
 70
     1
102
RTVSPropertyOp7
 70
     1
102
RTVSPropertyOp8
 70
     1
102
RTVSPropertyOp9
 70
     1
102
RTVSPropertyOp10
 70
     1
102
RTVSPropertyOp11
 70
     1
102
RTVSPropertyOp12
 70
     1
102
RTVSPropertyOp13
 70
     1
102
RTVSPropertyOp14
 70
     1
102
RTVSPropertyOp15
 70
     1
102
RTVSPropertyOp16
 70
     1
102
RTVSPropertyOp17
 70
     1
102
RTVSPropertyOp18
 70
     1
102
RTVSPropertyOp19
 70
     1
102
RTVSPropertyOp20
 70
     1
102
RTVSPropertyOp21
 70
     1
102
RTVSPropertyOp22
 70
     1
102
RTVSPropertyOp23
 70
     1
102
RTVSPropertyOp24
 70
     1
102
RTVSPropertyOp25
 70
     1
102
RTVSPropertyOp26
 70
     1
102
RTVSPropertyOp27
 70
     1
102
RTVSPropertyOp28
 70
     1
102
RTVSPropertyOp29
 70
     1
102
RTVSPropertyOp30
 70
     1
102
RTVSPropertyOp31
 70
     1
102
RTVSPropertyOp32
 70
     1
102
RTVSPropertyOp33
 70
     1
102
RTVSPropertyOp34
 70
     1
102
RTVSPropertyOp35
 70
     1
102
RTVSPropertyOp36
 70
     1
102
RTVSPropertyOp37
 70
     1
102
RTVSPropertyOp38
 70
     1
102
RTVSPropertyOp39
 70
     1
102
RTVSPropertyOp40
 70
     1
102
RTVSPropertyOp41
 70
     1
102
RTVSPropertyOp42
 70
     1
102
RTVSPropertyOp43
 70
     1
102
RTVSPropertyOp44
 70
     1
102
RTVSPropertyOp45
 70
     1
102
RTVSPropertyOp46
 70
     1
102
RTVSPropertyOp47
 70
     1
102
RTVSPropertyOp48
 70
     1
102
RTVSPropertyOp49
 70
     1
102
RTVSPropertyOp50
 70
     1
102
RTVSPropertyOp51
 70
     0
102
RTVSPropertyOp52
 70
     0
102
RTVSPropertyOp53
 70
     1
102
RTVSPropertyOp54
 70
     1
102
RTVSPropertyOp55
 70
     1
102
RTVSPropertyOp56
 70
     1
102
RTVSPropertyOp57
 70
     1
102
RTVSPropertyOp58
 70
     1
102
RTVSPropertyOp59
 70
     1
102
RTVSPropertyOp60
 70
     1
102
RTVSPropertyOp61
 70
     1
102
RTVSPropertyOp62
 70
     1
  0
XRECORD
  5
C961
102
{ACAD_REACTORS
330
C960
102
}
330
C960
100
AcDbXrecord
280
     1
102
RTVSPost2010Prop28
280
     0
102
RTVSPost2010PropOp28
 70
     1
102
RTVSPost2010Prop29
280
     1
102
RTVSPost2010PropOp29
 70
     1
102
RTVSPost2010Prop30
280
     1
102
RTVSPost2010PropOp30
 70
     1
102
RTVSPost2010Prop31
280
     0
102
RTVSPost2010PropOp31
 70
     1
102
RTVSPost2010Prop32
280
     0
102
RTVSPost2010PropOp32
 70
     1
102
RTVSPost2010Prop33
280
     0
102
RTVSPost2010PropOp33
 70
     1
102
RTVSPost2010Prop34
280
     0
102
RTVSPost2010PropOp34
 70
     1
102
RTVSPost2010Prop35
280
     0
102
RTVSPost2010PropOp35
 70
     1
102
RTVSPost2010Prop36
280
     0
102
RTVSPost2010PropOp36
 70
     1
102
RTVSPost2010Prop37
 90
       50
102
RTVSPost2010PropOp37
 70
     1
102
RTVSPost2010Prop38
140
0.0
102
RTVSPost2010PropOp38
 70
     1
102
RTVSPost2010Prop39
140
1.0
102
RTVSPost2010PropOp39
 70
     1
102
RTVSPost2010Prop40
 90
        0
102
RTVSPost2010PropOp40
 70
     1
102
RTVSPost2010Prop41ColorIndex
 90
       18
102
RTVSPost2010Prop41ColorRGB
 90
-16777216
102
RTVSPost2010PropOp41
 70
     1
102
RTVSPost2010Prop42
 90
       50
102
RTVSPost2010PropOp42
 70
     1
102
RTVSPost2010Prop43
 90
        3
102
RTVSPost2010PropOp43
 70
     1
102
RTVSPost2010Prop44ColorIndex
 90
        5
102
RTVSPost2010Prop44ColorRGB
 90
      255
102
RTVSPost2010PropOp44
 70
     1
102
RTVSPost2010Prop45
280
     0
102
RTVSPost2010PropOp45
 70
     1
102
RTVSPost2010Prop46
 90
       50
102
RTVSPost2010PropOp46
 70
     1
102
RTVSPost2010Prop47
 90
       50
102
RTVSPost2010PropOp47
 70
     1
102
RTVSPost2010Prop48
 90
       50
102
RTVSPost2010PropOp48
 70
     1
102
RTVSPost2010Prop49
280
     0
102
RTVSPost2010PropOp49
 70
     1
102
RTVSPost2010Prop50
 90
       50
102
RTVSPost2010PropOp50
 70
     1
102
RTVSPost2010Prop51ColorIndex
 90
      256
102
RTVSPost2010Prop51ColorRGB
 90
-16777216
102
RTVSPost2010PropOp51
 70
     0
102
RTVSPost2010Prop52
140
1.0
102
RTVSPost2010PropOp52
 70
     0
102
RTVSPost2010Prop53
 90
        2
102
RTVSPost2010PropOp53
 70
     1
102
RTVSPost2010Prop54
  1
strokes_ogs.tif
102
RTVSPost2010PropOp54
 70
     1
102
RTVSPost2010Prop55
280
     0
102
RTVSPost2010PropOp55
 70
     1
102
RTVSPost2010Prop56
140
1.0
102
RTVSPost2010PropOp56
 70
     1
102
RTVSPost2010Prop57
140
1.0
102
RTVSPost2010PropOp57
 70
     1
102
RTVSPropertyOp0
 70
     1
102
RTVSPropertyOp1
 70
     1
102
RTVSPropertyOp2
 70
     1
102
RTVSPropertyOp3
 70
     1
102
RTVSPropertyOp4
 70
     1
102
RTVSPropertyOp5
 70
     1
102
RTVSPropertyOp6
 70
     1
102
RTVSPropertyOp7
 70
     1
102
RTVSPropertyOp8
 70
     1
102
RTVSPropertyOp9
 70
     1
102
RTVSPropertyOp10
 70
     1
102
RTVSPropertyOp11
 70
     1
102
RTVSPropertyOp12
 70
     1
102
RTVSPropertyOp13
 70
     1
102
RTVSPropertyOp14
 70
     1
102
RTVSPropertyOp15
 70
     1
102
RTVSPropertyOp16
 70
     1
102
RTVSPropertyOp17
 70
     1
102
RTVSPropertyOp18
 70
     1
102
RTVSPropertyOp19
 70
     1
102
RTVSPropertyOp20
 70
     1
102
RTVSPropertyOp21
 70
     1
102
RTVSPropertyOp22
 70
     1
102
RTVSPropertyOp23
 70
     1
102
RTVSPropertyOp24
 70
     1
102
RTVSPropertyOp25
 70
     1
102
RTVSPropertyOp26
 70
     1
102
RTVSPropertyOp27
 70
     1
102
RTVSPropertyOp28
 70
     1
102
RTVSPropertyOp29
 70
     1
102
RTVSPropertyOp30
 70
     1
102
RTVSPropertyOp31
 70
     1
102
RTVSPropertyOp32
 70
     1
102
RTVSPropertyOp33
 70
     1
102
RTVSPropertyOp34
 70
     1
102
RTVSPropertyOp35
 70
     1
102
RTVSPropertyOp36
 70
     1
102
RTVSPropertyOp37
 70
     1
102
RTVSPropertyOp38
 70
     1
102
RTVSPropertyOp39
 70
     1
102
RTVSPropertyOp40
 70
     1
102
RTVSPropertyOp41
 70
     1
102
RTVSPropertyOp42
 70
     1
102
RTVSPropertyOp43
 70
     1
102
RTVSPropertyOp44
 70
     1
102
RTVSPropertyOp45
 70
     1
102
RTVSPropertyOp46
 70
     1
102
RTVSPropertyOp47
 70
     1
102
RTVSPropertyOp48
 70
     1
102
RTVSPropertyOp49
 70
     1
102
RTVSPropertyOp50
 70
     1
102
RTVSPropertyOp51
 70
     0
102
RTVSPropertyOp52
 70
     0
102
RTVSPropertyOp53
 70
     1
102
RTVSPropertyOp54
 70
     1
102
RTVSPropertyOp55
 70
     1
102
RTVSPropertyOp56
 70
     1
102
RTVSPropertyOp57
 70
     1
102
RTVSPropertyOp58
 70
     1
102
RTVSPropertyOp59
 70
     1
102
RTVSPropertyOp60
 70
     1
102
RTVSPropertyOp61
 70
     1
102
RTVSPropertyOp62
 70
     1
  0
XRECORD
  5
C96F
102
{ACAD_REACTORS
330
C96E
102
}
330
C96E
100
AcDbXrecord
280
     1
102
RTVSPost2010Prop28
280
     0
102
RTVSPost2010PropOp28
 70
     1
102
RTVSPost2010Prop29
280
     1
102
RTVSPost2010PropOp29
 70
     1
102
RTVSPost2010Prop30
280
     1
102
RTVSPost2010PropOp30
 70
     1
102
RTVSPost2010Prop31
280
     0
102
RTVSPost2010PropOp31
 70
     1
102
RTVSPost2010Prop32
280
     0
102
RTVSPost2010PropOp32
 70
     1
102
RTVSPost2010Prop33
280
     0
102
RTVSPost2010PropOp33
 70
     1
102
RTVSPost2010Prop34
280
     0
102
RTVSPost2010PropOp34
 70
     1
102
RTVSPost2010Prop35
280
     0
102
RTVSPost2010PropOp35
 70
     1
102
RTVSPost2010Prop36
280
     0
102
RTVSPost2010PropOp36
 70
     1
102
RTVSPost2010Prop37
 90
       50
102
RTVSPost2010PropOp37
 70
     1
102
RTVSPost2010Prop38
140
0.0
102
RTVSPost2010PropOp38
 70
     1
102
RTVSPost2010Prop39
140
1.0
102
RTVSPost2010PropOp39
 70
     1
102
RTVSPost2010Prop40
 90
        0
102
RTVSPost2010PropOp40
 70
     1
102
RTVSPost2010Prop41ColorIndex
 90
       18
102
RTVSPost2010Prop41ColorRGB
 90
-16777216
102
RTVSPost2010PropOp41
 70
     1
102
RTVSPost2010Prop42
 90
       50
102
RTVSPost2010PropOp42
 70
     1
102
RTVSPost2010Prop43
 90
        3
102
RTVSPost2010PropOp43
 70
     1
102
RTVSPost2010Prop44ColorIndex
 90
        5
102
RTVSPost2010Prop44ColorRGB
 90
      255
102
RTVSPost2010PropOp44
 70
     1
102
RTVSPost2010Prop45
280
     0
102
RTVSPost2010PropOp45
 70
     1
102
RTVSPost2010Prop46
 90
       50
102
RTVSPost2010PropOp46
 70
     1
102
RTVSPost2010Prop47
 90
       50
102
RTVSPost2010PropOp47
 70
     1
102
RTVSPost2010Prop48
 90
       50
102
RTVSPost2010PropOp48
 70
     1
102
RTVSPost2010Prop49
280
     0
102
RTVSPost2010PropOp49
 70
     1
102
RTVSPost2010Prop50
 90
       50
102
RTVSPost2010PropOp50
 70
     1
102
RTVSPost2010Prop51ColorIndex
 90
      256
102
RTVSPost2010Prop51ColorRGB
 90
-16777216
102
RTVSPost2010PropOp51
 70
     0
102
RTVSPost2010Prop52
140
1.0
102
RTVSPost2010PropOp52
 70
     0
102
RTVSPost2010Prop53
 90
        2
102
RTVSPost2010PropOp53
 70
     1
102
RTVSPost2010Prop54
  1
strokes_ogs.tif
102
RTVSPost2010PropOp54
 70
     1
102
RTVSPost2010Prop55
280
     0
102
RTVSPost2010PropOp55
 70
     1
102
RTVSPost2010Prop56
140
1.0
102
RTVSPost2010PropOp56
 70
     1
102
RTVSPost2010Prop57
140
1.0
102
RTVSPost2010PropOp57
 70
     1
102
RTVSPropertyOp0
 70
     1
102
RTVSPropertyOp1
 70
     1
102
RTVSPropertyOp2
 70
     1
102
RTVSPropertyOp3
 70
     1
102
RTVSPropertyOp4
 70
     1
102
RTVSPropertyOp5
 70
     1
102
RTVSPropertyOp6
 70
     1
102
RTVSPropertyOp7
 70
     1
102
RTVSPropertyOp8
 70
     1
102
RTVSPropertyOp9
 70
     1
102
RTVSPropertyOp10
 70
     1
102
RTVSPropertyOp11
 70
     1
102
RTVSPropertyOp12
 70
     1
102
RTVSPropertyOp13
 70
     1
102
RTVSPropertyOp14
 70
     1
102
RTVSPropertyOp15
 70
     1
102
RTVSPropertyOp16
 70
     1
102
RTVSPropertyOp17
 70
     1
102
RTVSPropertyOp18
 70
     1
102
RTVSPropertyOp19
 70
     1
102
RTVSPropertyOp20
 70
     1
102
RTVSPropertyOp21
 70
     1
102
RTVSPropertyOp22
 70
     1
102
RTVSPropertyOp23
 70
     1
102
RTVSPropertyOp24
 70
     1
102
RTVSPropertyOp25
 70
     1
102
RTVSPropertyOp26
 70
     1
102
RTVSPropertyOp27
 70
     1
102
RTVSPropertyOp28
 70
     1
102
RTVSPropertyOp29
 70
     1
102
RTVSPropertyOp30
 70
     1
102
RTVSPropertyOp31
 70
     1
102
RTVSPropertyOp32
 70
     1
102
RTVSPropertyOp33
 70
     1
102
RTVSPropertyOp34
 70
     1
102
RTVSPropertyOp35
 70
     1
102
RTVSPropertyOp36
 70
     1
102
RTVSPropertyOp37
 70
     1
102
RTVSPropertyOp38
 70
     1
102
RTVSPropertyOp39
 70
     1
102
RTVSPropertyOp40
 70
     1
102
RTVSPropertyOp41
 70
     1
102
RTVSPropertyOp42
 70
     1
102
RTVSPropertyOp43
 70
     1
102
RTVSPropertyOp44
 70
     1
102
RTVSPropertyOp45
 70
     1
102
RTVSPropertyOp46
 70
     1
102
RTVSPropertyOp47
 70
     1
102
RTVSPropertyOp48
 70
     1
102
RTVSPropertyOp49
 70
     1
102
RTVSPropertyOp50
 70
     1
102
RTVSPropertyOp51
 70
     0
102
RTVSPropertyOp52
 70
     0
102
RTVSPropertyOp53
 70
     1
102
RTVSPropertyOp54
 70
     1
102
RTVSPropertyOp55
 70
     1
102
RTVSPropertyOp56
 70
     1
102
RTVSPropertyOp57
 70
     1
102
RTVSPropertyOp58
 70
     1
102
RTVSPropertyOp59
 70
     1
102
RTVSPropertyOp60
 70
     1
102
RTVSPropertyOp61
 70
     1
102
RTVSPropertyOp62
 70
     1
  0
XRECORD
  5
C977
102
{ACAD_REACTORS
330
C976
102
}
330
C976
100
AcDbXrecord
280
     1
102
RTVSPost2010Prop28
280
     0
102
RTVSPost2010PropOp28
 70
     1
102
RTVSPost2010Prop29
280
     1
102
RTVSPost2010PropOp29
 70
     1
102
RTVSPost2010Prop30
280
     1
102
RTVSPost2010PropOp30
 70
     1
102
RTVSPost2010Prop31
280
     0
102
RTVSPost2010PropOp31
 70
     1
102
RTVSPost2010Prop32
280
     0
102
RTVSPost2010PropOp32
 70
     1
102
RTVSPost2010Prop33
280
     0
102
RTVSPost2010PropOp33
 70
     1
102
RTVSPost2010Prop34
280
     0
102
RTVSPost2010PropOp34
 70
     1
102
RTVSPost2010Prop35
280
     0
102
RTVSPost2010PropOp35
 70
     1
102
RTVSPost2010Prop36
280
     0
102
RTVSPost2010PropOp36
 70
     1
102
RTVSPost2010Prop37
 90
       50
102
RTVSPost2010PropOp37
 70
     1
102
RTVSPost2010Prop38
140
0.0
102
RTVSPost2010PropOp38
 70
     1
102
RTVSPost2010Prop39
140
1.0
102
RTVSPost2010PropOp39
 70
     1
102
RTVSPost2010Prop40
 90
        0
102
RTVSPost2010PropOp40
 70
     1
102
RTVSPost2010Prop41ColorIndex
 90
       18
102
RTVSPost2010Prop41ColorRGB
 90
-16777216
102
RTVSPost2010PropOp41
 70
     1
102
RTVSPost2010Prop42
 90
       50
102
RTVSPost2010PropOp42
 70
     1
102
RTVSPost2010Prop43
 90
        3
102
RTVSPost2010PropOp43
 70
     1
102
RTVSPost2010Prop44ColorIndex
 90
        5
102
RTVSPost2010Prop44ColorRGB
 90
      255
102
RTVSPost2010PropOp44
 70
     1
102
RTVSPost2010Prop45
280
     0
102
RTVSPost2010PropOp45
 70
     1
102
RTVSPost2010Prop46
 90
       50
102
RTVSPost2010PropOp46
 70
     1
102
RTVSPost2010Prop47
 90
       50
102
RTVSPost2010PropOp47
 70
     1
102
RTVSPost2010Prop48
 90
       50
102
RTVSPost2010PropOp48
 70
     1
102
RTVSPost2010Prop49
280
     0
102
RTVSPost2010PropOp49
 70
     1
102
RTVSPost2010Prop50
 90
       50
102
RTVSPost2010PropOp50
 70
     1
102
RTVSPost2010Prop51ColorIndex
 90
      256
102
RTVSPost2010Prop51ColorRGB
 90
-16777216
102
RTVSPost2010PropOp51
 70
     0
102
RTVSPost2010Prop52
140
1.0
102
RTVSPost2010PropOp52
 70
     0
102
RTVSPost2010Prop53
 90
        2
102
RTVSPost2010PropOp53
 70
     1
102
RTVSPost2010Prop54
  1
strokes_ogs.tif
102
RTVSPost2010PropOp54
 70
     1
102
RTVSPost2010Prop55
280
     0
102
RTVSPost2010PropOp55
 70
     1
102
RTVSPost2010Prop56
140
1.0
102
RTVSPost2010PropOp56
 70
     1
102
RTVSPost2010Prop57
140
1.0
102
RTVSPost2010PropOp57
 70
     1
102
RTVSPropertyOp0
 70
     1
102
RTVSPropertyOp1
 70
     1
102
RTVSPropertyOp2
 70
     1
102
RTVSPropertyOp3
 70
     1
102
RTVSPropertyOp4
 70
     1
102
RTVSPropertyOp5
 70
     1
102
RTVSPropertyOp6
 70
     1
102
RTVSPropertyOp7
 70
     1
102
RTVSPropertyOp8
 70
     1
102
RTVSPropertyOp9
 70
     1
102
RTVSPropertyOp10
 70
     1
102
RTVSPropertyOp11
 70
     1
102
RTVSPropertyOp12
 70
     1
102
RTVSPropertyOp13
 70
     1
102
RTVSPropertyOp14
 70
     1
102
RTVSPropertyOp15
 70
     1
102
RTVSPropertyOp16
 70
     1
102
RTVSPropertyOp17
 70
     1
102
RTVSPropertyOp18
 70
     1
102
RTVSPropertyOp19
 70
     1
102
RTVSPropertyOp20
 70
     1
102
RTVSPropertyOp21
 70
     1
102
RTVSPropertyOp22
 70
     1
102
RTVSPropertyOp23
 70
     1
102
RTVSPropertyOp24
 70
     1
102
RTVSPropertyOp25
 70
     1
102
RTVSPropertyOp26
 70
     1
102
RTVSPropertyOp27
 70
     1
102
RTVSPropertyOp28
 70
     1
102
RTVSPropertyOp29
 70
     1
102
RTVSPropertyOp30
 70
     1
102
RTVSPropertyOp31
 70
     1
102
RTVSPropertyOp32
 70
     1
102
RTVSPropertyOp33
 70
     1
102
RTVSPropertyOp34
 70
     1
102
RTVSPropertyOp35
 70
     1
102
RTVSPropertyOp36
 70
     1
102
RTVSPropertyOp37
 70
     1
102
RTVSPropertyOp38
 70
     1
102
RTVSPropertyOp39
 70
     1
102
RTVSPropertyOp40
 70
     1
102
RTVSPropertyOp41
 70
     1
102
RTVSPropertyOp42
 70
     1
102
RTVSPropertyOp43
 70
     1
102
RTVSPropertyOp44
 70
     1
102
RTVSPropertyOp45
 70
     1
102
RTVSPropertyOp46
 70
     1
102
RTVSPropertyOp47
 70
     1
102
RTVSPropertyOp48
 70
     1
102
RTVSPropertyOp49
 70
     1
102
RTVSPropertyOp50
 70
     1
102
RTVSPropertyOp51
 70
     0
102
RTVSPropertyOp52
 70
     0
102
RTVSPropertyOp53
 70
     1
102
RTVSPropertyOp54
 70
     1
102
RTVSPropertyOp55
 70
     1
102
RTVSPropertyOp56
 70
     1
102
RTVSPropertyOp57
 70
     1
102
RTVSPropertyOp58
 70
     1
102
RTVSPropertyOp59
 70
     1
102
RTVSPropertyOp60
 70
     1
102
RTVSPropertyOp61
 70
     1
102
RTVSPropertyOp62
 70
     1
  0
XRECORD
  5
C969
102
{ACAD_REACTORS
330
C968
102
}
330
C968
100
AcDbXrecord
280
     1
102
RTVSPost2010Prop28
280
     0
102
RTVSPost2010PropOp28
 70
     1
102
RTVSPost2010Prop29
280
     1
102
RTVSPost2010PropOp29
 70
     1
102
RTVSPost2010Prop30
280
     1
102
RTVSPost2010PropOp30
 70
     1
102
RTVSPost2010Prop31
280
     0
102
RTVSPost2010PropOp31
 70
     1
102
RTVSPost2010Prop32
280
     0
102
RTVSPost2010PropOp32
 70
     1
102
RTVSPost2010Prop33
280
     0
102
RTVSPost2010PropOp33
 70
     1
102
RTVSPost2010Prop34
280
     0
102
RTVSPost2010PropOp34
 70
     1
102
RTVSPost2010Prop35
280
     0
102
RTVSPost2010PropOp35
 70
     1
102
RTVSPost2010Prop36
280
     0
102
RTVSPost2010PropOp36
 70
     1
102
RTVSPost2010Prop37
 90
       50
102
RTVSPost2010PropOp37
 70
     1
102
RTVSPost2010Prop38
140
0.0
102
RTVSPost2010PropOp38
 70
     1
102
RTVSPost2010Prop39
140
1.0
102
RTVSPost2010PropOp39
 70
     1
102
RTVSPost2010Prop40
 90
        0
102
RTVSPost2010PropOp40
 70
     1
102
RTVSPost2010Prop41ColorIndex
 90
       18
102
RTVSPost2010Prop41ColorRGB
 90
-16777216
102
RTVSPost2010PropOp41
 70
     1
102
RTVSPost2010Prop42
 90
       50
102
RTVSPost2010PropOp42
 70
     1
102
RTVSPost2010Prop43
 90
        3
102
RTVSPost2010PropOp43
 70
     1
102
RTVSPost2010Prop44ColorIndex
 90
        5
102
RTVSPost2010Prop44ColorRGB
 90
      255
102
RTVSPost2010PropOp44
 70
     1
102
RTVSPost2010Prop45
280
     0
102
RTVSPost2010PropOp45
 70
     1
102
RTVSPost2010Prop46
 90
       50
102
RTVSPost2010PropOp46
 70
     1
102
RTVSPost2010Prop47
 90
       50
102
RTVSPost2010PropOp47
 70
     1
102
RTVSPost2010Prop48
 90
       50
102
RTVSPost2010PropOp48
 70
     1
102
RTVSPost2010Prop49
280
     0
102
RTVSPost2010PropOp49
 70
     1
102
RTVSPost2010Prop50
 90
       50
102
RTVSPost2010PropOp50
 70
     1
102
RTVSPost2010Prop51ColorIndex
 90
      256
102
RTVSPost2010Prop51ColorRGB
 90
-16777216
102
RTVSPost2010PropOp51
 70
     0
102
RTVSPost2010Prop52
140
1.0
102
RTVSPost2010PropOp52
 70
     0
102
RTVSPost2010Prop53
 90
        2
102
RTVSPost2010PropOp53
 70
     1
102
RTVSPost2010Prop54
  1
strokes_ogs.tif
102
RTVSPost2010PropOp54
 70
     1
102
RTVSPost2010Prop55
280
     0
102
RTVSPost2010PropOp55
 70
     1
102
RTVSPost2010Prop56
140
1.0
102
RTVSPost2010PropOp56
 70
     1
102
RTVSPost2010Prop57
140
1.0
102
RTVSPost2010PropOp57
 70
     1
102
RTVSPropertyOp0
 70
     1
102
RTVSPropertyOp1
 70
     1
102
RTVSPropertyOp2
 70
     1
102
RTVSPropertyOp3
 70
     1
102
RTVSPropertyOp4
 70
     1
102
RTVSPropertyOp5
 70
     1
102
RTVSPropertyOp6
 70
     1
102
RTVSPropertyOp7
 70
     1
102
RTVSPropertyOp8
 70
     1
102
RTVSPropertyOp9
 70
     1
102
RTVSPropertyOp10
 70
     1
102
RTVSPropertyOp11
 70
     1
102
RTVSPropertyOp12
 70
     1
102
RTVSPropertyOp13
 70
     1
102
RTVSPropertyOp14
 70
     1
102
RTVSPropertyOp15
 70
     1
102
RTVSPropertyOp16
 70
     1
102
RTVSPropertyOp17
 70
     1
102
RTVSPropertyOp18
 70
     1
102
RTVSPropertyOp19
 70
     1
102
RTVSPropertyOp20
 70
     1
102
RTVSPropertyOp21
 70
     1
102
RTVSPropertyOp22
 70
     1
102
RTVSPropertyOp23
 70
     1
102
RTVSPropertyOp24
 70
     1
102
RTVSPropertyOp25
 70
     1
102
RTVSPropertyOp26
 70
     1
102
RTVSPropertyOp27
 70
     1
102
RTVSPropertyOp28
 70
     1
102
RTVSPropertyOp29
 70
     1
102
RTVSPropertyOp30
 70
     1
102
RTVSPropertyOp31
 70
     1
102
RTVSPropertyOp32
 70
     1
102
RTVSPropertyOp33
 70
     1
102
RTVSPropertyOp34
 70
     1
102
RTVSPropertyOp35
 70
     1
102
RTVSPropertyOp36
 70
     1
102
RTVSPropertyOp37
 70
     1
102
RTVSPropertyOp38
 70
     1
102
RTVSPropertyOp39
 70
     1
102
RTVSPropertyOp40
 70
     1
102
RTVSPropertyOp41
 70
     1
102
RTVSPropertyOp42
 70
     1
102
RTVSPropertyOp43
 70
     1
102
RTVSPropertyOp44
 70
     1
102
RTVSPropertyOp45
 70
     1
102
RTVSPropertyOp46
 70
     1
102
RTVSPropertyOp47
 70
     1
102
RTVSPropertyOp48
 70
     1
102
RTVSPropertyOp49
 70
     1
102
RTVSPropertyOp50
 70
     1
102
RTVSPropertyOp51
 70
     0
102
RTVSPropertyOp52
 70
     0
102
RTVSPropertyOp53
 70
     1
102
RTVSPropertyOp54
 70
     1
102
RTVSPropertyOp55
 70
     1
102
RTVSPropertyOp56
 70
     1
102
RTVSPropertyOp57
 70
     1
102
RTVSPropertyOp58
 70
     1
102
RTVSPropertyOp59
 70
     1
102
RTVSPropertyOp60
 70
     1
102
RTVSPropertyOp61
 70
     1
102
RTVSPropertyOp62
 70
     1
  0
XRECORD
  5
C96D
102
{ACAD_REACTORS
330
C96C
102
}
330
C96C
100
AcDbXrecord
280
     1
102
RTVSPost2010Prop28
280
     0
102
RTVSPost2010PropOp28
 70
     1
102
RTVSPost2010Prop29
280
     1
102
RTVSPost2010PropOp29
 70
     1
102
RTVSPost2010Prop30
280
     1
102
RTVSPost2010PropOp30
 70
     1
102
RTVSPost2010Prop31
280
     0
102
RTVSPost2010PropOp31
 70
     1
102
RTVSPost2010Prop32
280
     0
102
RTVSPost2010PropOp32
 70
     1
102
RTVSPost2010Prop33
280
     0
102
RTVSPost2010PropOp33
 70
     1
102
RTVSPost2010Prop34
280
     0
102
RTVSPost2010PropOp34
 70
     1
102
RTVSPost2010Prop35
280
     0
102
RTVSPost2010PropOp35
 70
     1
102
RTVSPost2010Prop36
280
     0
102
RTVSPost2010PropOp36
 70
     1
102
RTVSPost2010Prop37
 90
       50
102
RTVSPost2010PropOp37
 70
     1
102
RTVSPost2010Prop38
140
0.0
102
RTVSPost2010PropOp38
 70
     1
102
RTVSPost2010Prop39
140
1.0
102
RTVSPost2010PropOp39
 70
     1
102
RTVSPost2010Prop40
 90
        0
102
RTVSPost2010PropOp40
 70
     1
102
RTVSPost2010Prop41ColorIndex
 90
       18
102
RTVSPost2010Prop41ColorRGB
 90
-16777216
102
RTVSPost2010PropOp41
 70
     1
102
RTVSPost2010Prop42
 90
       50
102
RTVSPost2010PropOp42
 70
     1
102
RTVSPost2010Prop43
 90
        3
102
RTVSPost2010PropOp43
 70
     1
102
RTVSPost2010Prop44ColorIndex
 90
        5
102
RTVSPost2010Prop44ColorRGB
 90
      255
102
RTVSPost2010PropOp44
 70
     1
102
RTVSPost2010Prop45
280
     0
102
RTVSPost2010PropOp45
 70
     1
102
RTVSPost2010Prop46
 90
       50
102
RTVSPost2010PropOp46
 70
     1
102
RTVSPost2010Prop47
 90
       50
102
RTVSPost2010PropOp47
 70
     1
102
RTVSPost2010Prop48
 90
       50
102
RTVSPost2010PropOp48
 70
     1
102
RTVSPost2010Prop49
280
     0
102
RTVSPost2010PropOp49
 70
     1
102
RTVSPost2010Prop50
 90
       50
102
RTVSPost2010PropOp50
 70
     1
102
RTVSPost2010Prop51ColorIndex
 90
      256
102
RTVSPost2010Prop51ColorRGB
 90
-16777216
102
RTVSPost2010PropOp51
 70
     0
102
RTVSPost2010Prop52
140
1.0
102
RTVSPost2010PropOp52
 70
     0
102
RTVSPost2010Prop53
 90
        2
102
RTVSPost2010PropOp53
 70
     1
102
RTVSPost2010Prop54
  1
strokes_ogs.tif
102
RTVSPost2010PropOp54
 70
     1
102
RTVSPost2010Prop55
280
     0
102
RTVSPost2010PropOp55
 70
     1
102
RTVSPost2010Prop56
140
1.0
102
RTVSPost2010PropOp56
 70
     1
102
RTVSPost2010Prop57
140
1.0
102
RTVSPost2010PropOp57
 70
     1
102
RTVSPropertyOp0
 70
     1
102
RTVSPropertyOp1
 70
     1
102
RTVSPropertyOp2
 70
     1
102
RTVSPropertyOp3
 70
     1
102
RTVSPropertyOp4
 70
     1
102
RTVSPropertyOp5
 70
     1
102
RTVSPropertyOp6
 70
     1
102
RTVSPropertyOp7
 70
     1
102
RTVSPropertyOp8
 70
     1
102
RTVSPropertyOp9
 70
     1
102
RTVSPropertyOp10
 70
     1
102
RTVSPropertyOp11
 70
     1
102
RTVSPropertyOp12
 70
     1
102
RTVSPropertyOp13
 70
     1
102
RTVSPropertyOp14
 70
     1
102
RTVSPropertyOp15
 70
     1
102
RTVSPropertyOp16
 70
     1
102
RTVSPropertyOp17
 70
     1
102
RTVSPropertyOp18
 70
     1
102
RTVSPropertyOp19
 70
     1
102
RTVSPropertyOp20
 70
     1
102
RTVSPropertyOp21
 70
     1
102
RTVSPropertyOp22
 70
     1
102
RTVSPropertyOp23
 70
     1
102
RTVSPropertyOp24
 70
     1
102
RTVSPropertyOp25
 70
     1
102
RTVSPropertyOp26
 70
     1
102
RTVSPropertyOp27
 70
     1
102
RTVSPropertyOp28
 70
     1
102
RTVSPropertyOp29
 70
     1
102
RTVSPropertyOp30
 70
     1
102
RTVSPropertyOp31
 70
     1
102
RTVSPropertyOp32
 70
     1
102
RTVSPropertyOp33
 70
     1
102
RTVSPropertyOp34
 70
     1
102
RTVSPropertyOp35
 70
     1
102
RTVSPropertyOp36
 70
     1
102
RTVSPropertyOp37
 70
     1
102
RTVSPropertyOp38
 70
     1
102
RTVSPropertyOp39
 70
     1
102
RTVSPropertyOp40
 70
     1
102
RTVSPropertyOp41
 70
     1
102
RTVSPropertyOp42
 70
     1
102
RTVSPropertyOp43
 70
     1
102
RTVSPropertyOp44
 70
     1
102
RTVSPropertyOp45
 70
     1
102
RTVSPropertyOp46
 70
     1
102
RTVSPropertyOp47
 70
     1
102
RTVSPropertyOp48
 70
     1
102
RTVSPropertyOp49
 70
     1
102
RTVSPropertyOp50
 70
     1
102
RTVSPropertyOp51
 70
     0
102
RTVSPropertyOp52
 70
     0
102
RTVSPropertyOp53
 70
     1
102
RTVSPropertyOp54
 70
     1
102
RTVSPropertyOp55
 70
     1
102
RTVSPropertyOp56
 70
     1
102
RTVSPropertyOp57
 70
     1
102
RTVSPropertyOp58
 70
     1
102
RTVSPropertyOp59
 70
     1
102
RTVSPropertyOp60
 70
     1
102
RTVSPropertyOp61
 70
     1
102
RTVSPropertyOp62
 70
     1
  0
XRECORD
  5
C987
102
{ACAD_REACTORS
330
C986
102
}
330
C986
100
AcDbXrecord
280
     1
102
RTVSPost2010Prop28
280
     0
102
RTVSPost2010PropOp28
 70
     1
102
RTVSPost2010Prop29
280
     1
102
RTVSPost2010PropOp29
 70
     1
102
RTVSPost2010Prop30
280
     1
102
RTVSPost2010PropOp30
 70
     1
102
RTVSPost2010Prop31
280
     0
102
RTVSPost2010PropOp31
 70
     1
102
RTVSPost2010Prop32
280
     0
102
RTVSPost2010PropOp32
 70
     1
102
RTVSPost2010Prop33
280
     0
102
RTVSPost2010PropOp33
 70
     1
102
RTVSPost2010Prop34
280
     0
102
RTVSPost2010PropOp34
 70
     1
102
RTVSPost2010Prop35
280
     0
102
RTVSPost2010PropOp35
 70
     1
102
RTVSPost2010Prop36
280
     0
102
RTVSPost2010PropOp36
 70
     1
102
RTVSPost2010Prop37
 90
       50
102
RTVSPost2010PropOp37
 70
     0
102
RTVSPost2010Prop38
140
0.0
102
RTVSPost2010PropOp38
 70
     0
102
RTVSPost2010Prop39
140
1.0
102
RTVSPost2010PropOp39
 70
     0
102
RTVSPost2010Prop40
 90
        0
102
RTVSPost2010PropOp40
 70
     0
102
RTVSPost2010Prop41ColorIndex
 90
       18
102
RTVSPost2010Prop41ColorRGB
 90
-16777216
102
RTVSPost2010PropOp41
 70
     0
102
RTVSPost2010Prop42
 90
       50
102
RTVSPost2010PropOp42
 70
     0
102
RTVSPost2010Prop43
 90
        3
102
RTVSPost2010PropOp43
 70
     0
102
RTVSPost2010Prop44ColorIndex
 90
        5
102
RTVSPost2010Prop44ColorRGB
 90
      255
102
RTVSPost2010PropOp44
 70
     0
102
RTVSPost2010Prop45
280
     0
102
RTVSPost2010PropOp45
 70
     1
102
RTVSPost2010Prop46
 90
       50
102
RTVSPost2010PropOp46
 70
     0
102
RTVSPost2010Prop47
 90
       50
102
RTVSPost2010PropOp47
 70
     0
102
RTVSPost2010Prop48
 90
       50
102
RTVSPost2010PropOp48
 70
     0
102
RTVSPost2010Prop49
280
     0
102
RTVSPost2010PropOp49
 70
     1
102
RTVSPost2010Prop50
 90
       50
102
RTVSPost2010PropOp50
 70
     0
102
RTVSPost2010Prop51ColorIndex
 90
      256
102
RTVSPost2010Prop51ColorRGB
 90
-16777216
102
RTVSPost2010PropOp51
 70
     0
102
RTVSPost2010Prop52
140
1.0
102
RTVSPost2010PropOp52
 70
     0
102
RTVSPost2010Prop53
 90
        2
102
RTVSPost2010PropOp53
 70
     0
102
RTVSPost2010Prop54
  1
strokes_ogs.tif
102
RTVSPost2010PropOp54
 70
     0
102
RTVSPost2010Prop55
280
     0
102
RTVSPost2010PropOp55
 70
     1
102
RTVSPost2010Prop56
140
1.0
102
RTVSPost2010PropOp56
 70
     0
102
RTVSPost2010Prop57
140
1.0
102
RTVSPost2010PropOp57
 70
     0
102
RTVSPropertyOp0
 70
     0
102
RTVSPropertyOp1
 70
     0
102
RTVSPropertyOp2
 70
     0
102
RTVSPropertyOp3
 70
     0
102
RTVSPropertyOp4
 70
     0
102
RTVSPropertyOp5
 70
     0
102
RTVSPropertyOp6
 70
     0
102
RTVSPropertyOp7
 70
     0
102
RTVSPropertyOp8
 70
     0
102
RTVSPropertyOp9
 70
     0
102
RTVSPropertyOp10
 70
     0
102
RTVSPropertyOp11
 70
     0
102
RTVSPropertyOp12
 70
     0
102
RTVSPropertyOp13
 70
     0
102
RTVSPropertyOp14
 70
     2
102
RTVSPropertyOp15
 70
     0
102
RTVSPropertyOp16
 70
     0
102
RTVSPropertyOp17
 70
     0
102
RTVSPropertyOp18
 70
     0
102
RTVSPropertyOp19
 70
     0
102
RTVSPropertyOp20
 70
     0
102
RTVSPropertyOp21
 70
     0
102
RTVSPropertyOp22
 70
     0
102
RTVSPropertyOp23
 70
     0
102
RTVSPropertyOp24
 70
     0
102
RTVSPropertyOp25
 70
     0
102
RTVSPropertyOp26
 70
     0
102
RTVSPropertyOp27
 70
     0
102
RTVSPropertyOp28
 70
     1
102
RTVSPropertyOp29
 70
     1
102
RTVSPropertyOp30
 70
     1
102
RTVSPropertyOp31
 70
     1
102
RTVSPropertyOp32
 70
     1
102
RTVSPropertyOp33
 70
     1
102
RTVSPropertyOp34
 70
     1
102
RTVSPropertyOp35
 70
     1
102
RTVSPropertyOp36
 70
     1
102
RTVSPropertyOp37
 70
     0
102
RTVSPropertyOp38
 70
     0
102
RTVSPropertyOp39
 70
     0
102
RTVSPropertyOp40
 70
     0
102
RTVSPropertyOp41
 70
     0
102
RTVSPropertyOp42
 70
     0
102
RTVSPropertyOp43
 70
     0
102
RTVSPropertyOp44
 70
     0
102
RTVSPropertyOp45
 70
     1
102
RTVSPropertyOp46
 70
     0
102
RTVSPropertyOp47
 70
     0
102
RTVSPropertyOp48
 70
     0
102
RTVSPropertyOp49
 70
     1
102
RTVSPropertyOp50
 70
     0
102
RTVSPropertyOp51
 70
     0
102
RTVSPropertyOp52
 70
     0
102
RTVSPropertyOp53
 70
     0
102
RTVSPropertyOp54
 70
     0
102
RTVSPropertyOp55
 70
     1
102
RTVSPropertyOp56
 70
     0
102
RTVSPropertyOp57
 70
     0
102
RTVSPropertyOp58
 70
     1
102
RTVSPropertyOp59
 70
     1
102
RTVSPropertyOp60
 70
     1
102
RTVSPropertyOp61
 70
     1
102
RTVSPropertyOp62
 70
     1
  0
XRECORD
  5
C975
102
{ACAD_REACTORS
330
C974
102
}
330
C974
100
AcDbXrecord
280
     1
102
RTVSPost2010Prop28
280
     0
102
RTVSPost2010PropOp28
 70
     1
102
RTVSPost2010Prop29
280
     1
102
RTVSPost2010PropOp29
 70
     1
102
RTVSPost2010Prop30
280
     1
102
RTVSPost2010PropOp30
 70
     1
102
RTVSPost2010Prop31
280
     0
102
RTVSPost2010PropOp31
 70
     1
102
RTVSPost2010Prop32
280
     0
102
RTVSPost2010PropOp32
 70
     1
102
RTVSPost2010Prop33
280
     0
102
RTVSPost2010PropOp33
 70
     1
102
RTVSPost2010Prop34
280
     0
102
RTVSPost2010PropOp34
 70
     1
102
RTVSPost2010Prop35
280
     0
102
RTVSPost2010PropOp35
 70
     1
102
RTVSPost2010Prop36
280
     0
102
RTVSPost2010PropOp36
 70
     1
102
RTVSPost2010Prop37
 90
       50
102
RTVSPost2010PropOp37
 70
     1
102
RTVSPost2010Prop38
140
0.0
102
RTVSPost2010PropOp38
 70
     1
102
RTVSPost2010Prop39
140
1.0
102
RTVSPost2010PropOp39
 70
     1
102
RTVSPost2010Prop40
 90
        0
102
RTVSPost2010PropOp40
 70
     1
102
RTVSPost2010Prop41ColorIndex
 90
       18
102
RTVSPost2010Prop41ColorRGB
 90
-16777216
102
RTVSPost2010PropOp41
 70
     1
102
RTVSPost2010Prop42
 90
       50
102
RTVSPost2010PropOp42
 70
     1
102
RTVSPost2010Prop43
 90
        3
102
RTVSPost2010PropOp43
 70
     1
102
RTVSPost2010Prop44ColorIndex
 90
        5
102
RTVSPost2010Prop44ColorRGB
 90
      255
102
RTVSPost2010PropOp44
 70
     1
102
RTVSPost2010Prop45
280
     0
102
RTVSPost2010PropOp45
 70
     1
102
RTVSPost2010Prop46
 90
       50
102
RTVSPost2010PropOp46
 70
     1
102
RTVSPost2010Prop47
 90
       50
102
RTVSPost2010PropOp47
 70
     1
102
RTVSPost2010Prop48
 90
       50
102
RTVSPost2010PropOp48
 70
     1
102
RTVSPost2010Prop49
280
     0
102
RTVSPost2010PropOp49
 70
     1
102
RTVSPost2010Prop50
 90
       50
102
RTVSPost2010PropOp50
 70
     1
102
RTVSPost2010Prop51ColorIndex
 90
      256
102
RTVSPost2010Prop51ColorRGB
 90
-16777216
102
RTVSPost2010PropOp51
 70
     0
102
RTVSPost2010Prop52
140
1.0
102
RTVSPost2010PropOp52
 70
     0
102
RTVSPost2010Prop53
 90
        2
102
RTVSPost2010PropOp53
 70
     1
102
RTVSPost2010Prop54
  1
strokes_ogs.tif
102
RTVSPost2010PropOp54
 70
     1
102
RTVSPost2010Prop55
280
     0
102
RTVSPost2010PropOp55
 70
     1
102
RTVSPost2010Prop56
140
1.0
102
RTVSPost2010PropOp56
 70
     1
102
RTVSPost2010Prop57
140
1.0
102
RTVSPost2010PropOp57
 70
     1
102
RTVSPropertyOp0
 70
     1
102
RTVSPropertyOp1
 70
     1
102
RTVSPropertyOp2
 70
     1
102
RTVSPropertyOp3
 70
     1
102
RTVSPropertyOp4
 70
     1
102
RTVSPropertyOp5
 70
     1
102
RTVSPropertyOp6
 70
     1
102
RTVSPropertyOp7
 70
     1
102
RTVSPropertyOp8
 70
     1
102
RTVSPropertyOp9
 70
     1
102
RTVSPropertyOp10
 70
     1
102
RTVSPropertyOp11
 70
     1
102
RTVSPropertyOp12
 70
     1
102
RTVSPropertyOp13
 70
     1
102
RTVSPropertyOp14
 70
     1
102
RTVSPropertyOp15
 70
     1
102
RTVSPropertyOp16
 70
     1
102
RTVSPropertyOp17
 70
     1
102
RTVSPropertyOp18
 70
     1
102
RTVSPropertyOp19
 70
     1
102
RTVSPropertyOp20
 70
     1
102
RTVSPropertyOp21
 70
     1
102
RTVSPropertyOp22
 70
     1
102
RTVSPropertyOp23
 70
     1
102
RTVSPropertyOp24
 70
     1
102
RTVSPropertyOp25
 70
     1
102
RTVSPropertyOp26
 70
     1
102
RTVSPropertyOp27
 70
     1
102
RTVSPropertyOp28
 70
     1
102
RTVSPropertyOp29
 70
     1
102
RTVSPropertyOp30
 70
     1
102
RTVSPropertyOp31
 70
     1
102
RTVSPropertyOp32
 70
     1
102
RTVSPropertyOp33
 70
     1
102
RTVSPropertyOp34
 70
     1
102
RTVSPropertyOp35
 70
     1
102
RTVSPropertyOp36
 70
     1
102
RTVSPropertyOp37
 70
     1
102
RTVSPropertyOp38
 70
     1
102
RTVSPropertyOp39
 70
     1
102
RTVSPropertyOp40
 70
     1
102
RTVSPropertyOp41
 70
     1
102
RTVSPropertyOp42
 70
     1
102
RTVSPropertyOp43
 70
     1
102
RTVSPropertyOp44
 70
     1
102
RTVSPropertyOp45
 70
     1
102
RTVSPropertyOp46
 70
     1
102
RTVSPropertyOp47
 70
     1
102
RTVSPropertyOp48
 70
     1
102
RTVSPropertyOp49
 70
     1
102
RTVSPropertyOp50
 70
     1
102
RTVSPropertyOp51
 70
     0
102
RTVSPropertyOp52
 70
     0
102
RTVSPropertyOp53
 70
     1
102
RTVSPropertyOp54
 70
     1
102
RTVSPropertyOp55
 70
     1
102
RTVSPropertyOp56
 70
     1
102
RTVSPropertyOp57
 70
     1
102
RTVSPropertyOp58
 70
     1
102
RTVSPropertyOp59
 70
     1
102
RTVSPropertyOp60
 70
     1
102
RTVSPropertyOp61
 70
     1
102
RTVSPropertyOp62
 70
     1
  0
XRECORD
  5
C959
102
{ACAD_REACTORS
330
C958
102
}
330
C958
100
AcDbXrecord
280
     1
102
RTVSPost2010Prop28
280
     0
102
RTVSPost2010PropOp28
 70
     1
102
RTVSPost2010Prop29
280
     1
102
RTVSPost2010PropOp29
 70
     1
102
RTVSPost2010Prop30
280
     1
102
RTVSPost2010PropOp30
 70
     1
102
RTVSPost2010Prop31
280
     0
102
RTVSPost2010PropOp31
 70
     1
102
RTVSPost2010Prop32
280
     0
102
RTVSPost2010PropOp32
 70
     1
102
RTVSPost2010Prop33
280
     0
102
RTVSPost2010PropOp33
 70
     1
102
RTVSPost2010Prop34
280
     0
102
RTVSPost2010PropOp34
 70
     1
102
RTVSPost2010Prop35
280
     0
102
RTVSPost2010PropOp35
 70
     1
102
RTVSPost2010Prop36
280
     0
102
RTVSPost2010PropOp36
 70
     1
102
RTVSPost2010Prop37
 90
       50
102
RTVSPost2010PropOp37
 70
     1
102
RTVSPost2010Prop38
140
0.0
102
RTVSPost2010PropOp38
 70
     1
102
RTVSPost2010Prop39
140
1.0
102
RTVSPost2010PropOp39
 70
     1
102
RTVSPost2010Prop40
 90
        0
102
RTVSPost2010PropOp40
 70
     1
102
RTVSPost2010Prop41ColorIndex
 90
       18
102
RTVSPost2010Prop41ColorRGB
 90
-16777216
102
RTVSPost2010PropOp41
 70
     1
102
RTVSPost2010Prop42
 90
       50
102
RTVSPost2010PropOp42
 70
     1
102
RTVSPost2010Prop43
 90
        3
102
RTVSPost2010PropOp43
 70
     1
102
RTVSPost2010Prop44ColorIndex
 90
        5
102
RTVSPost2010Prop44ColorRGB
 90
      255
102
RTVSPost2010PropOp44
 70
     1
102
RTVSPost2010Prop45
280
     0
102
RTVSPost2010PropOp45
 70
     1
102
RTVSPost2010Prop46
 90
       50
102
RTVSPost2010PropOp46
 70
     1
102
RTVSPost2010Prop47
 90
       50
102
RTVSPost2010PropOp47
 70
     1
102
RTVSPost2010Prop48
 90
       50
102
RTVSPost2010PropOp48
 70
     1
102
RTVSPost2010Prop49
280
     0
102
RTVSPost2010PropOp49
 70
     1
102
RTVSPost2010Prop50
 90
       50
102
RTVSPost2010PropOp50
 70
     1
102
RTVSPost2010Prop51ColorIndex
 90
      256
102
RTVSPost2010Prop51ColorRGB
 90
-16777216
102
RTVSPost2010PropOp51
 70
     0
102
RTVSPost2010Prop52
140
1.0
102
RTVSPost2010PropOp52
 70
     0
102
RTVSPost2010Prop53
 90
        2
102
RTVSPost2010PropOp53
 70
     1
102
RTVSPost2010Prop54
  1
strokes_ogs.tif
102
RTVSPost2010PropOp54
 70
     1
102
RTVSPost2010Prop55
280
     0
102
RTVSPost2010PropOp55
 70
     1
102
RTVSPost2010Prop56
140
1.0
102
RTVSPost2010PropOp56
 70
     1
102
RTVSPost2010Prop57
140
1.0
102
RTVSPost2010PropOp57
 70
     1
102
RTVSPropertyOp0
 70
     1
102
RTVSPropertyOp1
 70
     1
102
RTVSPropertyOp2
 70
     1
102
RTVSPropertyOp3
 70
     1
102
RTVSPropertyOp4
 70
     1
102
RTVSPropertyOp5
 70
     1
102
RTVSPropertyOp6
 70
     1
102
RTVSPropertyOp7
 70
     1
102
RTVSPropertyOp8
 70
     1
102
RTVSPropertyOp9
 70
     1
102
RTVSPropertyOp10
 70
     1
102
RTVSPropertyOp11
 70
     1
102
RTVSPropertyOp12
 70
     1
102
RTVSPropertyOp13
 70
     1
102
RTVSPropertyOp14
 70
     1
102
RTVSPropertyOp15
 70
     1
102
RTVSPropertyOp16
 70
     1
102
RTVSPropertyOp17
 70
     1
102
RTVSPropertyOp18
 70
     1
102
RTVSPropertyOp19
 70
     1
102
RTVSPropertyOp20
 70
     1
102
RTVSPropertyOp21
 70
     1
102
RTVSPropertyOp22
 70
     1
102
RTVSPropertyOp23
 70
     1
102
RTVSPropertyOp24
 70
     1
102
RTVSPropertyOp25
 70
     1
102
RTVSPropertyOp26
 70
     1
102
RTVSPropertyOp27
 70
     1
102
RTVSPropertyOp28
 70
     1
102
RTVSPropertyOp29
 70
     1
102
RTVSPropertyOp30
 70
     1
102
RTVSPropertyOp31
 70
     1
102
RTVSPropertyOp32
 70
     1
102
RTVSPropertyOp33
 70
     1
102
RTVSPropertyOp34
 70
     1
102
RTVSPropertyOp35
 70
     1
102
RTVSPropertyOp36
 70
     1
102
RTVSPropertyOp37
 70
     1
102
RTVSPropertyOp38
 70
     1
102
RTVSPropertyOp39
 70
     1
102
RTVSPropertyOp40
 70
     1
102
RTVSPropertyOp41
 70
     1
102
RTVSPropertyOp42
 70
     1
102
RTVSPropertyOp43
 70
     1
102
RTVSPropertyOp44
 70
     1
102
RTVSPropertyOp45
 70
     1
102
RTVSPropertyOp46
 70
     1
102
RTVSPropertyOp47
 70
     1
102
RTVSPropertyOp48
 70
     1
102
RTVSPropertyOp49
 70
     1
102
RTVSPropertyOp50
 70
     1
102
RTVSPropertyOp51
 70
     0
102
RTVSPropertyOp52
 70
     0
102
RTVSPropertyOp53
 70
     1
102
RTVSPropertyOp54
 70
     1
102
RTVSPropertyOp55
 70
     1
102
RTVSPropertyOp56
 70
     1
102
RTVSPropertyOp57
 70
     1
102
RTVSPropertyOp58
 70
     1
102
RTVSPropertyOp59
 70
     1
102
RTVSPropertyOp60
 70
     1
102
RTVSPropertyOp61
 70
     1
102
RTVSPropertyOp62
 70
     1
  0
XRECORD
  5
C95B
102
{ACAD_REACTORS
330
C95A
102
}
330
C95A
100
AcDbXrecord
280
     1
102
RTVSPost2010Prop28
280
     0
102
RTVSPost2010PropOp28
 70
     1
102
RTVSPost2010Prop29
280
     1
102
RTVSPost2010PropOp29
 70
     1
102
RTVSPost2010Prop30
280
     1
102
RTVSPost2010PropOp30
 70
     1
102
RTVSPost2010Prop31
280
     0
102
RTVSPost2010PropOp31
 70
     1
102
RTVSPost2010Prop32
280
     0
102
RTVSPost2010PropOp32
 70
     1
102
RTVSPost2010Prop33
280
     0
102
RTVSPost2010PropOp33
 70
     1
102
RTVSPost2010Prop34
280
     0
102
RTVSPost2010PropOp34
 70
     1
102
RTVSPost2010Prop35
280
     0
102
RTVSPost2010PropOp35
 70
     1
102
RTVSPost2010Prop36
280
     0
102
RTVSPost2010PropOp36
 70
     1
102
RTVSPost2010Prop37
 90
       50
102
RTVSPost2010PropOp37
 70
     1
102
RTVSPost2010Prop38
140
0.0
102
RTVSPost2010PropOp38
 70
     1
102
RTVSPost2010Prop39
140
1.0
102
RTVSPost2010PropOp39
 70
     1
102
RTVSPost2010Prop40
 90
        0
102
RTVSPost2010PropOp40
 70
     1
102
RTVSPost2010Prop41ColorIndex
 90
       18
102
RTVSPost2010Prop41ColorRGB
 90
-16777216
102
RTVSPost2010PropOp41
 70
     1
102
RTVSPost2010Prop42
 90
       50
102
RTVSPost2010PropOp42
 70
     1
102
RTVSPost2010Prop43
 90
        3
102
RTVSPost2010PropOp43
 70
     1
102
RTVSPost2010Prop44ColorIndex
 90
        5
102
RTVSPost2010Prop44ColorRGB
 90
      255
102
RTVSPost2010PropOp44
 70
     1
102
RTVSPost2010Prop45
280
     0
102
RTVSPost2010PropOp45
 70
     1
102
RTVSPost2010Prop46
 90
       50
102
RTVSPost2010PropOp46
 70
     1
102
RTVSPost2010Prop47
 90
       50
102
RTVSPost2010PropOp47
 70
     1
102
RTVSPost2010Prop48
 90
       50
102
RTVSPost2010PropOp48
 70
     1
102
RTVSPost2010Prop49
280
     0
102
RTVSPost2010PropOp49
 70
     1
102
RTVSPost2010Prop50
 90
       50
102
RTVSPost2010PropOp50
 70
     1
102
RTVSPost2010Prop51ColorIndex
 90
      256
102
RTVSPost2010Prop51ColorRGB
 90
-16777216
102
RTVSPost2010PropOp51
 70
     0
102
RTVSPost2010Prop52
140
1.0
102
RTVSPost2010PropOp52
 70
     0
102
RTVSPost2010Prop53
 90
        2
102
RTVSPost2010PropOp53
 70
     1
102
RTVSPost2010Prop54
  1
strokes_ogs.tif
102
RTVSPost2010PropOp54
 70
     1
102
RTVSPost2010Prop55
280
     0
102
RTVSPost2010PropOp55
 70
     1
102
RTVSPost2010Prop56
140
1.0
102
RTVSPost2010PropOp56
 70
     1
102
RTVSPost2010Prop57
140
1.0
102
RTVSPost2010PropOp57
 70
     1
102
RTVSPropertyOp0
 70
     1
102
RTVSPropertyOp1
 70
     1
102
RTVSPropertyOp2
 70
     1
102
RTVSPropertyOp3
 70
     1
102
RTVSPropertyOp4
 70
     1
102
RTVSPropertyOp5
 70
     1
102
RTVSPropertyOp6
 70
     1
102
RTVSPropertyOp7
 70
     1
102
RTVSPropertyOp8
 70
     1
102
RTVSPropertyOp9
 70
     1
102
RTVSPropertyOp10
 70
     1
102
RTVSPropertyOp11
 70
     1
102
RTVSPropertyOp12
 70
     1
102
RTVSPropertyOp13
 70
     1
102
RTVSPropertyOp14
 70
     1
102
RTVSPropertyOp15
 70
     1
102
RTVSPropertyOp16
 70
     1
102
RTVSPropertyOp17
 70
     1
102
RTVSPropertyOp18
 70
     1
102
RTVSPropertyOp19
 70
     1
102
RTVSPropertyOp20
 70
     1
102
RTVSPropertyOp21
 70
     1
102
RTVSPropertyOp22
 70
     1
102
RTVSPropertyOp23
 70
     1
102
RTVSPropertyOp24
 70
     1
102
RTVSPropertyOp25
 70
     1
102
RTVSPropertyOp26
 70
     1
102
RTVSPropertyOp27
 70
     1
102
RTVSPropertyOp28
 70
     1
102
RTVSPropertyOp29
 70
     1
102
RTVSPropertyOp30
 70
     1
102
RTVSPropertyOp31
 70
     1
102
RTVSPropertyOp32
 70
     1
102
RTVSPropertyOp33
 70
     1
102
RTVSPropertyOp34
 70
     1
102
RTVSPropertyOp35
 70
     1
102
RTVSPropertyOp36
 70
     1
102
RTVSPropertyOp37
 70
     1
102
RTVSPropertyOp38
 70
     1
102
RTVSPropertyOp39
 70
     1
102
RTVSPropertyOp40
 70
     1
102
RTVSPropertyOp41
 70
     1
102
RTVSPropertyOp42
 70
     1
102
RTVSPropertyOp43
 70
     1
102
RTVSPropertyOp44
 70
     1
102
RTVSPropertyOp45
 70
     1
102
RTVSPropertyOp46
 70
     1
102
RTVSPropertyOp47
 70
     1
102
RTVSPropertyOp48
 70
     1
102
RTVSPropertyOp49
 70
     1
102
RTVSPropertyOp50
 70
     1
102
RTVSPropertyOp51
 70
     0
102
RTVSPropertyOp52
 70
     0
102
RTVSPropertyOp53
 70
     1
102
RTVSPropertyOp54
 70
     1
102
RTVSPropertyOp55
 70
     1
102
RTVSPropertyOp56
 70
     1
102
RTVSPropertyOp57
 70
     1
102
RTVSPropertyOp58
 70
     1
102
RTVSPropertyOp59
 70
     1
102
RTVSPropertyOp60
 70
     1
102
RTVSPropertyOp61
 70
     1
102
RTVSPropertyOp62
 70
     1
  0
XRECORD
  5
C95D
102
{ACAD_REACTORS
330
C95C
102
}
330
C95C
100
AcDbXrecord
280
     1
102
RTVSPost2010Prop28
280
     0
102
RTVSPost2010PropOp28
 70
     1
102
RTVSPost2010Prop29
280
     1
102
RTVSPost2010PropOp29
 70
     1
102
RTVSPost2010Prop30
280
     1
102
RTVSPost2010PropOp30
 70
     1
102
RTVSPost2010Prop31
280
     0
102
RTVSPost2010PropOp31
 70
     1
102
RTVSPost2010Prop32
280
     0
102
RTVSPost2010PropOp32
 70
     1
102
RTVSPost2010Prop33
280
     0
102
RTVSPost2010PropOp33
 70
     1
102
RTVSPost2010Prop34
280
     0
102
RTVSPost2010PropOp34
 70
     1
102
RTVSPost2010Prop35
280
     0
102
RTVSPost2010PropOp35
 70
     1
102
RTVSPost2010Prop36
280
     0
102
RTVSPost2010PropOp36
 70
     1
102
RTVSPost2010Prop37
 90
       50
102
RTVSPost2010PropOp37
 70
     1
102
RTVSPost2010Prop38
140
0.0
102
RTVSPost2010PropOp38
 70
     1
102
RTVSPost2010Prop39
140
1.0
102
RTVSPost2010PropOp39
 70
     1
102
RTVSPost2010Prop40
 90
        0
102
RTVSPost2010PropOp40
 70
     1
102
RTVSPost2010Prop41ColorIndex
 90
       18
102
RTVSPost2010Prop41ColorRGB
 90
-16777216
102
RTVSPost2010PropOp41
 70
     1
102
RTVSPost2010Prop42
 90
       50
102
RTVSPost2010PropOp42
 70
     1
102
RTVSPost2010Prop43
 90
        3
102
RTVSPost2010PropOp43
 70
     1
102
RTVSPost2010Prop44ColorIndex
 90
        5
102
RTVSPost2010Prop44ColorRGB
 90
      255
102
RTVSPost2010PropOp44
 70
     1
102
RTVSPost2010Prop45
280
     0
102
RTVSPost2010PropOp45
 70
     1
102
RTVSPost2010Prop46
 90
       50
102
RTVSPost2010PropOp46
 70
     1
102
RTVSPost2010Prop47
 90
       50
102
RTVSPost2010PropOp47
 70
     1
102
RTVSPost2010Prop48
 90
       50
102
RTVSPost2010PropOp48
 70
     1
102
RTVSPost2010Prop49
280
     0
102
RTVSPost2010PropOp49
 70
     1
102
RTVSPost2010Prop50
 90
       50
102
RTVSPost2010PropOp50
 70
     1
102
RTVSPost2010Prop51ColorIndex
 90
      256
102
RTVSPost2010Prop51ColorRGB
 90
-16777216
102
RTVSPost2010PropOp51
 70
     0
102
RTVSPost2010Prop52
140
1.0
102
RTVSPost2010PropOp52
 70
     0
102
RTVSPost2010Prop53
 90
        2
102
RTVSPost2010PropOp53
 70
     1
102
RTVSPost2010Prop54
  1
strokes_ogs.tif
102
RTVSPost2010PropOp54
 70
     1
102
RTVSPost2010Prop55
280
     0
102
RTVSPost2010PropOp55
 70
     1
102
RTVSPost2010Prop56
140
1.0
102
RTVSPost2010PropOp56
 70
     1
102
RTVSPost2010Prop57
140
1.0
102
RTVSPost2010PropOp57
 70
     1
102
RTVSPropertyOp0
 70
     1
102
RTVSPropertyOp1
 70
     1
102
RTVSPropertyOp2
 70
     1
102
RTVSPropertyOp3
 70
     1
102
RTVSPropertyOp4
 70
     1
102
RTVSPropertyOp5
 70
     1
102
RTVSPropertyOp6
 70
     1
102
RTVSPropertyOp7
 70
     1
102
RTVSPropertyOp8
 70
     1
102
RTVSPropertyOp9
 70
     1
102
RTVSPropertyOp10
 70
     1
102
RTVSPropertyOp11
 70
     1
102
RTVSPropertyOp12
 70
     1
102
RTVSPropertyOp13
 70
     1
102
RTVSPropertyOp14
 70
     1
102
RTVSPropertyOp15
 70
     1
102
RTVSPropertyOp16
 70
     1
102
RTVSPropertyOp17
 70
     1
102
RTVSPropertyOp18
 70
     1
102
RTVSPropertyOp19
 70
     1
102
RTVSPropertyOp20
 70
     1
102
RTVSPropertyOp21
 70
     1
102
RTVSPropertyOp22
 70
     1
102
RTVSPropertyOp23
 70
     1
102
RTVSPropertyOp24
 70
     1
102
RTVSPropertyOp25
 70
     1
102
RTVSPropertyOp26
 70
     1
102
RTVSPropertyOp27
 70
     1
102
RTVSPropertyOp28
 70
     1
102
RTVSPropertyOp29
 70
     1
102
RTVSPropertyOp30
 70
     1
102
RTVSPropertyOp31
 70
     1
102
RTVSPropertyOp32
 70
     1
102
RTVSPropertyOp33
 70
     1
102
RTVSPropertyOp34
 70
     1
102
RTVSPropertyOp35
 70
     1
102
RTVSPropertyOp36
 70
     1
102
RTVSPropertyOp37
 70
     1
102
RTVSPropertyOp38
 70
     1
102
RTVSPropertyOp39
 70
     1
102
RTVSPropertyOp40
 70
     1
102
RTVSPropertyOp41
 70
     1
102
RTVSPropertyOp42
 70
     1
102
RTVSPropertyOp43
 70
     1
102
RTVSPropertyOp44
 70
     1
102
RTVSPropertyOp45
 70
     1
102
RTVSPropertyOp46
 70
     1
102
RTVSPropertyOp47
 70
     1
102
RTVSPropertyOp48
 70
     1
102
RTVSPropertyOp49
 70
     1
102
RTVSPropertyOp50
 70
     1
102
RTVSPropertyOp51
 70
     0
102
RTVSPropertyOp52
 70
     0
102
RTVSPropertyOp53
 70
     1
102
RTVSPropertyOp54
 70
     1
102
RTVSPropertyOp55
 70
     1
102
RTVSPropertyOp56
 70
     1
102
RTVSPropertyOp57
 70
     1
102
RTVSPropertyOp58
 70
     1
102
RTVSPropertyOp59
 70
     1
102
RTVSPropertyOp60
 70
     1
102
RTVSPropertyOp61
 70
     1
102
RTVSPropertyOp62
 70
     1
  0
XRECORD
  5
C95F
102
{ACAD_REACTORS
330
C95E
102
}
330
C95E
100
AcDbXrecord
280
     1
102
RTVSPost2010Prop28
280
     0
102
RTVSPost2010PropOp28
 70
     1
102
RTVSPost2010Prop29
280
     1
102
RTVSPost2010PropOp29
 70
     1
102
RTVSPost2010Prop30
280
     1
102
RTVSPost2010PropOp30
 70
     1
102
RTVSPost2010Prop31
280
     0
102
RTVSPost2010PropOp31
 70
     1
102
RTVSPost2010Prop32
280
     0
102
RTVSPost2010PropOp32
 70
     1
102
RTVSPost2010Prop33
280
     0
102
RTVSPost2010PropOp33
 70
     1
102
RTVSPost2010Prop34
280
     0
102
RTVSPost2010PropOp34
 70
     1
102
RTVSPost2010Prop35
280
     0
102
RTVSPost2010PropOp35
 70
     1
102
RTVSPost2010Prop36
280
     0
102
RTVSPost2010PropOp36
 70
     1
102
RTVSPost2010Prop37
 90
       50
102
RTVSPost2010PropOp37
 70
     1
102
RTVSPost2010Prop38
140
0.0
102
RTVSPost2010PropOp38
 70
     1
102
RTVSPost2010Prop39
140
1.0
102
RTVSPost2010PropOp39
 70
     1
102
RTVSPost2010Prop40
 90
        0
102
RTVSPost2010PropOp40
 70
     1
102
RTVSPost2010Prop41ColorIndex
 90
       18
102
RTVSPost2010Prop41ColorRGB
 90
-16777216
102
RTVSPost2010PropOp41
 70
     1
102
RTVSPost2010Prop42
 90
       50
102
RTVSPost2010PropOp42
 70
     1
102
RTVSPost2010Prop43
 90
        3
102
RTVSPost2010PropOp43
 70
     1
102
RTVSPost2010Prop44ColorIndex
 90
        5
102
RTVSPost2010Prop44ColorRGB
 90
      255
102
RTVSPost2010PropOp44
 70
     1
102
RTVSPost2010Prop45
280
     0
102
RTVSPost2010PropOp45
 70
     1
102
RTVSPost2010Prop46
 90
       50
102
RTVSPost2010PropOp46
 70
     1
102
RTVSPost2010Prop47
 90
       50
102
RTVSPost2010PropOp47
 70
     1
102
RTVSPost2010Prop48
 90
       50
102
RTVSPost2010PropOp48
 70
     1
102
RTVSPost2010Prop49
280
     0
102
RTVSPost2010PropOp49
 70
     1
102
RTVSPost2010Prop50
 90
       50
102
RTVSPost2010PropOp50
 70
     1
102
RTVSPost2010Prop51ColorIndex
 90
      256
102
RTVSPost2010Prop51ColorRGB
 90
-16777216
102
RTVSPost2010PropOp51
 70
     0
102
RTVSPost2010Prop52
140
1.0
102
RTVSPost2010PropOp52
 70
     0
102
RTVSPost2010Prop53
 90
        2
102
RTVSPost2010PropOp53
 70
     1
102
RTVSPost2010Prop54
  1
strokes_ogs.tif
102
RTVSPost2010PropOp54
 70
     1
102
RTVSPost2010Prop55
280
     0
102
RTVSPost2010PropOp55
 70
     1
102
RTVSPost2010Prop56
140
1.0
102
RTVSPost2010PropOp56
 70
     1
102
RTVSPost2010Prop57
140
1.0
102
RTVSPost2010PropOp57
 70
     1
102
RTVSPropertyOp0
 70
     1
102
RTVSPropertyOp1
 70
     1
102
RTVSPropertyOp2
 70
     1
102
RTVSPropertyOp3
 70
     1
102
RTVSPropertyOp4
 70
     1
102
RTVSPropertyOp5
 70
     1
102
RTVSPropertyOp6
 70
     1
102
RTVSPropertyOp7
 70
     1
102
RTVSPropertyOp8
 70
     1
102
RTVSPropertyOp9
 70
     1
102
RTVSPropertyOp10
 70
     1
102
RTVSPropertyOp11
 70
     1
102
RTVSPropertyOp12
 70
     1
102
RTVSPropertyOp13
 70
     1
102
RTVSPropertyOp14
 70
     1
102
RTVSPropertyOp15
 70
     1
102
RTVSPropertyOp16
 70
     1
102
RTVSPropertyOp17
 70
     1
102
RTVSPropertyOp18
 70
     1
102
RTVSPropertyOp19
 70
     1
102
RTVSPropertyOp20
 70
     1
102
RTVSPropertyOp21
 70
     1
102
RTVSPropertyOp22
 70
     1
102
RTVSPropertyOp23
 70
     1
102
RTVSPropertyOp24
 70
     1
102
RTVSPropertyOp25
 70
     1
102
RTVSPropertyOp26
 70
     1
102
RTVSPropertyOp27
 70
     1
102
RTVSPropertyOp28
 70
     1
102
RTVSPropertyOp29
 70
     1
102
RTVSPropertyOp30
 70
     1
102
RTVSPropertyOp31
 70
     1
102
RTVSPropertyOp32
 70
     1
102
RTVSPropertyOp33
 70
     1
102
RTVSPropertyOp34
 70
     1
102
RTVSPropertyOp35
 70
     1
102
RTVSPropertyOp36
 70
     1
102
RTVSPropertyOp37
 70
     1
102
RTVSPropertyOp38
 70
     1
102
RTVSPropertyOp39
 70
     1
102
RTVSPropertyOp40
 70
     1
102
RTVSPropertyOp41
 70
     1
102
RTVSPropertyOp42
 70
     1
102
RTVSPropertyOp43
 70
     1
102
RTVSPropertyOp44
 70
     1
102
RTVSPropertyOp45
 70
     1
102
RTVSPropertyOp46
 70
     1
102
RTVSPropertyOp47
 70
     1
102
RTVSPropertyOp48
 70
     1
102
RTVSPropertyOp49
 70
     1
102
RTVSPropertyOp50
 70
     1
102
RTVSPropertyOp51
 70
     0
102
RTVSPropertyOp52
 70
     0
102
RTVSPropertyOp53
 70
     1
102
RTVSPropertyOp54
 70
     1
102
RTVSPropertyOp55
 70
     1
102
RTVSPropertyOp56
 70
     1
102
RTVSPropertyOp57
 70
     1
102
RTVSPropertyOp58
 70
     1
102
RTVSPropertyOp59
 70
     1
102
RTVSPropertyOp60
 70
     1
102
RTVSPropertyOp61
 70
     1
102
RTVSPropertyOp62
 70
     1
  0
XRECORD
  5
C967
102
{ACAD_REACTORS
330
C966
102
}
330
C966
100
AcDbXrecord
280
     1
102
RTVSPost2010Prop28
280
     0
102
RTVSPost2010PropOp28
 70
     1
102
RTVSPost2010Prop29
280
     1
102
RTVSPost2010PropOp29
 70
     1
102
RTVSPost2010Prop30
280
     1
102
RTVSPost2010PropOp30
 70
     1
102
RTVSPost2010Prop31
280
     0
102
RTVSPost2010PropOp31
 70
     1
102
RTVSPost2010Prop32
280
     0
102
RTVSPost2010PropOp32
 70
     1
102
RTVSPost2010Prop33
280
     0
102
RTVSPost2010PropOp33
 70
     1
102
RTVSPost2010Prop34
280
     0
102
RTVSPost2010PropOp34
 70
     1
102
RTVSPost2010Prop35
280
     0
102
RTVSPost2010PropOp35
 70
     1
102
RTVSPost2010Prop36
280
     0
102
RTVSPost2010PropOp36
 70
     1
102
RTVSPost2010Prop37
 90
       50
102
RTVSPost2010PropOp37
 70
     1
102
RTVSPost2010Prop38
140
0.0
102
RTVSPost2010PropOp38
 70
     1
102
RTVSPost2010Prop39
140
1.0
102
RTVSPost2010PropOp39
 70
     1
102
RTVSPost2010Prop40
 90
        0
102
RTVSPost2010PropOp40
 70
     1
102
RTVSPost2010Prop41ColorIndex
 90
       18
102
RTVSPost2010Prop41ColorRGB
 90
-16777216
102
RTVSPost2010PropOp41
 70
     1
102
RTVSPost2010Prop42
 90
       50
102
RTVSPost2010PropOp42
 70
     1
102
RTVSPost2010Prop43
 90
        3
102
RTVSPost2010PropOp43
 70
     1
102
RTVSPost2010Prop44ColorIndex
 90
        5
102
RTVSPost2010Prop44ColorRGB
 90
      255
102
RTVSPost2010PropOp44
 70
     1
102
RTVSPost2010Prop45
280
     0
102
RTVSPost2010PropOp45
 70
     1
102
RTVSPost2010Prop46
 90
       50
102
RTVSPost2010PropOp46
 70
     1
102
RTVSPost2010Prop47
 90
       50
102
RTVSPost2010PropOp47
 70
     1
102
RTVSPost2010Prop48
 90
       50
102
RTVSPost2010PropOp48
 70
     1
102
RTVSPost2010Prop49
280
     0
102
RTVSPost2010PropOp49
 70
     1
102
RTVSPost2010Prop50
 90
       50
102
RTVSPost2010PropOp50
 70
     1
102
RTVSPost2010Prop51ColorIndex
 90
      256
102
RTVSPost2010Prop51ColorRGB
 90
-16777216
102
RTVSPost2010PropOp51
 70
     0
102
RTVSPost2010Prop52
140
1.0
102
RTVSPost2010PropOp52
 70
     0
102
RTVSPost2010Prop53
 90
        2
102
RTVSPost2010PropOp53
 70
     1
102
RTVSPost2010Prop54
  1
strokes_ogs.tif
102
RTVSPost2010PropOp54
 70
     1
102
RTVSPost2010Prop55
280
     0
102
RTVSPost2010PropOp55
 70
     1
102
RTVSPost2010Prop56
140
1.0
102
RTVSPost2010PropOp56
 70
     1
102
RTVSPost2010Prop57
140
1.0
102
RTVSPost2010PropOp57
 70
     1
102
RTVSPropertyOp0
 70
     1
102
RTVSPropertyOp1
 70
     1
102
RTVSPropertyOp2
 70
     1
102
RTVSPropertyOp3
 70
     1
102
RTVSPropertyOp4
 70
     1
102
RTVSPropertyOp5
 70
     1
102
RTVSPropertyOp6
 70
     1
102
RTVSPropertyOp7
 70
     1
102
RTVSPropertyOp8
 70
     1
102
RTVSPropertyOp9
 70
     1
102
RTVSPropertyOp10
 70
     1
102
RTVSPropertyOp11
 70
     1
102
RTVSPropertyOp12
 70
     1
102
RTVSPropertyOp13
 70
     1
102
RTVSPropertyOp14
 70
     1
102
RTVSPropertyOp15
 70
     1
102
RTVSPropertyOp16
 70
     1
102
RTVSPropertyOp17
 70
     1
102
RTVSPropertyOp18
 70
     1
102
RTVSPropertyOp19
 70
     1
102
RTVSPropertyOp20
 70
     1
102
RTVSPropertyOp21
 70
     1
102
RTVSPropertyOp22
 70
     1
102
RTVSPropertyOp23
 70
     1
102
RTVSPropertyOp24
 70
     1
102
RTVSPropertyOp25
 70
     1
102
RTVSPropertyOp26
 70
     1
102
RTVSPropertyOp27
 70
     1
102
RTVSPropertyOp28
 70
     1
102
RTVSPropertyOp29
 70
     1
102
RTVSPropertyOp30
 70
     1
102
RTVSPropertyOp31
 70
     1
102
RTVSPropertyOp32
 70
     1
102
RTVSPropertyOp33
 70
     1
102
RTVSPropertyOp34
 70
     1
102
RTVSPropertyOp35
 70
     1
102
RTVSPropertyOp36
 70
     1
102
RTVSPropertyOp37
 70
     1
102
RTVSPropertyOp38
 70
     1
102
RTVSPropertyOp39
 70
     1
102
RTVSPropertyOp40
 70
     1
102
RTVSPropertyOp41
 70
     1
102
RTVSPropertyOp42
 70
     1
102
RTVSPropertyOp43
 70
     1
102
RTVSPropertyOp44
 70
     1
102
RTVSPropertyOp45
 70
     1
102
RTVSPropertyOp46
 70
     1
102
RTVSPropertyOp47
 70
     1
102
RTVSPropertyOp48
 70
     1
102
RTVSPropertyOp49
 70
     1
102
RTVSPropertyOp50
 70
     1
102
RTVSPropertyOp51
 70
     0
102
RTVSPropertyOp52
 70
     0
102
RTVSPropertyOp53
 70
     1
102
RTVSPropertyOp54
 70
     1
102
RTVSPropertyOp55
 70
     1
102
RTVSPropertyOp56
 70
     1
102
RTVSPropertyOp57
 70
     1
102
RTVSPropertyOp58
 70
     1
102
RTVSPropertyOp59
 70
     1
102
RTVSPropertyOp60
 70
     1
102
RTVSPropertyOp61
 70
     1
102
RTVSPropertyOp62
 70
     1
  0
XRECORD
  5
C983
102
{ACAD_REACTORS
330
C982
102
}
330
C982
100
AcDbXrecord
280
     1
102
RTVSPost2010Prop28
280
     0
102
RTVSPost2010PropOp28
 70
     1
102
RTVSPost2010Prop29
280
     1
102
RTVSPost2010PropOp29
 70
     1
102
RTVSPost2010Prop30
280
     1
102
RTVSPost2010PropOp30
 70
     1
102
RTVSPost2010Prop31
280
     0
102
RTVSPost2010PropOp31
 70
     1
102
RTVSPost2010Prop32
280
     0
102
RTVSPost2010PropOp32
 70
     1
102
RTVSPost2010Prop33
280
     0
102
RTVSPost2010PropOp33
 70
     1
102
RTVSPost2010Prop34
280
     0
102
RTVSPost2010PropOp34
 70
     1
102
RTVSPost2010Prop35
280
     0
102
RTVSPost2010PropOp35
 70
     1
102
RTVSPost2010Prop36
280
     0
102
RTVSPost2010PropOp36
 70
     1
102
RTVSPost2010Prop37
 90
       50
102
RTVSPost2010PropOp37
 70
     0
102
RTVSPost2010Prop38
140
0.0
102
RTVSPost2010PropOp38
 70
     0
102
RTVSPost2010Prop39
140
1.0
102
RTVSPost2010PropOp39
 70
     0
102
RTVSPost2010Prop40
 90
        0
102
RTVSPost2010PropOp40
 70
     0
102
RTVSPost2010Prop41ColorIndex
 90
       18
102
RTVSPost2010Prop41ColorRGB
 90
-16777216
102
RTVSPost2010PropOp41
 70
     0
102
RTVSPost2010Prop42
 90
       50
102
RTVSPost2010PropOp42
 70
     0
102
RTVSPost2010Prop43
 90
        3
102
RTVSPost2010PropOp43
 70
     0
102
RTVSPost2010Prop44ColorIndex
 90
        5
102
RTVSPost2010Prop44ColorRGB
 90
      255
102
RTVSPost2010PropOp44
 70
     0
102
RTVSPost2010Prop45
280
     0
102
RTVSPost2010PropOp45
 70
     1
102
RTVSPost2010Prop46
 90
       50
102
RTVSPost2010PropOp46
 70
     0
102
RTVSPost2010Prop47
 90
       50
102
RTVSPost2010PropOp47
 70
     0
102
RTVSPost2010Prop48
 90
       50
102
RTVSPost2010PropOp48
 70
     0
102
RTVSPost2010Prop49
280
     0
102
RTVSPost2010PropOp49
 70
     1
102
RTVSPost2010Prop50
 90
       50
102
RTVSPost2010PropOp50
 70
     0
102
RTVSPost2010Prop51ColorIndex
 90
      256
102
RTVSPost2010Prop51ColorRGB
 90
-16777216
102
RTVSPost2010PropOp51
 70
     0
102
RTVSPost2010Prop52
140
1.0
102
RTVSPost2010PropOp52
 70
     0
102
RTVSPost2010Prop53
 90
        2
102
RTVSPost2010PropOp53
 70
     0
102
RTVSPost2010Prop54
  1
strokes_ogs.tif
102
RTVSPost2010PropOp54
 70
     0
102
RTVSPost2010Prop55
280
     0
102
RTVSPost2010PropOp55
 70
     1
102
RTVSPost2010Prop56
140
1.0
102
RTVSPost2010PropOp56
 70
     0
102
RTVSPost2010Prop57
140
1.0
102
RTVSPost2010PropOp57
 70
     0
102
RTVSPropertyOp0
 70
     0
102
RTVSPropertyOp1
 70
     0
102
RTVSPropertyOp2
 70
     0
102
RTVSPropertyOp3
 70
     0
102
RTVSPropertyOp4
 70
     0
102
RTVSPropertyOp5
 70
     0
102
RTVSPropertyOp6
 70
     0
102
RTVSPropertyOp7
 70
     0
102
RTVSPropertyOp8
 70
     0
102
RTVSPropertyOp9
 70
     0
102
RTVSPropertyOp10
 70
     0
102
RTVSPropertyOp11
 70
     0
102
RTVSPropertyOp12
 70
     0
102
RTVSPropertyOp13
 70
     0
102
RTVSPropertyOp14
 70
     2
102
RTVSPropertyOp15
 70
     0
102
RTVSPropertyOp16
 70
     0
102
RTVSPropertyOp17
 70
     0
102
RTVSPropertyOp18
 70
     0
102
RTVSPropertyOp19
 70
     0
102
RTVSPropertyOp20
 70
     0
102
RTVSPropertyOp21
 70
     0
102
RTVSPropertyOp22
 70
     0
102
RTVSPropertyOp23
 70
     0
102
RTVSPropertyOp24
 70
     0
102
RTVSPropertyOp25
 70
     0
102
RTVSPropertyOp26
 70
     0
102
RTVSPropertyOp27
 70
     0
102
RTVSPropertyOp28
 70
     1
102
RTVSPropertyOp29
 70
     1
102
RTVSPropertyOp30
 70
     1
102
RTVSPropertyOp31
 70
     1
102
RTVSPropertyOp32
 70
     1
102
RTVSPropertyOp33
 70
     1
102
RTVSPropertyOp34
 70
     1
102
RTVSPropertyOp35
 70
     1
102
RTVSPropertyOp36
 70
     1
102
RTVSPropertyOp37
 70
     0
102
RTVSPropertyOp38
 70
     0
102
RTVSPropertyOp39
 70
     0
102
RTVSPropertyOp40
 70
     0
102
RTVSPropertyOp41
 70
     0
102
RTVSPropertyOp42
 70
     0
102
RTVSPropertyOp43
 70
     0
102
RTVSPropertyOp44
 70
     0
102
RTVSPropertyOp45
 70
     1
102
RTVSPropertyOp46
 70
     0
102
RTVSPropertyOp47
 70
     0
102
RTVSPropertyOp48
 70
     0
102
RTVSPropertyOp49
 70
     1
102
RTVSPropertyOp50
 70
     0
102
RTVSPropertyOp51
 70
     0
102
RTVSPropertyOp52
 70
     0
102
RTVSPropertyOp53
 70
     0
102
RTVSPropertyOp54
 70
     0
102
RTVSPropertyOp55
 70
     1
102
RTVSPropertyOp56
 70
     0
102
RTVSPropertyOp57
 70
     0
102
RTVSPropertyOp58
 70
     1
102
RTVSPropertyOp59
 70
     1
102
RTVSPropertyOp60
 70
     1
102
RTVSPropertyOp61
 70
     1
102
RTVSPropertyOp62
 70
     1
  0
XRECORD
  5
C973
102
{ACAD_REACTORS
330
C972
102
}
330
C972
100
AcDbXrecord
280
     1
102
RTVSPost2010Prop28
280
     0
102
RTVSPost2010PropOp28
 70
     1
102
RTVSPost2010Prop29
280
     1
102
RTVSPost2010PropOp29
 70
     1
102
RTVSPost2010Prop30
280
     1
102
RTVSPost2010PropOp30
 70
     1
102
RTVSPost2010Prop31
280
     0
102
RTVSPost2010PropOp31
 70
     1
102
RTVSPost2010Prop32
280
     0
102
RTVSPost2010PropOp32
 70
     1
102
RTVSPost2010Prop33
280
     0
102
RTVSPost2010PropOp33
 70
     1
102
RTVSPost2010Prop34
280
     0
102
RTVSPost2010PropOp34
 70
     1
102
RTVSPost2010Prop35
280
     0
102
RTVSPost2010PropOp35
 70
     1
102
RTVSPost2010Prop36
280
     0
102
RTVSPost2010PropOp36
 70
     1
102
RTVSPost2010Prop37
 90
       50
102
RTVSPost2010PropOp37
 70
     1
102
RTVSPost2010Prop38
140
0.0
102
RTVSPost2010PropOp38
 70
     1
102
RTVSPost2010Prop39
140
1.0
102
RTVSPost2010PropOp39
 70
     1
102
RTVSPost2010Prop40
 90
        0
102
RTVSPost2010PropOp40
 70
     1
102
RTVSPost2010Prop41ColorIndex
 90
       18
102
RTVSPost2010Prop41ColorRGB
 90
-16777216
102
RTVSPost2010PropOp41
 70
     1
102
RTVSPost2010Prop42
 90
       50
102
RTVSPost2010PropOp42
 70
     1
102
RTVSPost2010Prop43
 90
        3
102
RTVSPost2010PropOp43
 70
     1
102
RTVSPost2010Prop44ColorIndex
 90
        5
102
RTVSPost2010Prop44ColorRGB
 90
      255
102
RTVSPost2010PropOp44
 70
     1
102
RTVSPost2010Prop45
280
     0
102
RTVSPost2010PropOp45
 70
     1
102
RTVSPost2010Prop46
 90
       50
102
RTVSPost2010PropOp46
 70
     1
102
RTVSPost2010Prop47
 90
       50
102
RTVSPost2010PropOp47
 70
     1
102
RTVSPost2010Prop48
 90
       50
102
RTVSPost2010PropOp48
 70
     1
102
RTVSPost2010Prop49
280
     0
102
RTVSPost2010PropOp49
 70
     1
102
RTVSPost2010Prop50
 90
       50
102
RTVSPost2010PropOp50
 70
     1
102
RTVSPost2010Prop51ColorIndex
 90
      256
102
RTVSPost2010Prop51ColorRGB
 90
-16777216
102
RTVSPost2010PropOp51
 70
     0
102
RTVSPost2010Prop52
140
1.0
102
RTVSPost2010PropOp52
 70
     0
102
RTVSPost2010Prop53
 90
        2
102
RTVSPost2010PropOp53
 70
     1
102
RTVSPost2010Prop54
  1
strokes_ogs.tif
102
RTVSPost2010PropOp54
 70
     1
102
RTVSPost2010Prop55
280
     0
102
RTVSPost2010PropOp55
 70
     1
102
RTVSPost2010Prop56
140
1.0
102
RTVSPost2010PropOp56
 70
     1
102
RTVSPost2010Prop57
140
1.0
102
RTVSPost2010PropOp57
 70
     1
102
RTVSPropertyOp0
 70
     1
102
RTVSPropertyOp1
 70
     1
102
RTVSPropertyOp2
 70
     1
102
RTVSPropertyOp3
 70
     1
102
RTVSPropertyOp4
 70
     1
102
RTVSPropertyOp5
 70
     1
102
RTVSPropertyOp6
 70
     1
102
RTVSPropertyOp7
 70
     1
102
RTVSPropertyOp8
 70
     1
102
RTVSPropertyOp9
 70
     1
102
RTVSPropertyOp10
 70
     1
102
RTVSPropertyOp11
 70
     1
102
RTVSPropertyOp12
 70
     1
102
RTVSPropertyOp13
 70
     1
102
RTVSPropertyOp14
 70
     1
102
RTVSPropertyOp15
 70
     1
102
RTVSPropertyOp16
 70
     1
102
RTVSPropertyOp17
 70
     1
102
RTVSPropertyOp18
 70
     1
102
RTVSPropertyOp19
 70
     1
102
RTVSPropertyOp20
 70
     1
102
RTVSPropertyOp21
 70
     1
102
RTVSPropertyOp22
 70
     1
102
RTVSPropertyOp23
 70
     1
102
RTVSPropertyOp24
 70
     1
102
RTVSPropertyOp25
 70
     1
102
RTVSPropertyOp26
 70
     1
102
RTVSPropertyOp27
 70
     1
102
RTVSPropertyOp28
 70
     1
102
RTVSPropertyOp29
 70
     1
102
RTVSPropertyOp30
 70
     1
102
RTVSPropertyOp31
 70
     1
102
RTVSPropertyOp32
 70
     1
102
RTVSPropertyOp33
 70
     1
102
RTVSPropertyOp34
 70
     1
102
RTVSPropertyOp35
 70
     1
102
RTVSPropertyOp36
 70
     1
102
RTVSPropertyOp37
 70
     1
102
RTVSPropertyOp38
 70
     1
102
RTVSPropertyOp39
 70
     1
102
RTVSPropertyOp40
 70
     1
102
RTVSPropertyOp41
 70
     1
102
RTVSPropertyOp42
 70
     1
102
RTVSPropertyOp43
 70
     1
102
RTVSPropertyOp44
 70
     1
102
RTVSPropertyOp45
 70
     1
102
RTVSPropertyOp46
 70
     1
102
RTVSPropertyOp47
 70
     1
102
RTVSPropertyOp48
 70
     1
102
RTVSPropertyOp49
 70
     1
102
RTVSPropertyOp50
 70
     1
102
RTVSPropertyOp51
 70
     0
102
RTVSPropertyOp52
 70
     0
102
RTVSPropertyOp53
 70
     1
102
RTVSPropertyOp54
 70
     1
102
RTVSPropertyOp55
 70
     1
102
RTVSPropertyOp56
 70
     1
102
RTVSPropertyOp57
 70
     1
102
RTVSPropertyOp58
 70
     1
102
RTVSPropertyOp59
 70
     1
102
RTVSPropertyOp60
 70
     1
102
RTVSPropertyOp61
 70
     1
102
RTVSPropertyOp62
 70
     1
  0
XRECORD
  5
C985
102
{ACAD_REACTORS
330
C984
102
}
330
C984
100
AcDbXrecord
280
     1
102
RTVSPost2010Prop28
280
     0
102
RTVSPost2010PropOp28
 70
     1
102
RTVSPost2010Prop29
280
     1
102
RTVSPost2010PropOp29
 70
     1
102
RTVSPost2010Prop30
280
     1
102
RTVSPost2010PropOp30
 70
     1
102
RTVSPost2010Prop31
280
     0
102
RTVSPost2010PropOp31
 70
     1
102
RTVSPost2010Prop32
280
     0
102
RTVSPost2010PropOp32
 70
     1
102
RTVSPost2010Prop33
280
     0
102
RTVSPost2010PropOp33
 70
     1
102
RTVSPost2010Prop34
280
     0
102
RTVSPost2010PropOp34
 70
     1
102
RTVSPost2010Prop35
280
     0
102
RTVSPost2010PropOp35
 70
     1
102
RTVSPost2010Prop36
280
     0
102
RTVSPost2010PropOp36
 70
     1
102
RTVSPost2010Prop37
 90
       50
102
RTVSPost2010PropOp37
 70
     0
102
RTVSPost2010Prop38
140
0.0
102
RTVSPost2010PropOp38
 70
     0
102
RTVSPost2010Prop39
140
1.0
102
RTVSPost2010PropOp39
 70
     0
102
RTVSPost2010Prop40
 90
        0
102
RTVSPost2010PropOp40
 70
     0
102
RTVSPost2010Prop41ColorIndex
 90
       18
102
RTVSPost2010Prop41ColorRGB
 90
-16777216
102
RTVSPost2010PropOp41
 70
     0
102
RTVSPost2010Prop42
 90
       50
102
RTVSPost2010PropOp42
 70
     0
102
RTVSPost2010Prop43
 90
        3
102
RTVSPost2010PropOp43
 70
     0
102
RTVSPost2010Prop44ColorIndex
 90
        5
102
RTVSPost2010Prop44ColorRGB
 90
      255
102
RTVSPost2010PropOp44
 70
     0
102
RTVSPost2010Prop45
280
     0
102
RTVSPost2010PropOp45
 70
     1
102
RTVSPost2010Prop46
 90
       50
102
RTVSPost2010PropOp46
 70
     0
102
RTVSPost2010Prop47
 90
       50
102
RTVSPost2010PropOp47
 70
     0
102
RTVSPost2010Prop48
 90
       50
102
RTVSPost2010PropOp48
 70
     0
102
RTVSPost2010Prop49
280
     0
102
RTVSPost2010PropOp49
 70
     1
102
RTVSPost2010Prop50
 90
       50
102
RTVSPost2010PropOp50
 70
     0
102
RTVSPost2010Prop51ColorIndex
 90
      256
102
RTVSPost2010Prop51ColorRGB
 90
-16777216
102
RTVSPost2010PropOp51
 70
     0
102
RTVSPost2010Prop52
140
1.0
102
RTVSPost2010PropOp52
 70
     0
102
RTVSPost2010Prop53
 90
        2
102
RTVSPost2010PropOp53
 70
     0
102
RTVSPost2010Prop54
  1
strokes_ogs.tif
102
RTVSPost2010PropOp54
 70
     0
102
RTVSPost2010Prop55
280
     0
102
RTVSPost2010PropOp55
 70
     1
102
RTVSPost2010Prop56
140
1.0
102
RTVSPost2010PropOp56
 70
     0
102
RTVSPost2010Prop57
140
1.0
102
RTVSPost2010PropOp57
 70
     0
102
RTVSPropertyOp0
 70
     0
102
RTVSPropertyOp1
 70
     0
102
RTVSPropertyOp2
 70
     0
102
RTVSPropertyOp3
 70
     0
102
RTVSPropertyOp4
 70
     0
102
RTVSPropertyOp5
 70
     0
102
RTVSPropertyOp6
 70
     0
102
RTVSPropertyOp7
 70
     0
102
RTVSPropertyOp8
 70
     0
102
RTVSPropertyOp9
 70
     0
102
RTVSPropertyOp10
 70
     0
102
RTVSPropertyOp11
 70
     0
102
RTVSPropertyOp12
 70
     0
102
RTVSPropertyOp13
 70
     0
102
RTVSPropertyOp14
 70
     2
102
RTVSPropertyOp15
 70
     0
102
RTVSPropertyOp16
 70
     0
102
RTVSPropertyOp17
 70
     0
102
RTVSPropertyOp18
 70
     0
102
RTVSPropertyOp19
 70
     0
102
RTVSPropertyOp20
 70
     0
102
RTVSPropertyOp21
 70
     0
102
RTVSPropertyOp22
 70
     0
102
RTVSPropertyOp23
 70
     0
102
RTVSPropertyOp24
 70
     0
102
RTVSPropertyOp25
 70
     0
102
RTVSPropertyOp26
 70
     0
102
RTVSPropertyOp27
 70
     0
102
RTVSPropertyOp28
 70
     1
102
RTVSPropertyOp29
 70
     1
102
RTVSPropertyOp30
 70
     1
102
RTVSPropertyOp31
 70
     1
102
RTVSPropertyOp32
 70
     1
102
RTVSPropertyOp33
 70
     1
102
RTVSPropertyOp34
 70
     1
102
RTVSPropertyOp35
 70
     1
102
RTVSPropertyOp36
 70
     1
102
RTVSPropertyOp37
 70
     0
102
RTVSPropertyOp38
 70
     0
102
RTVSPropertyOp39
 70
     0
102
RTVSPropertyOp40
 70
     0
102
RTVSPropertyOp41
 70
     0
102
RTVSPropertyOp42
 70
     0
102
RTVSPropertyOp43
 70
     0
102
RTVSPropertyOp44
 70
     0
102
RTVSPropertyOp45
 70
     1
102
RTVSPropertyOp46
 70
     0
102
RTVSPropertyOp47
 70
     0
102
RTVSPropertyOp48
 70
     0
102
RTVSPropertyOp49
 70
     1
102
RTVSPropertyOp50
 70
     0
102
RTVSPropertyOp51
 70
     0
102
RTVSPropertyOp52
 70
     0
102
RTVSPropertyOp53
 70
     0
102
RTVSPropertyOp54
 70
     0
102
RTVSPropertyOp55
 70
     1
102
RTVSPropertyOp56
 70
     0
102
RTVSPropertyOp57
 70
     0
102
RTVSPropertyOp58
 70
     1
102
RTVSPropertyOp59
 70
     1
102
RTVSPropertyOp60
 70
     1
102
RTVSPropertyOp61
 70
     1
102
RTVSPropertyOp62
 70
     1
  0
XRECORD
  5
C96B
102
{ACAD_REACTORS
330
C96A
102
}
330
C96A
100
AcDbXrecord
280
     1
102
RTVSPost2010Prop28
280
     0
102
RTVSPost2010PropOp28
 70
     1
102
RTVSPost2010Prop29
280
     1
102
RTVSPost2010PropOp29
 70
     1
102
RTVSPost2010Prop30
280
     1
102
RTVSPost2010PropOp30
 70
     1
102
RTVSPost2010Prop31
280
     0
102
RTVSPost2010PropOp31
 70
     1
102
RTVSPost2010Prop32
280
     0
102
RTVSPost2010PropOp32
 70
     1
102
RTVSPost2010Prop33
280
     0
102
RTVSPost2010PropOp33
 70
     1
102
RTVSPost2010Prop34
280
     0
102
RTVSPost2010PropOp34
 70
     1
102
RTVSPost2010Prop35
280
     0
102
RTVSPost2010PropOp35
 70
     1
102
RTVSPost2010Prop36
280
     0
102
RTVSPost2010PropOp36
 70
     1
102
RTVSPost2010Prop37
 90
       50
102
RTVSPost2010PropOp37
 70
     1
102
RTVSPost2010Prop38
140
0.0
102
RTVSPost2010PropOp38
 70
     1
102
RTVSPost2010Prop39
140
1.0
102
RTVSPost2010PropOp39
 70
     1
102
RTVSPost2010Prop40
 90
        0
102
RTVSPost2010PropOp40
 70
     1
102
RTVSPost2010Prop41ColorIndex
 90
       18
102
RTVSPost2010Prop41ColorRGB
 90
-16777216
102
RTVSPost2010PropOp41
 70
     1
102
RTVSPost2010Prop42
 90
       50
102
RTVSPost2010PropOp42
 70
     1
102
RTVSPost2010Prop43
 90
        3
102
RTVSPost2010PropOp43
 70
     1
102
RTVSPost2010Prop44ColorIndex
 90
        5
102
RTVSPost2010Prop44ColorRGB
 90
      255
102
RTVSPost2010PropOp44
 70
     1
102
RTVSPost2010Prop45
280
     0
102
RTVSPost2010PropOp45
 70
     1
102
RTVSPost2010Prop46
 90
       50
102
RTVSPost2010PropOp46
 70
     1
102
RTVSPost2010Prop47
 90
       50
102
RTVSPost2010PropOp47
 70
     1
102
RTVSPost2010Prop48
 90
       50
102
RTVSPost2010PropOp48
 70
     1
102
RTVSPost2010Prop49
280
     0
102
RTVSPost2010PropOp49
 70
     1
102
RTVSPost2010Prop50
 90
       50
102
RTVSPost2010PropOp50
 70
     1
102
RTVSPost2010Prop51ColorIndex
 90
      256
102
RTVSPost2010Prop51ColorRGB
 90
-16777216
102
RTVSPost2010PropOp51
 70
     0
102
RTVSPost2010Prop52
140
1.0
102
RTVSPost2010PropOp52
 70
     0
102
RTVSPost2010Prop53
 90
        2
102
RTVSPost2010PropOp53
 70
     1
102
RTVSPost2010Prop54
  1
strokes_ogs.tif
102
RTVSPost2010PropOp54
 70
     1
102
RTVSPost2010Prop55
280
     0
102
RTVSPost2010PropOp55
 70
     1
102
RTVSPost2010Prop56
140
1.0
102
RTVSPost2010PropOp56
 70
     1
102
RTVSPost2010Prop57
140
1.0
102
RTVSPost2010PropOp57
 70
     1
102
RTVSPropertyOp0
 70
     1
102
RTVSPropertyOp1
 70
     1
102
RTVSPropertyOp2
 70
     1
102
RTVSPropertyOp3
 70
     1
102
RTVSPropertyOp4
 70
     1
102
RTVSPropertyOp5
 70
     1
102
RTVSPropertyOp6
 70
     1
102
RTVSPropertyOp7
 70
     1
102
RTVSPropertyOp8
 70
     1
102
RTVSPropertyOp9
 70
     1
102
RTVSPropertyOp10
 70
     1
102
RTVSPropertyOp11
 70
     1
102
RTVSPropertyOp12
 70
     1
102
RTVSPropertyOp13
 70
     1
102
RTVSPropertyOp14
 70
     1
102
RTVSPropertyOp15
 70
     1
102
RTVSPropertyOp16
 70
     1
102
RTVSPropertyOp17
 70
     1
102
RTVSPropertyOp18
 70
     1
102
RTVSPropertyOp19
 70
     1
102
RTVSPropertyOp20
 70
     1
102
RTVSPropertyOp21
 70
     1
102
RTVSPropertyOp22
 70
     1
102
RTVSPropertyOp23
 70
     1
102
RTVSPropertyOp24
 70
     1
102
RTVSPropertyOp25
 70
     1
102
RTVSPropertyOp26
 70
     1
102
RTVSPropertyOp27
 70
     1
102
RTVSPropertyOp28
 70
     1
102
RTVSPropertyOp29
 70
     1
102
RTVSPropertyOp30
 70
     1
102
RTVSPropertyOp31
 70
     1
102
RTVSPropertyOp32
 70
     1
102
RTVSPropertyOp33
 70
     1
102
RTVSPropertyOp34
 70
     1
102
RTVSPropertyOp35
 70
     1
102
RTVSPropertyOp36
 70
     1
102
RTVSPropertyOp37
 70
     1
102
RTVSPropertyOp38
 70
     1
102
RTVSPropertyOp39
 70
     1
102
RTVSPropertyOp40
 70
     1
102
RTVSPropertyOp41
 70
     1
102
RTVSPropertyOp42
 70
     1
102
RTVSPropertyOp43
 70
     1
102
RTVSPropertyOp44
 70
     1
102
RTVSPropertyOp45
 70
     1
102
RTVSPropertyOp46
 70
     1
102
RTVSPropertyOp47
 70
     1
102
RTVSPropertyOp48
 70
     1
102
RTVSPropertyOp49
 70
     1
102
RTVSPropertyOp50
 70
     1
102
RTVSPropertyOp51
 70
     0
102
RTVSPropertyOp52
 70
     0
102
RTVSPropertyOp53
 70
     1
102
RTVSPropertyOp54
 70
     1
102
RTVSPropertyOp55
 70
     1
102
RTVSPropertyOp56
 70
     1
102
RTVSPropertyOp57
 70
     1
102
RTVSPropertyOp58
 70
     1
102
RTVSPropertyOp59
 70
     1
102
RTVSPropertyOp60
 70
     1
102
RTVSPropertyOp61
 70
     1
102
RTVSPropertyOp62
 70
     1
  0
XRECORD
  5
C981
102
{ACAD_REACTORS
330
C980
102
}
330
C980
100
AcDbXrecord
280
     1
102
RTVSPost2010Prop28
280
     0
102
RTVSPost2010PropOp28
 70
     1
102
RTVSPost2010Prop29
280
     1
102
RTVSPost2010PropOp29
 70
     1
102
RTVSPost2010Prop30
280
     1
102
RTVSPost2010PropOp30
 70
     1
102
RTVSPost2010Prop31
280
     0
102
RTVSPost2010PropOp31
 70
     1
102
RTVSPost2010Prop32
280
     0
102
RTVSPost2010PropOp32
 70
     1
102
RTVSPost2010Prop33
280
     0
102
RTVSPost2010PropOp33
 70
     1
102
RTVSPost2010Prop34
280
     0
102
RTVSPost2010PropOp34
 70
     1
102
RTVSPost2010Prop35
280
     0
102
RTVSPost2010PropOp35
 70
     1
102
RTVSPost2010Prop36
280
     0
102
RTVSPost2010PropOp36
 70
     1
102
RTVSPost2010Prop37
 90
       50
102
RTVSPost2010PropOp37
 70
     1
102
RTVSPost2010Prop38
140
0.0
102
RTVSPost2010PropOp38
 70
     1
102
RTVSPost2010Prop39
140
1.0
102
RTVSPost2010PropOp39
 70
     1
102
RTVSPost2010Prop40
 90
        0
102
RTVSPost2010PropOp40
 70
     1
102
RTVSPost2010Prop41ColorIndex
 90
       18
102
RTVSPost2010Prop41ColorRGB
 90
-16777216
102
RTVSPost2010PropOp41
 70
     1
102
RTVSPost2010Prop42
 90
       50
102
RTVSPost2010PropOp42
 70
     1
102
RTVSPost2010Prop43
 90
        3
102
RTVSPost2010PropOp43
 70
     1
102
RTVSPost2010Prop44ColorIndex
 90
        5
102
RTVSPost2010Prop44ColorRGB
 90
      255
102
RTVSPost2010PropOp44
 70
     1
102
RTVSPost2010Prop45
280
     0
102
RTVSPost2010PropOp45
 70
     1
102
RTVSPost2010Prop46
 90
       50
102
RTVSPost2010PropOp46
 70
     1
102
RTVSPost2010Prop47
 90
       50
102
RTVSPost2010PropOp47
 70
     1
102
RTVSPost2010Prop48
 90
       50
102
RTVSPost2010PropOp48
 70
     1
102
RTVSPost2010Prop49
280
     0
102
RTVSPost2010PropOp49
 70
     1
102
RTVSPost2010Prop50
 90
       50
102
RTVSPost2010PropOp50
 70
     1
102
RTVSPost2010Prop51ColorIndex
 90
      256
102
RTVSPost2010Prop51ColorRGB
 90
-16777216
102
RTVSPost2010PropOp51
 70
     0
102
RTVSPost2010Prop52
140
1.0
102
RTVSPost2010PropOp52
 70
     0
102
RTVSPost2010Prop53
 90
        2
102
RTVSPost2010PropOp53
 70
     1
102
RTVSPost2010Prop54
  1
strokes_ogs.tif
102
RTVSPost2010PropOp54
 70
     1
102
RTVSPost2010Prop55
280
     0
102
RTVSPost2010PropOp55
 70
     1
102
RTVSPost2010Prop56
140
1.0
102
RTVSPost2010PropOp56
 70
     1
102
RTVSPost2010Prop57
140
1.0
102
RTVSPost2010PropOp57
 70
     1
102
RTVSPropertyOp0
 70
     1
102
RTVSPropertyOp1
 70
     1
102
RTVSPropertyOp2
 70
     1
102
RTVSPropertyOp3
 70
     1
102
RTVSPropertyOp4
 70
     1
102
RTVSPropertyOp5
 70
     1
102
RTVSPropertyOp6
 70
     1
102
RTVSPropertyOp7
 70
     1
102
RTVSPropertyOp8
 70
     1
102
RTVSPropertyOp9
 70
     1
102
RTVSPropertyOp10
 70
     1
102
RTVSPropertyOp11
 70
     1
102
RTVSPropertyOp12
 70
     1
102
RTVSPropertyOp13
 70
     1
102
RTVSPropertyOp14
 70
     1
102
RTVSPropertyOp15
 70
     1
102
RTVSPropertyOp16
 70
     1
102
RTVSPropertyOp17
 70
     1
102
RTVSPropertyOp18
 70
     1
102
RTVSPropertyOp19
 70
     1
102
RTVSPropertyOp20
 70
     1
102
RTVSPropertyOp21
 70
     1
102
RTVSPropertyOp22
 70
     1
102
RTVSPropertyOp23
 70
     1
102
RTVSPropertyOp24
 70
     1
102
RTVSPropertyOp25
 70
     1
102
RTVSPropertyOp26
 70
     1
102
RTVSPropertyOp27
 70
     1
102
RTVSPropertyOp28
 70
     1
102
RTVSPropertyOp29
 70
     1
102
RTVSPropertyOp30
 70
     1
102
RTVSPropertyOp31
 70
     1
102
RTVSPropertyOp32
 70
     1
102
RTVSPropertyOp33
 70
     1
102
RTVSPropertyOp34
 70
     1
102
RTVSPropertyOp35
 70
     1
102
RTVSPropertyOp36
 70
     1
102
RTVSPropertyOp37
 70
     1
102
RTVSPropertyOp38
 70
     1
102
RTVSPropertyOp39
 70
     1
102
RTVSPropertyOp40
 70
     1
102
RTVSPropertyOp41
 70
     1
102
RTVSPropertyOp42
 70
     1
102
RTVSPropertyOp43
 70
     1
102
RTVSPropertyOp44
 70
     1
102
RTVSPropertyOp45
 70
     1
102
RTVSPropertyOp46
 70
     1
102
RTVSPropertyOp47
 70
     1
102
RTVSPropertyOp48
 70
     1
102
RTVSPropertyOp49
 70
     1
102
RTVSPropertyOp50
 70
     1
102
RTVSPropertyOp51
 70
     0
102
RTVSPropertyOp52
 70
     0
102
RTVSPropertyOp53
 70
     1
102
RTVSPropertyOp54
 70
     1
102
RTVSPropertyOp55
 70
     1
102
RTVSPropertyOp56
 70
     1
102
RTVSPropertyOp57
 70
     1
102
RTVSPropertyOp58
 70
     1
102
RTVSPropertyOp59
 70
     1
102
RTVSPropertyOp60
 70
     1
102
RTVSPropertyOp61
 70
     1
102
RTVSPropertyOp62
 70
     1
  0
XRECORD
  5
C97F
102
{ACAD_REACTORS
330
C97E
102
}
330
C97E
100
AcDbXrecord
280
     1
102
RTVSPost2010Prop28
280
     0
102
RTVSPost2010PropOp28
 70
     1
102
RTVSPost2010Prop29
280
     1
102
RTVSPost2010PropOp29
 70
     1
102
RTVSPost2010Prop30
280
     1
102
RTVSPost2010PropOp30
 70
     1
102
RTVSPost2010Prop31
280
     0
102
RTVSPost2010PropOp31
 70
     1
102
RTVSPost2010Prop32
280
     0
102
RTVSPost2010PropOp32
 70
     1
102
RTVSPost2010Prop33
280
     0
102
RTVSPost2010PropOp33
 70
     1
102
RTVSPost2010Prop34
280
     0
102
RTVSPost2010PropOp34
 70
     1
102
RTVSPost2010Prop35
280
     0
102
RTVSPost2010PropOp35
 70
     1
102
RTVSPost2010Prop36
280
     0
102
RTVSPost2010PropOp36
 70
     1
102
RTVSPost2010Prop37
 90
       50
102
RTVSPost2010PropOp37
 70
     1
102
RTVSPost2010Prop38
140
0.0
102
RTVSPost2010PropOp38
 70
     1
102
RTVSPost2010Prop39
140
1.0
102
RTVSPost2010PropOp39
 70
     1
102
RTVSPost2010Prop40
 90
        0
102
RTVSPost2010PropOp40
 70
     1
102
RTVSPost2010Prop41ColorIndex
 90
       18
102
RTVSPost2010Prop41ColorRGB
 90
-16777216
102
RTVSPost2010PropOp41
 70
     1
102
RTVSPost2010Prop42
 90
       50
102
RTVSPost2010PropOp42
 70
     1
102
RTVSPost2010Prop43
 90
        3
102
RTVSPost2010PropOp43
 70
     1
102
RTVSPost2010Prop44ColorIndex
 90
        5
102
RTVSPost2010Prop44ColorRGB
 90
      255
102
RTVSPost2010PropOp44
 70
     1
102
RTVSPost2010Prop45
280
     0
102
RTVSPost2010PropOp45
 70
     1
102
RTVSPost2010Prop46
 90
       50
102
RTVSPost2010PropOp46
 70
     1
102
RTVSPost2010Prop47
 90
       50
102
RTVSPost2010PropOp47
 70
     1
102
RTVSPost2010Prop48
 90
       50
102
RTVSPost2010PropOp48
 70
     1
102
RTVSPost2010Prop49
280
     0
102
RTVSPost2010PropOp49
 70
     1
102
RTVSPost2010Prop50
 90
       50
102
RTVSPost2010PropOp50
 70
     1
102
RTVSPost2010Prop51ColorIndex
 90
      256
102
RTVSPost2010Prop51ColorRGB
 90
-16777216
102
RTVSPost2010PropOp51
 70
     0
102
RTVSPost2010Prop52
140
1.0
102
RTVSPost2010PropOp52
 70
     0
102
RTVSPost2010Prop53
 90
        2
102
RTVSPost2010PropOp53
 70
     1
102
RTVSPost2010Prop54
  1
strokes_ogs.tif
102
RTVSPost2010PropOp54
 70
     1
102
RTVSPost2010Prop55
280
     0
102
RTVSPost2010PropOp55
 70
     1
102
RTVSPost2010Prop56
140
1.0
102
RTVSPost2010PropOp56
 70
     1
102
RTVSPost2010Prop57
140
1.0
102
RTVSPost2010PropOp57
 70
     1
102
RTVSPropertyOp0
 70
     1
102
RTVSPropertyOp1
 70
     1
102
RTVSPropertyOp2
 70
     1
102
RTVSPropertyOp3
 70
     1
102
RTVSPropertyOp4
 70
     1
102
RTVSPropertyOp5
 70
     1
102
RTVSPropertyOp6
 70
     1
102
RTVSPropertyOp7
 70
     1
102
RTVSPropertyOp8
 70
     1
102
RTVSPropertyOp9
 70
     1
102
RTVSPropertyOp10
 70
     1
102
RTVSPropertyOp11
 70
     1
102
RTVSPropertyOp12
 70
     1
102
RTVSPropertyOp13
 70
     1
102
RTVSPropertyOp14
 70
     1
102
RTVSPropertyOp15
 70
     1
102
RTVSPropertyOp16
 70
     1
102
RTVSPropertyOp17
 70
     1
102
RTVSPropertyOp18
 70
     1
102
RTVSPropertyOp19
 70
     1
102
RTVSPropertyOp20
 70
     1
102
RTVSPropertyOp21
 70
     1
102
RTVSPropertyOp22
 70
     1
102
RTVSPropertyOp23
 70
     1
102
RTVSPropertyOp24
 70
     1
102
RTVSPropertyOp25
 70
     1
102
RTVSPropertyOp26
 70
     1
102
RTVSPropertyOp27
 70
     1
102
RTVSPropertyOp28
 70
     1
102
RTVSPropertyOp29
 70
     1
102
RTVSPropertyOp30
 70
     1
102
RTVSPropertyOp31
 70
     1
102
RTVSPropertyOp32
 70
     1
102
RTVSPropertyOp33
 70
     1
102
RTVSPropertyOp34
 70
     1
102
RTVSPropertyOp35
 70
     1
102
RTVSPropertyOp36
 70
     1
102
RTVSPropertyOp37
 70
     1
102
RTVSPropertyOp38
 70
     1
102
RTVSPropertyOp39
 70
     1
102
RTVSPropertyOp40
 70
     1
102
RTVSPropertyOp41
 70
     1
102
RTVSPropertyOp42
 70
     1
102
RTVSPropertyOp43
 70
     1
102
RTVSPropertyOp44
 70
     1
102
RTVSPropertyOp45
 70
     1
102
RTVSPropertyOp46
 70
     1
102
RTVSPropertyOp47
 70
     1
102
RTVSPropertyOp48
 70
     1
102
RTVSPropertyOp49
 70
     1
102
RTVSPropertyOp50
 70
     1
102
RTVSPropertyOp51
 70
     0
102
RTVSPropertyOp52
 70
     0
102
RTVSPropertyOp53
 70
     1
102
RTVSPropertyOp54
 70
     1
102
RTVSPropertyOp55
 70
     1
102
RTVSPropertyOp56
 70
     1
102
RTVSPropertyOp57
 70
     1
102
RTVSPropertyOp58
 70
     1
102
RTVSPropertyOp59
 70
     1
102
RTVSPropertyOp60
 70
     1
102
RTVSPropertyOp61
 70
     1
102
RTVSPropertyOp62
 70
     1
  0
XRECORD
  5
C979
102
{ACAD_REACTORS
330
C978
102
}
330
C978
100
AcDbXrecord
280
     1
102
RTVSPost2010Prop28
280
     0
102
RTVSPost2010PropOp28
 70
     1
102
RTVSPost2010Prop29
280
     1
102
RTVSPost2010PropOp29
 70
     1
102
RTVSPost2010Prop30
280
     1
102
RTVSPost2010PropOp30
 70
     1
102
RTVSPost2010Prop31
280
     0
102
RTVSPost2010PropOp31
 70
     1
102
RTVSPost2010Prop32
280
     0
102
RTVSPost2010PropOp32
 70
     1
102
RTVSPost2010Prop33
280
     0
102
RTVSPost2010PropOp33
 70
     1
102
RTVSPost2010Prop34
280
     0
102
RTVSPost2010PropOp34
 70
     1
102
RTVSPost2010Prop35
280
     0
102
RTVSPost2010PropOp35
 70
     1
102
RTVSPost2010Prop36
280
     0
102
RTVSPost2010PropOp36
 70
     1
102
RTVSPost2010Prop37
 90
       50
102
RTVSPost2010PropOp37
 70
     1
102
RTVSPost2010Prop38
140
0.0
102
RTVSPost2010PropOp38
 70
     1
102
RTVSPost2010Prop39
140
1.0
102
RTVSPost2010PropOp39
 70
     1
102
RTVSPost2010Prop40
 90
        0
102
RTVSPost2010PropOp40
 70
     1
102
RTVSPost2010Prop41ColorIndex
 90
       18
102
RTVSPost2010Prop41ColorRGB
 90
-16777216
102
RTVSPost2010PropOp41
 70
     1
102
RTVSPost2010Prop42
 90
       50
102
RTVSPost2010PropOp42
 70
     1
102
RTVSPost2010Prop43
 90
        3
102
RTVSPost2010PropOp43
 70
     1
102
RTVSPost2010Prop44ColorIndex
 90
        5
102
RTVSPost2010Prop44ColorRGB
 90
      255
102
RTVSPost2010PropOp44
 70
     1
102
RTVSPost2010Prop45
280
     0
102
RTVSPost2010PropOp45
 70
     1
102
RTVSPost2010Prop46
 90
       50
102
RTVSPost2010PropOp46
 70
     1
102
RTVSPost2010Prop47
 90
       50
102
RTVSPost2010PropOp47
 70
     1
102
RTVSPost2010Prop48
 90
       50
102
RTVSPost2010PropOp48
 70
     1
102
RTVSPost2010Prop49
280
     0
102
RTVSPost2010PropOp49
 70
     1
102
RTVSPost2010Prop50
 90
       50
102
RTVSPost2010PropOp50
 70
     1
102
RTVSPost2010Prop51ColorIndex
 90
      256
102
RTVSPost2010Prop51ColorRGB
 90
-16777216
102
RTVSPost2010PropOp51
 70
     0
102
RTVSPost2010Prop52
140
1.0
102
RTVSPost2010PropOp52
 70
     0
102
RTVSPost2010Prop53
 90
        2
102
RTVSPost2010PropOp53
 70
     1
102
RTVSPost2010Prop54
  1
strokes_ogs.tif
102
RTVSPost2010PropOp54
 70
     1
102
RTVSPost2010Prop55
280
     0
102
RTVSPost2010PropOp55
 70
     1
102
RTVSPost2010Prop56
140
1.0
102
RTVSPost2010PropOp56
 70
     1
102
RTVSPost2010Prop57
140
1.0
102
RTVSPost2010PropOp57
 70
     1
102
RTVSPropertyOp0
 70
     1
102
RTVSPropertyOp1
 70
     1
102
RTVSPropertyOp2
 70
     1
102
RTVSPropertyOp3
 70
     1
102
RTVSPropertyOp4
 70
     1
102
RTVSPropertyOp5
 70
     1
102
RTVSPropertyOp6
 70
     1
102
RTVSPropertyOp7
 70
     1
102
RTVSPropertyOp8
 70
     1
102
RTVSPropertyOp9
 70
     1
102
RTVSPropertyOp10
 70
     1
102
RTVSPropertyOp11
 70
     1
102
RTVSPropertyOp12
 70
     1
102
RTVSPropertyOp13
 70
     1
102
RTVSPropertyOp14
 70
     1
102
RTVSPropertyOp15
 70
     1
102
RTVSPropertyOp16
 70
     1
102
RTVSPropertyOp17
 70
     1
102
RTVSPropertyOp18
 70
     1
102
RTVSPropertyOp19
 70
     1
102
RTVSPropertyOp20
 70
     1
102
RTVSPropertyOp21
 70
     1
102
RTVSPropertyOp22
 70
     1
102
RTVSPropertyOp23
 70
     1
102
RTVSPropertyOp24
 70
     1
102
RTVSPropertyOp25
 70
     1
102
RTVSPropertyOp26
 70
     1
102
RTVSPropertyOp27
 70
     1
102
RTVSPropertyOp28
 70
     1
102
RTVSPropertyOp29
 70
     1
102
RTVSPropertyOp30
 70
     1
102
RTVSPropertyOp31
 70
     1
102
RTVSPropertyOp32
 70
     1
102
RTVSPropertyOp33
 70
     1
102
RTVSPropertyOp34
 70
     1
102
RTVSPropertyOp35
 70
     1
102
RTVSPropertyOp36
 70
     1
102
RTVSPropertyOp37
 70
     1
102
RTVSPropertyOp38
 70
     1
102
RTVSPropertyOp39
 70
     1
102
RTVSPropertyOp40
 70
     1
102
RTVSPropertyOp41
 70
     1
102
RTVSPropertyOp42
 70
     1
102
RTVSPropertyOp43
 70
     1
102
RTVSPropertyOp44
 70
     1
102
RTVSPropertyOp45
 70
     1
102
RTVSPropertyOp46
 70
     1
102
RTVSPropertyOp47
 70
     1
102
RTVSPropertyOp48
 70
     1
102
RTVSPropertyOp49
 70
     1
102
RTVSPropertyOp50
 70
     1
102
RTVSPropertyOp51
 70
     0
102
RTVSPropertyOp52
 70
     0
102
RTVSPropertyOp53
 70
     1
102
RTVSPropertyOp54
 70
     1
102
RTVSPropertyOp55
 70
     1
102
RTVSPropertyOp56
 70
     1
102
RTVSPropertyOp57
 70
     1
102
RTVSPropertyOp58
 70
     1
102
RTVSPropertyOp59
 70
     1
102
RTVSPropertyOp60
 70
     1
102
RTVSPropertyOp61
 70
     1
102
RTVSPropertyOp62
 70
     1
  0
XRECORD
  5
C97B
102
{ACAD_REACTORS
330
C97A
102
}
330
C97A
100
AcDbXrecord
280
     1
102
RTVSPost2010Prop28
280
     0
102
RTVSPost2010PropOp28
 70
     1
102
RTVSPost2010Prop29
280
     1
102
RTVSPost2010PropOp29
 70
     1
102
RTVSPost2010Prop30
280
     1
102
RTVSPost2010PropOp30
 70
     1
102
RTVSPost2010Prop31
280
     0
102
RTVSPost2010PropOp31
 70
     1
102
RTVSPost2010Prop32
280
     0
102
RTVSPost2010PropOp32
 70
     1
102
RTVSPost2010Prop33
280
     0
102
RTVSPost2010PropOp33
 70
     1
102
RTVSPost2010Prop34
280
     0
102
RTVSPost2010PropOp34
 70
     1
102
RTVSPost2010Prop35
280
     0
102
RTVSPost2010PropOp35
 70
     1
102
RTVSPost2010Prop36
280
     0
102
RTVSPost2010PropOp36
 70
     1
102
RTVSPost2010Prop37
 90
       50
102
RTVSPost2010PropOp37
 70
     1
102
RTVSPost2010Prop38
140
0.0
102
RTVSPost2010PropOp38
 70
     1
102
RTVSPost2010Prop39
140
1.0
102
RTVSPost2010PropOp39
 70
     1
102
RTVSPost2010Prop40
 90
        0
102
RTVSPost2010PropOp40
 70
     1
102
RTVSPost2010Prop41ColorIndex
 90
       18
102
RTVSPost2010Prop41ColorRGB
 90
-16777216
102
RTVSPost2010PropOp41
 70
     1
102
RTVSPost2010Prop42
 90
       50
102
RTVSPost2010PropOp42
 70
     1
102
RTVSPost2010Prop43
 90
        3
102
RTVSPost2010PropOp43
 70
     1
102
RTVSPost2010Prop44ColorIndex
 90
        5
102
RTVSPost2010Prop44ColorRGB
 90
      255
102
RTVSPost2010PropOp44
 70
     1
102
RTVSPost2010Prop45
280
     0
102
RTVSPost2010PropOp45
 70
     1
102
RTVSPost2010Prop46
 90
       50
102
RTVSPost2010PropOp46
 70
     1
102
RTVSPost2010Prop47
 90
       50
102
RTVSPost2010PropOp47
 70
     1
102
RTVSPost2010Prop48
 90
       50
102
RTVSPost2010PropOp48
 70
     1
102
RTVSPost2010Prop49
280
     0
102
RTVSPost2010PropOp49
 70
     1
102
RTVSPost2010Prop50
 90
       50
102
RTVSPost2010PropOp50
 70
     1
102
RTVSPost2010Prop51ColorIndex
 90
      256
102
RTVSPost2010Prop51ColorRGB
 90
-16777216
102
RTVSPost2010PropOp51
 70
     0
102
RTVSPost2010Prop52
140
1.0
102
RTVSPost2010PropOp52
 70
     0
102
RTVSPost2010Prop53
 90
        2
102
RTVSPost2010PropOp53
 70
     1
102
RTVSPost2010Prop54
  1
strokes_ogs.tif
102
RTVSPost2010PropOp54
 70
     1
102
RTVSPost2010Prop55
280
     0
102
RTVSPost2010PropOp55
 70
     1
102
RTVSPost2010Prop56
140
1.0
102
RTVSPost2010PropOp56
 70
     1
102
RTVSPost2010Prop57
140
1.0
102
RTVSPost2010PropOp57
 70
     1
102
RTVSPropertyOp0
 70
     1
102
RTVSPropertyOp1
 70
     1
102
RTVSPropertyOp2
 70
     1
102
RTVSPropertyOp3
 70
     1
102
RTVSPropertyOp4
 70
     1
102
RTVSPropertyOp5
 70
     1
102
RTVSPropertyOp6
 70
     1
102
RTVSPropertyOp7
 70
     1
102
RTVSPropertyOp8
 70
     1
102
RTVSPropertyOp9
 70
     1
102
RTVSPropertyOp10
 70
     1
102
RTVSPropertyOp11
 70
     1
102
RTVSPropertyOp12
 70
     1
102
RTVSPropertyOp13
 70
     1
102
RTVSPropertyOp14
 70
     1
102
RTVSPropertyOp15
 70
     1
102
RTVSPropertyOp16
 70
     1
102
RTVSPropertyOp17
 70
     1
102
RTVSPropertyOp18
 70
     1
102
RTVSPropertyOp19
 70
     1
102
RTVSPropertyOp20
 70
     1
102
RTVSPropertyOp21
 70
     1
102
RTVSPropertyOp22
 70
     1
102
RTVSPropertyOp23
 70
     1
102
RTVSPropertyOp24
 70
     1
102
RTVSPropertyOp25
 70
     1
102
RTVSPropertyOp26
 70
     1
102
RTVSPropertyOp27
 70
     1
102
RTVSPropertyOp28
 70
     1
102
RTVSPropertyOp29
 70
     1
102
RTVSPropertyOp30
 70
     1
102
RTVSPropertyOp31
 70
     1
102
RTVSPropertyOp32
 70
     1
102
RTVSPropertyOp33
 70
     1
102
RTVSPropertyOp34
 70
     1
102
RTVSPropertyOp35
 70
     1
102
RTVSPropertyOp36
 70
     1
102
RTVSPropertyOp37
 70
     1
102
RTVSPropertyOp38
 70
     1
102
RTVSPropertyOp39
 70
     1
102
RTVSPropertyOp40
 70
     1
102
RTVSPropertyOp41
 70
     1
102
RTVSPropertyOp42
 70
     1
102
RTVSPropertyOp43
 70
     1
102
RTVSPropertyOp44
 70
     1
102
RTVSPropertyOp45
 70
     1
102
RTVSPropertyOp46
 70
     1
102
RTVSPropertyOp47
 70
     1
102
RTVSPropertyOp48
 70
     1
102
RTVSPropertyOp49
 70
     1
102
RTVSPropertyOp50
 70
     1
102
RTVSPropertyOp51
 70
     0
102
RTVSPropertyOp52
 70
     0
102
RTVSPropertyOp53
 70
     1
102
RTVSPropertyOp54
 70
     1
102
RTVSPropertyOp55
 70
     1
102
RTVSPropertyOp56
 70
     1
102
RTVSPropertyOp57
 70
     1
102
RTVSPropertyOp58
 70
     1
102
RTVSPropertyOp59
 70
     1
102
RTVSPropertyOp60
 70
     1
102
RTVSPropertyOp61
 70
     1
102
RTVSPropertyOp62
 70
     1
  0
XRECORD
  5
C971
102
{ACAD_REACTORS
330
C970
102
}
330
C970
100
AcDbXrecord
280
     1
102
RTVSPost2010Prop28
280
     0
102
RTVSPost2010PropOp28
 70
     1
102
RTVSPost2010Prop29
280
     1
102
RTVSPost2010PropOp29
 70
     1
102
RTVSPost2010Prop30
280
     1
102
RTVSPost2010PropOp30
 70
     1
102
RTVSPost2010Prop31
280
     0
102
RTVSPost2010PropOp31
 70
     1
102
RTVSPost2010Prop32
280
     0
102
RTVSPost2010PropOp32
 70
     1
102
RTVSPost2010Prop33
280
     0
102
RTVSPost2010PropOp33
 70
     1
102
RTVSPost2010Prop34
280
     0
102
RTVSPost2010PropOp34
 70
     1
102
RTVSPost2010Prop35
280
     0
102
RTVSPost2010PropOp35
 70
     1
102
RTVSPost2010Prop36
280
     0
102
RTVSPost2010PropOp36
 70
     1
102
RTVSPost2010Prop37
 90
       50
102
RTVSPost2010PropOp37
 70
     1
102
RTVSPost2010Prop38
140
0.0
102
RTVSPost2010PropOp38
 70
     1
102
RTVSPost2010Prop39
140
1.0
102
RTVSPost2010PropOp39
 70
     1
102
RTVSPost2010Prop40
 90
        0
102
RTVSPost2010PropOp40
 70
     1
102
RTVSPost2010Prop41ColorIndex
 90
       18
102
RTVSPost2010Prop41ColorRGB
 90
-16777216
102
RTVSPost2010PropOp41
 70
     1
102
RTVSPost2010Prop42
 90
       50
102
RTVSPost2010PropOp42
 70
     1
102
RTVSPost2010Prop43
 90
        3
102
RTVSPost2010PropOp43
 70
     1
102
RTVSPost2010Prop44ColorIndex
 90
        5
102
RTVSPost2010Prop44ColorRGB
 90
      255
102
RTVSPost2010PropOp44
 70
     1
102
RTVSPost2010Prop45
280
     0
102
RTVSPost2010PropOp45
 70
     1
102
RTVSPost2010Prop46
 90
       50
102
RTVSPost2010PropOp46
 70
     1
102
RTVSPost2010Prop47
 90
       50
102
RTVSPost2010PropOp47
 70
     1
102
RTVSPost2010Prop48
 90
       50
102
RTVSPost2010PropOp48
 70
     1
102
RTVSPost2010Prop49
280
     0
102
RTVSPost2010PropOp49
 70
     1
102
RTVSPost2010Prop50
 90
       50
102
RTVSPost2010PropOp50
 70
     1
102
RTVSPost2010Prop51ColorIndex
 90
      256
102
RTVSPost2010Prop51ColorRGB
 90
-16777216
102
RTVSPost2010PropOp51
 70
     0
102
RTVSPost2010Prop52
140
1.0
102
RTVSPost2010PropOp52
 70
     0
102
RTVSPost2010Prop53
 90
        2
102
RTVSPost2010PropOp53
 70
     1
102
RTVSPost2010Prop54
  1
strokes_ogs.tif
102
RTVSPost2010PropOp54
 70
     1
102
RTVSPost2010Prop55
280
     0
102
RTVSPost2010PropOp55
 70
     1
102
RTVSPost2010Prop56
140
1.0
102
RTVSPost2010PropOp56
 70
     1
102
RTVSPost2010Prop57
140
1.0
102
RTVSPost2010PropOp57
 70
     1
102
RTVSPropertyOp0
 70
     1
102
RTVSPropertyOp1
 70
     1
102
RTVSPropertyOp2
 70
     1
102
RTVSPropertyOp3
 70
     1
102
RTVSPropertyOp4
 70
     1
102
RTVSPropertyOp5
 70
     1
102
RTVSPropertyOp6
 70
     1
102
RTVSPropertyOp7
 70
     1
102
RTVSPropertyOp8
 70
     1
102
RTVSPropertyOp9
 70
     1
102
RTVSPropertyOp10
 70
     1
102
RTVSPropertyOp11
 70
     1
102
RTVSPropertyOp12
 70
     1
102
RTVSPropertyOp13
 70
     1
102
RTVSPropertyOp14
 70
     1
102
RTVSPropertyOp15
 70
     1
102
RTVSPropertyOp16
 70
     1
102
RTVSPropertyOp17
 70
     1
102
RTVSPropertyOp18
 70
     1
102
RTVSPropertyOp19
 70
     1
102
RTVSPropertyOp20
 70
     1
102
RTVSPropertyOp21
 70
     1
102
RTVSPropertyOp22
 70
     1
102
RTVSPropertyOp23
 70
     1
102
RTVSPropertyOp24
 70
     1
102
RTVSPropertyOp25
 70
     1
102
RTVSPropertyOp26
 70
     1
102
RTVSPropertyOp27
 70
     1
102
RTVSPropertyOp28
 70
     1
102
RTVSPropertyOp29
 70
     1
102
RTVSPropertyOp30
 70
     1
102
RTVSPropertyOp31
 70
     1
102
RTVSPropertyOp32
 70
     1
102
RTVSPropertyOp33
 70
     1
102
RTVSPropertyOp34
 70
     1
102
RTVSPropertyOp35
 70
     1
102
RTVSPropertyOp36
 70
     1
102
RTVSPropertyOp37
 70
     1
102
RTVSPropertyOp38
 70
     1
102
RTVSPropertyOp39
 70
     1
102
RTVSPropertyOp40
 70
     1
102
RTVSPropertyOp41
 70
     1
102
RTVSPropertyOp42
 70
     1
102
RTVSPropertyOp43
 70
     1
102
RTVSPropertyOp44
 70
     1
102
RTVSPropertyOp45
 70
     1
102
RTVSPropertyOp46
 70
     1
102
RTVSPropertyOp47
 70
     1
102
RTVSPropertyOp48
 70
     1
102
RTVSPropertyOp49
 70
     1
102
RTVSPropertyOp50
 70
     1
102
RTVSPropertyOp51
 70
     0
102
RTVSPropertyOp52
 70
     0
102
RTVSPropertyOp53
 70
     1
102
RTVSPropertyOp54
 70
     1
102
RTVSPropertyOp55
 70
     1
102
RTVSPropertyOp56
 70
     1
102
RTVSPropertyOp57
 70
     1
102
RTVSPropertyOp58
 70
     1
102
RTVSPropertyOp59
 70
     1
102
RTVSPropertyOp60
 70
     1
102
RTVSPropertyOp61
 70
     1
102
RTVSPropertyOp62
 70
     1
  0
XRECORD
  5
C965
102
{ACAD_REACTORS
330
C964
102
}
330
C964
100
AcDbXrecord
280
     1
102
RTVSPost2010Prop28
280
     0
102
RTVSPost2010PropOp28
 70
     1
102
RTVSPost2010Prop29
280
     1
102
RTVSPost2010PropOp29
 70
     1
102
RTVSPost2010Prop30
280
     1
102
RTVSPost2010PropOp30
 70
     1
102
RTVSPost2010Prop31
280
     0
102
RTVSPost2010PropOp31
 70
     1
102
RTVSPost2010Prop32
280
     0
102
RTVSPost2010PropOp32
 70
     1
102
RTVSPost2010Prop33
280
     0
102
RTVSPost2010PropOp33
 70
     1
102
RTVSPost2010Prop34
280
     0
102
RTVSPost2010PropOp34
 70
     1
102
RTVSPost2010Prop35
280
     0
102
RTVSPost2010PropOp35
 70
     1
102
RTVSPost2010Prop36
280
     0
102
RTVSPost2010PropOp36
 70
     1
102
RTVSPost2010Prop37
 90
       50
102
RTVSPost2010PropOp37
 70
     1
102
RTVSPost2010Prop38
140
0.0
102
RTVSPost2010PropOp38
 70
     1
102
RTVSPost2010Prop39
140
1.0
102
RTVSPost2010PropOp39
 70
     1
102
RTVSPost2010Prop40
 90
        0
102
RTVSPost2010PropOp40
 70
     1
102
RTVSPost2010Prop41ColorIndex
 90
       18
102
RTVSPost2010Prop41ColorRGB
 90
-16777216
102
RTVSPost2010PropOp41
 70
     1
102
RTVSPost2010Prop42
 90
       50
102
RTVSPost2010PropOp42
 70
     1
102
RTVSPost2010Prop43
 90
        3
102
RTVSPost2010PropOp43
 70
     1
102
RTVSPost2010Prop44ColorIndex
 90
        5
102
RTVSPost2010Prop44ColorRGB
 90
      255
102
RTVSPost2010PropOp44
 70
     1
102
RTVSPost2010Prop45
280
     0
102
RTVSPost2010PropOp45
 70
     1
102
RTVSPost2010Prop46
 90
       50
102
RTVSPost2010PropOp46
 70
     1
102
RTVSPost2010Prop47
 90
       50
102
RTVSPost2010PropOp47
 70
     1
102
RTVSPost2010Prop48
 90
       50
102
RTVSPost2010PropOp48
 70
     1
102
RTVSPost2010Prop49
280
     0
102
RTVSPost2010PropOp49
 70
     1
102
RTVSPost2010Prop50
 90
       50
102
RTVSPost2010PropOp50
 70
     1
102
RTVSPost2010Prop51ColorIndex
 90
      256
102
RTVSPost2010Prop51ColorRGB
 90
-16777216
102
RTVSPost2010PropOp51
 70
     0
102
RTVSPost2010Prop52
140
1.0
102
RTVSPost2010PropOp52
 70
     0
102
RTVSPost2010Prop53
 90
        2
102
RTVSPost2010PropOp53
 70
     1
102
RTVSPost2010Prop54
  1
strokes_ogs.tif
102
RTVSPost2010PropOp54
 70
     1
102
RTVSPost2010Prop55
280
     0
102
RTVSPost2010PropOp55
 70
     1
102
RTVSPost2010Prop56
140
1.0
102
RTVSPost2010PropOp56
 70
     1
102
RTVSPost2010Prop57
140
1.0
102
RTVSPost2010PropOp57
 70
     1
102
RTVSPropertyOp0
 70
     1
102
RTVSPropertyOp1
 70
     1
102
RTVSPropertyOp2
 70
     1
102
RTVSPropertyOp3
 70
     1
102
RTVSPropertyOp4
 70
     1
102
RTVSPropertyOp5
 70
     1
102
RTVSPropertyOp6
 70
     1
102
RTVSPropertyOp7
 70
     1
102
RTVSPropertyOp8
 70
     1
102
RTVSPropertyOp9
 70
     1
102
RTVSPropertyOp10
 70
     1
102
RTVSPropertyOp11
 70
     1
102
RTVSPropertyOp12
 70
     1
102
RTVSPropertyOp13
 70
     1
102
RTVSPropertyOp14
 70
     1
102
RTVSPropertyOp15
 70
     1
102
RTVSPropertyOp16
 70
     1
102
RTVSPropertyOp17
 70
     1
102
RTVSPropertyOp18
 70
     1
102
RTVSPropertyOp19
 70
     1
102
RTVSPropertyOp20
 70
     1
102
RTVSPropertyOp21
 70
     1
102
RTVSPropertyOp22
 70
     1
102
RTVSPropertyOp23
 70
     1
102
RTVSPropertyOp24
 70
     1
102
RTVSPropertyOp25
 70
     1
102
RTVSPropertyOp26
 70
     1
102
RTVSPropertyOp27
 70
     1
102
RTVSPropertyOp28
 70
     1
102
RTVSPropertyOp29
 70
     1
102
RTVSPropertyOp30
 70
     1
102
RTVSPropertyOp31
 70
     1
102
RTVSPropertyOp32
 70
     1
102
RTVSPropertyOp33
 70
     1
102
RTVSPropertyOp34
 70
     1
102
RTVSPropertyOp35
 70
     1
102
RTVSPropertyOp36
 70
     1
102
RTVSPropertyOp37
 70
     1
102
RTVSPropertyOp38
 70
     1
102
RTVSPropertyOp39
 70
     1
102
RTVSPropertyOp40
 70
     1
102
RTVSPropertyOp41
 70
     1
102
RTVSPropertyOp42
 70
     1
102
RTVSPropertyOp43
 70
     1
102
RTVSPropertyOp44
 70
     1
102
RTVSPropertyOp45
 70
     1
102
RTVSPropertyOp46
 70
     1
102
RTVSPropertyOp47
 70
     1
102
RTVSPropertyOp48
 70
     1
102
RTVSPropertyOp49
 70
     1
102
RTVSPropertyOp50
 70
     1
102
RTVSPropertyOp51
 70
     0
102
RTVSPropertyOp52
 70
     0
102
RTVSPropertyOp53
 70
     1
102
RTVSPropertyOp54
 70
     1
102
RTVSPropertyOp55
 70
     1
102
RTVSPropertyOp56
 70
     1
102
RTVSPropertyOp57
 70
     1
102
RTVSPropertyOp58
 70
     1
102
RTVSPropertyOp59
 70
     1
102
RTVSPropertyOp60
 70
     1
102
RTVSPropertyOp61
 70
     1
102
RTVSPropertyOp62
 70
     1
  0
XRECORD
  5
C97D
102
{ACAD_REACTORS
330
C97C
102
}
330
C97C
100
AcDbXrecord
280
     1
102
RTVSPost2010Prop28
280
     0
102
RTVSPost2010PropOp28
 70
     1
102
RTVSPost2010Prop29
280
     1
102
RTVSPost2010PropOp29
 70
     1
102
RTVSPost2010Prop30
280
     1
102
RTVSPost2010PropOp30
 70
     1
102
RTVSPost2010Prop31
280
     0
102
RTVSPost2010PropOp31
 70
     1
102
RTVSPost2010Prop32
280
     0
102
RTVSPost2010PropOp32
 70
     1
102
RTVSPost2010Prop33
280
     0
102
RTVSPost2010PropOp33
 70
     1
102
RTVSPost2010Prop34
280
     0
102
RTVSPost2010PropOp34
 70
     1
102
RTVSPost2010Prop35
280
     0
102
RTVSPost2010PropOp35
 70
     1
102
RTVSPost2010Prop36
280
     0
102
RTVSPost2010PropOp36
 70
     1
102
RTVSPost2010Prop37
 90
       50
102
RTVSPost2010PropOp37
 70
     1
102
RTVSPost2010Prop38
140
0.0
102
RTVSPost2010PropOp38
 70
     1
102
RTVSPost2010Prop39
140
1.0
102
RTVSPost2010PropOp39
 70
     1
102
RTVSPost2010Prop40
 90
        0
102
RTVSPost2010PropOp40
 70
     1
102
RTVSPost2010Prop41ColorIndex
 90
       18
102
RTVSPost2010Prop41ColorRGB
 90
-16777216
102
RTVSPost2010PropOp41
 70
     1
102
RTVSPost2010Prop42
 90
       50
102
RTVSPost2010PropOp42
 70
     1
102
RTVSPost2010Prop43
 90
        3
102
RTVSPost2010PropOp43
 70
     1
102
RTVSPost2010Prop44ColorIndex
 90
        5
102
RTVSPost2010Prop44ColorRGB
 90
      255
102
RTVSPost2010PropOp44
 70
     1
102
RTVSPost2010Prop45
280
     0
102
RTVSPost2010PropOp45
 70
     1
102
RTVSPost2010Prop46
 90
       50
102
RTVSPost2010PropOp46
 70
     1
102
RTVSPost2010Prop47
 90
       50
102
RTVSPost2010PropOp47
 70
     1
102
RTVSPost2010Prop48
 90
       50
102
RTVSPost2010PropOp48
 70
     1
102
RTVSPost2010Prop49
280
     0
102
RTVSPost2010PropOp49
 70
     1
102
RTVSPost2010Prop50
 90
       50
102
RTVSPost2010PropOp50
 70
     1
102
RTVSPost2010Prop51ColorIndex
 90
      256
102
RTVSPost2010Prop51ColorRGB
 90
-16777216
102
RTVSPost2010PropOp51
 70
     0
102
RTVSPost2010Prop52
140
1.0
102
RTVSPost2010PropOp52
 70
     0
102
RTVSPost2010Prop53
 90
        2
102
RTVSPost2010PropOp53
 70
     1
102
RTVSPost2010Prop54
  1
strokes_ogs.tif
102
RTVSPost2010PropOp54
 70
     1
102
RTVSPost2010Prop55
280
     0
102
RTVSPost2010PropOp55
 70
     1
102
RTVSPost2010Prop56
140
1.0
102
RTVSPost2010PropOp56
 70
     1
102
RTVSPost2010Prop57
140
1.0
102
RTVSPost2010PropOp57
 70
     1
102
RTVSPropertyOp0
 70
     1
102
RTVSPropertyOp1
 70
     1
102
RTVSPropertyOp2
 70
     1
102
RTVSPropertyOp3
 70
     1
102
RTVSPropertyOp4
 70
     1
102
RTVSPropertyOp5
 70
     1
102
RTVSPropertyOp6
 70
     1
102
RTVSPropertyOp7
 70
     1
102
RTVSPropertyOp8
 70
     1
102
RTVSPropertyOp9
 70
     1
102
RTVSPropertyOp10
 70
     1
102
RTVSPropertyOp11
 70
     1
102
RTVSPropertyOp12
 70
     1
102
RTVSPropertyOp13
 70
     1
102
RTVSPropertyOp14
 70
     1
102
RTVSPropertyOp15
 70
     1
102
RTVSPropertyOp16
 70
     1
102
RTVSPropertyOp17
 70
     1
102
RTVSPropertyOp18
 70
     1
102
RTVSPropertyOp19
 70
     1
102
RTVSPropertyOp20
 70
     1
102
RTVSPropertyOp21
 70
     1
102
RTVSPropertyOp22
 70
     1
102
RTVSPropertyOp23
 70
     1
102
RTVSPropertyOp24
 70
     1
102
RTVSPropertyOp25
 70
     1
102
RTVSPropertyOp26
 70
     1
102
RTVSPropertyOp27
 70
     1
102
RTVSPropertyOp28
 70
     1
102
RTVSPropertyOp29
 70
     1
102
RTVSPropertyOp30
 70
     1
102
RTVSPropertyOp31
 70
     1
102
RTVSPropertyOp32
 70
     1
102
RTVSPropertyOp33
 70
     1
102
RTVSPropertyOp34
 70
     1
102
RTVSPropertyOp35
 70
     1
102
RTVSPropertyOp36
 70
     1
102
RTVSPropertyOp37
 70
     1
102
RTVSPropertyOp38
 70
     1
102
RTVSPropertyOp39
 70
     1
102
RTVSPropertyOp40
 70
     1
102
RTVSPropertyOp41
 70
     1
102
RTVSPropertyOp42
 70
     1
102
RTVSPropertyOp43
 70
     1
102
RTVSPropertyOp44
 70
     1
102
RTVSPropertyOp45
 70
     1
102
RTVSPropertyOp46
 70
     1
102
RTVSPropertyOp47
 70
     1
102
RTVSPropertyOp48
 70
     1
102
RTVSPropertyOp49
 70
     1
102
RTVSPropertyOp50
 70
     1
102
RTVSPropertyOp51
 70
     0
102
RTVSPropertyOp52
 70
     0
102
RTVSPropertyOp53
 70
     1
102
RTVSPropertyOp54
 70
     1
102
RTVSPropertyOp55
 70
     1
102
RTVSPropertyOp56
 70
     1
102
RTVSPropertyOp57
 70
     1
102
RTVSPropertyOp58
 70
     1
102
RTVSPropertyOp59
 70
     1
102
RTVSPropertyOp60
 70
     1
102
RTVSPropertyOp61
 70
     1
102
RTVSPropertyOp62
 70
     1
  0
ENDSEC
  0
EOF
