  0
SECTION
  2
HEADER
  9
$ACADVER
  1
AC1021
  9
$ACADMAINTVER
 70
    50
  9
$DWGCODEPAGE
  3
ANSI_932
  9
$LASTSAVEDBY
  1
mino-t
  9
$INSBASE
 10
0.0
 20
0.0
 30
0.0
  9
$EXTMIN
 10
80.0
 20
-0.000000000000453
 30
0.0
  9
$EXTMAX
 10
3276.235842574539
 20
2808.0
 30
0.0
  9
$LIMMIN
 10
0.0
 20
0.0
  9
$LIMMAX
 10
2100.0
 20
2970.0
  9
$ORTHOMODE
 70
     1
  9
$REGENMODE
 70
     1
  9
$FILLMODE
 70
     1
  9
$QTEXTMODE
 70
     0
  9
$MIRRTEXT
 70
     0
  9
$LTSCALE
 40
80.0
  9
$ATTMODE
 70
     1
  9
$TEXTSIZE
 40
30.0
  9
$TRACEWID
 40
0.05
  9
$TEXTSTYLE
  7
STANDARD
  9
$CLAYER
  8
0
  9
$CELTYPE
  6
ByLayer
  9
$CECOLOR
 62
   256
  9
$CELTSCALE
 40
1.0
  9
$DISPSILH
 70
     0
  9
$DIMSCALE
 40
10.0
  9
$DIMASZ
 40
2.0
  9
$DIMEXO
 40
1.0
  9
$DIMDLI
 40
7.0
  9
$DIMRND
 40
0.0
  9
$DIMDLE
 40
0.0
  9
$DIMEXE
 40
1.8
  9
$DIMTP
 40
0.0
  9
$DIMTM
 40
0.000000001
  9
$DIMTXT
 40
3.0
  9
$DIMCEN
 40
1.0
  9
$DIMTSZ
 40
0.0
  9
$DIMTOL
 70
     0
  9
$DIMLIM
 70
     0
  9
$DIMTIH
 70
     0
  9
$DIMTOH
 70
     0
  9
$DIMSE1
 70
     0
  9
$DIMSE2
 70
     0
  9
$DIMTAD
 70
     3
  9
$DIMZIN
 70
     9
  9
$DIMBLK
  1
OPEN30
  9
$DIMASO
 70
     1
  9
$DIMSHO
 70
     1
  9
$DIMPOST
  1

  9
$DIMAPOST
  1
"
  9
$DIMALT
 70
     0
  9
$DIMALTD
 70
     2
  9
$DIMALTF
 40
0.0393701
  9
$DIMLFAC
 40
1.0
  9
$DIMTOFL
 70
     1
  9
$DIMTVP
 40
0.0
  9
$DIMTIX
 70
     0
  9
$DIMSOXD
 70
     0
  9
$DIMSAH
 70
     0
  9
$DIMBLK1
  1

  9
$DIMBLK2
  1

  9
$DIMSTYLE
  2
AM_JIS
  9
$DIMCLRD
 70
   256
  9
$DIMCLRE
 70
   256
  9
$DIMCLRT
 70
     4
  9
$DIMTFAC
 40
0.71
  9
$DIMGAP
 40
1.5
  9
$DIMJUST
 70
     0
  9
$DIMSD1
 70
     0
  9
$DIMSD2
 70
     0
  9
$DIMTOLJ
 70
     1
  9
$DIMTZIN
 70
     0
  9
$DIMALTZ
 70
     0
  9
$DIMALTTZ
 70
     0
  9
$DIMUPT
 70
     0
  9
$DIMDEC
 70
     4
  9
$DIMTDEC
 70
     4
  9
$DIMALTU
 70
     2
  9
$DIMALTTD
 70
     2
  9
$DIMTXSTY
  7
STANDARD
  9
$DIMAUNIT
 70
     0
  9
$DIMADEC
 70
     0
  9
$DIMALTRND
 40
0.0
  9
$DIMAZIN
 70
     0
  9
$DIMDSEP
 70
    46
  9
$DIMATFIT
 70
     3
  9
$DIMFRAC
 70
     0
  9
$DIMLDRBLK
  1
OPEN30
  9
$DIMLUNIT
 70
     2
  9
$DIMLWD
 70
    -2
  9
$DIMLWE
 70
    -2
  9
$DIMTMOVE
 70
     0
  9
$DIMFXL
 40
1.0
  9
$DIMFXLON
 70
     0
  9
$DIMJOGANG
 40
0.7853981633974483
  9
$DIMTFILL
 70
     0
  9
$DIMTFILLCLR
 70
     0
  9
$DIMARCSYM
 70
     0
  9
$DIMLTYPE
  6

  9
$DIMLTEX1
  6

  9
$DIMLTEX2
  6

  9
$LUNITS
 70
     2
  9
$LUPREC
 70
     3
  9
$SKETCHINC
 40
0.1
  9
$FILLETRAD
 40
0.0
  9
$AUNITS
 70
     0
  9
$AUPREC
 70
     2
  9
$MENU
  1
amecex
  9
$ELEVATION
 40
0.0
  9
$PELEVATION
 40
0.0
  9
$THICKNESS
 40
0.0
  9
$LIMCHECK
 70
     0
  9
$CHAMFERA
 40
47.37623955554609
  9
$CHAMFERB
 40
47.37623955554609
  9
$CHAMFERC
 40
0.0
  9
$CHAMFERD
 40
0.0
  9
$SKPOLY
 70
     0
  9
$TDCREATE
 40
2452793.377199074
  9
$TDUCREATE
 40
2452793.002199074
  9
$TDUPDATE
 40
2459529.740416666
  9
$TDUUPDATE
 40
2459529.365416667
  9
$TDINDWG
 40
0.3691828009
  9
$TDUSRTIMER
 40
0.3691810764
  9
$USRTIMER
 70
     1
  9
$ANGBASE
 50
0.0
  9
$ANGDIR
 70
     0
  9
$PDMODE
 70
     0
  9
$PDSIZE
 40
0.0
  9
$PLINEWID
 40
0.0
  9
$SPLFRAME
 70
     0
  9
$SPLINETYPE
 70
     6
  9
$SPLINESEGS
 70
     8
  9
$HANDSEED
  5
4A1A
  9
$SURFTAB1
 70
     6
  9
$SURFTAB2
 70
     6
  9
$SURFTYPE
 70
     6
  9
$SURFU
 70
     6
  9
$SURFV
 70
     6
  9
$UCSBASE
  2

  9
$UCSNAME
  2

  9
$UCSORG
 10
0.0
 20
0.0
 30
0.0
  9
$UCSXDIR
 10
1.0
 20
0.0
 30
0.0
  9
$UCSYDIR
 10
0.0
 20
1.0
 30
0.0
  9
$UCSORTHOREF
  2

  9
$UCSORTHOVIEW
 70
     0
  9
$UCSORGTOP
 10
0.0
 20
0.0
 30
0.0
  9
$UCSORGBOTTOM
 10
0.0
 20
0.0
 30
0.0
  9
$UCSORGLEFT
 10
0.0
 20
0.0
 30
0.0
  9
$UCSORGRIGHT
 10
0.0
 20
0.0
 30
0.0
  9
$UCSORGFRONT
 10
0.0
 20
0.0
 30
0.0
  9
$UCSORGBACK
 10
0.0
 20
0.0
 30
0.0
  9
$PUCSBASE
  2

  9
$PUCSNAME
  2

  9
$PUCSORG
 10
0.0
 20
0.0
 30
0.0
  9
$PUCSXDIR
 10
1.0
 20
0.0
 30
0.0
  9
$PUCSYDIR
 10
0.0
 20
1.0
 30
0.0
  9
$PUCSORTHOREF
  2

  9
$PUCSORTHOVIEW
 70
     0
  9
$PUCSORGTOP
 10
0.0
 20
0.0
 30
0.0
  9
$PUCSORGBOTTOM
 10
0.0
 20
0.0
 30
0.0
  9
$PUCSORGLEFT
 10
0.0
 20
0.0
 30
0.0
  9
$PUCSORGRIGHT
 10
0.0
 20
0.0
 30
0.0
  9
$PUCSORGFRONT
 10
0.0
 20
0.0
 30
0.0
  9
$PUCSORGBACK
 10
0.0
 20
0.0
 30
0.0
  9
$USERI1
 70
     0
  9
$USERI2
 70
     0
  9
$USERI3
 70
     0
  9
$USERI4
 70
     0
  9
$USERI5
 70
     0
  9
$USERR1
 40
30.0
  9
$USERR2
 40
0.0
  9
$USERR3
 40
0.0
  9
$USERR4
 40
0.0
  9
$USERR5
 40
0.0
  9
$WORLDVIEW
 70
     1
  9
$SHADEDGE
 70
     3
  9
$SHADEDIF
 70
    70
  9
$TILEMODE
 70
     1
  9
$MAXACTVP
 70
    16
  9
$PINSBASE
 10
0.0
 20
0.0
 30
0.0
  9
$PLIMCHECK
 70
     0
  9
$PEXTMIN
 10
1.000000000000000E+20
 20
1.000000000000000E+20
 30
1.000000000000000E+20
  9
$PEXTMAX
 10
-1.000000000000000E+20
 20
-1.000000000000000E+20
 30
-1.000000000000000E+20
  9
$PLIMMIN
 10
0.0
 20
0.0
  9
$PLIMMAX
 10
12.0
 20
9.0
  9
$UNITMODE
 70
     0
  9
$VISRETAIN
 70
     0
  9
$PLINEGEN
 70
     0
  9
$PSLTSCALE
 70
     0
  9
$TREEDEPTH
 70
  3020
  9
$CMLSTYLE
  2
Standard
  9
$CMLJUST
 70
     0
  9
$CMLSCALE
 40
1.0
  9
$PROXYGRAPHICS
 70
     1
  9
$MEASUREMENT
 70
     0
  9
$CELWEIGHT
370
    -1
  9
$ENDCAPS
280
     0
  9
$JOINSTYLE
280
     0
  9
$LWDISPLAY
290
     0
  9
$INSUNITS
 70
     0
  9
$HYPERLINKBASE
  1

  9
$STYLESHEET
  1

  9
$XEDIT
290
     1
  9
$CEPSNTYPE
380
     0
  9
$PSTYLEMODE
290
     1
  9
$FINGERPRINTGUID
  2
{DE8AEACE-4725-404E-95D1-9122127B51B9}
  9
$VERSIONGUID
  2
{5039E21C-8628-DE4D-93FA-0FDFAF7B6A8D}
  9
$EXTNAMES
290
     1
  9
$PSVPSCALE
 40
0.0
  9
$OLESTARTUP
290
     0
  9
$SORTENTS
280
   127
  9
$INDEXCTL
280
     0
  9
$HIDETEXT
280
     0
  9
$XCLIPFRAME
290
     0
  9
$HALOGAP
280
     0
  9
$OBSCOLOR
 70
   257
  9
$OBSLTYPE
280
     0
  9
$INTERSECTIONDISPLAY
280
     0
  9
$INTERSECTIONCOLOR
 70
   257
  9
$DIMASSOC
280
     1
  9
$PROJECTNAME
  1

  9
$CAMERADISPLAY
290
     0
  9
$LENSLENGTH
 40
50.0
  9
$CAMERAHEIGHT
 40
0.0
  9
$STEPSPERSEC
 40
2.0
  9
$STEPSIZE
 40
6.0
  9
$3DDWFPREC
 40
2.0
  9
$PSOLWIDTH
 40
0.25
  9
$PSOLHEIGHT
 40
4.0
  9
$LOFTANG1
 40
1.570796326794896
  9
$LOFTANG2
 40
1.570796326794896
  9
$LOFTMAG1
 40
0.0
  9
$LOFTMAG2
 40
0.0
  9
$LOFTPARAM
 70
     7
  9
$LOFTNORMALS
280
     1
  9
$LATITUDE
 40
37.795
  9
$LONGITUDE
 40
-122.394
  9
$NORTHDIRECTION
 40
0.0
  9
$TIMEZONE
 70
 -8000
  9
$LIGHTGLYPHDISPLAY
280
     1
  9
$TILEMODELIGHTSYNCH
280
     1
  9
$CMATERIAL
347
445B
  9
$SOLIDHIST
280
     0
  9
$SHOWHIST
280
     1
  9
$DWFFRAME
280
     2
  9
$DGNFRAME
280
     0
  9
$REALWORLDSCALE
290
     1
  9
$INTERFERECOLOR
 62
     1
  9
$INTERFEREOBJVS
345
447D
  9
$INTERFEREVPVS
346
447A
  9
$CSHADOW
280
     0
  9
$SHADOWPLANELOCATION
 40
0.0
  0
ENDSEC
  0
SECTION
  2
CLASSES
  0
CLASS
  1
ACDBDICTIONARYWDFLT
  2
AcDbDictionaryWithDefault
  3
ObjectDBX Classes
 90
        0
 91
        1
280
     0
281
     0
  0
CLASS
  1
MATERIAL
  2
AcDbMaterial
  3
ObjectDBX Classes
 90
     1153
 91
        3
280
     0
281
     0
  0
CLASS
  1
VISUALSTYLE
  2
AcDbVisualStyle
  3
ObjectDBX Classes
 90
     4095
 91
       24
280
     0
281
     0
  0
CLASS
  1
SCALE
  2
AcDbScale
  3
ObjectDBX Classes
 90
     1153
 91
       17
280
     0
281
     0
  0
CLASS
  1
TABLESTYLE
  2
AcDbTableStyle
  3
ObjectDBX Classes
 90
     4095
 91
        1
280
     0
281
     0
  0
CLASS
  1
MLEADERSTYLE
  2
AcDbMLeaderStyle
  3
ACDB_MLEADERSTYLE_CLASS
 90
     4095
 91
        1
280
     0
281
     0
  0
CLASS
  1
ACDBSECTIONVIEWSTYLE
  2
AcDbSectionViewStyle
  3
ObjectDBX Classes
 90
     1025
 91
        5
280
     0
281
     0
  0
CLASS
  1
ACDBDETAILVIEWSTYLE
  2
AcDbDetailViewStyle
  3
ObjectDBX Classes
 90
     1025
 91
        5
280
     0
281
     0
  0
CLASS
  1
AMGSETTINGSOBJ
  2
AmgSettingsObj
  3
"AcadM|Product Description: AutoCAD Mechanical|Company: Autodesk, Inc."
 90
     1024
 91
        2
280
     0
281
     0
  0
CLASS
  1
ACME_DOCUMENT
  2
AcMeDbDoc
  3
AcMeServices
 90
     1024
 91
        1
280
     0
281
     0
  0
CLASS
  1
ACMESCOPE
  2
AcMeScope
  3
AcMeServices
 90
     1024
 91
        1
280
     0
281
     0
  0
CLASS
  1
ACMECOMMANDHISTORY
  2
AcMeCommandHistory
  3
AcMeServices
 90
     1024
 91
        1
280
     0
281
     0
  0
CLASS
  1
ACIMSYSVARMAN
  2
AcImSysVarManager
  3
AcMeServices
 90
     1024
 91
        3
280
     0
281
     0
  0
CLASS
  1
ACIMINTSYSVAR
  2
AcImIntSysVar
  3
AcMeServices
 90
     1024
 91
        2
280
     0
281
     0
  0
CLASS
  1
ACMESTATEMGR
  2
AcMeStateMgr
  3
AcMeServices
 90
     1024
 91
        1
280
     0
281
     0
  0
CLASS
  1
ACDBENTITYCACHE
  2
AcMeEntityCache
  3
AcMeServices
 90
     1024
 91
        1
280
     0
281
     0
  0
CLASS
  1
ACGREFMASTER
  2
AcGrefMaster
  3
AcAttribServices
 90
     1024
 91
        1
280
     0
281
     0
  0
CLASS
  1
ACME_DATABASE
  2
AcMeDbDatabase
  3
AcMeServices
 90
     1024
 91
        2
280
     0
281
     0
  0
CLASS
  1
ACRFINSADJUSTERMGR
  2
AcRfInsAdjusterMgr
  3
AcMeServices
 90
     1024
 91
        1
280
     0
281
     0
  0
CLASS
  1
ACGREFACADMASTER
  2
AcGrefacadMaster
  3
AcGrefServices
 90
     1024
 91
        1
280
     0
281
     0
  0
CLASS
  1
AMIMASTER
  2
AmiMaster
  3
AmiServices
 90
     1024
 91
        1
280
     0
281
     0
  0
CLASS
  1
AMDTMENUSTATEMGR
  2
AmdtMenuStateMgr
  3
McadcomServices
 90
     1024
 91
        1
280
     0
281
     0
  0
CLASS
  1
AMDTMCOMMENUSTATE
  2
AmdtMcomMenuState
  3
McadcomServices
 90
     1024
 91
        1
280
     0
281
     0
  0
CLASS
  1
MAPIAMMOUDLE
  2
MApiAmModule
  3
MApiAmServices
 90
     1024
 91
        1
280
     0
281
     0
  0
CLASS
  1
ACIMSTRSYSVAR
  2
AcImStrSysVar
  3
AcMeServices
 90
     1024
 91
        5
280
     0
281
     0
  0
CLASS
  1
AMDTAMMENUSTATE
  2
AmdtAmMenuState
  3
DesignerAssemblies_arx
 90
     1024
 91
        1
280
     0
281
     0
  0
CLASS
  1
ACAMPROJECT
  2
AcAmProject
  3
DesignerAssemblies
 90
     1024
 91
        1
280
     0
281
     0
  0
CLASS
  1
ACAMGRCOMPDEF
  2
AcAmGrCompDef
  3
DesignerAssemblies
 90
     1024
 91
        1
280
     0
281
     0
  0
CLASS
  1
ACAMCOMPDEF
  2
AcAmCompDef
  3
DesignerAssemblies
 90
     1024
 91
        1
280
     0
281
     0
  0
CLASS
  1
ACAMCOMPDEFMGR
  2
AcAmCompDefMgr
  3
DesignerAssemblies
 90
     1024
 91
        1
280
     0
281
     0
  0
CLASS
  1
AMCONTEXTMGR
  2
AcAmContextMgr
  3
DesignerAssemblies
 90
     1024
 91
        1
280
     0
281
     0
  0
CLASS
  1
ACAMCONTEXTMODELER
  2
AcAmContextModeler
  3
DesignerAssemblies
 90
     1024
 91
        1
280
     0
281
     0
  0
CLASS
  1
ACMDATADICTIONARY
  2
AcmDataDictionary
  3
"AcmSymBB|Product Description: AutoCAD Mechanical|Company: Autodesk, Inc."
 90
     1024
 91
        1
280
     0
281
     0
  0
CLASS
  1
ACAMGRCOMPDEFSET
  2
AcAmGrCompDefSet
  3
DesignerAssemblies
 90
     1024
 91
        1
280
     0
281
     0
  0
CLASS
  1
AMDTBROWSERDBTAB
  2
AmdtBrowserDbTab
  3
McadcomServices
 90
     1024
 91
        1
280
     0
281
     0
  0
CLASS
  1
CBROWSERAPPOBJECT
  2
CBrowserAppObject
  3
McadcomServices
 90
     1024
 91
        2
280
     0
281
     0
  0
CLASS
  1
DM_PLACEHOLDER
  2
AcDmSelsetPlaceholder
  3
McadcomServices
 90
     1024
 91
        1
280
     0
281
     0
  0
CLASS
  1
ACMSTANDARDANSI
  2
AcmStandardANSI
  3
"Amdt_StdImp|Product Description: AutoCAD Mechanical|Company: Autodesk, Inc."
 90
     1024
 91
        1
280
     0
281
     0
  0
CLASS
  1
ACMSURFSTANDARDANSI
  2
AcmSurfTextStdANSI
  3
"Amdt_StdImp|Product Description: AutoCAD Mechanical|Company: Autodesk, Inc."
 90
     1024
 91
        1
280
     0
281
     0
  0
CLASS
  1
ACMFCFSTANDARDANSI
  2
AcmFCFStdANSI
  3
"Amdt_StdImp|Product Description: AutoCAD Mechanical|Company: Autodesk, Inc."
 90
     1024
 91
        1
280
     0
281
     0
  0
CLASS
  1
ACMWELDSTANDARDANSI
  2
AcmWeldingStdANSI
  3
"Amdt_StdImp|Product Description: AutoCAD Mechanical|Company: Autodesk, Inc."
 90
     1024
 91
        1
280
     0
281
     0
  0
CLASS
  1
ACMIDSTANDARDANSI
  2
AcmIdStdANSI
  3
"Amdt_StdImp|Product Description: AutoCAD Mechanical|Company: Autodesk, Inc."
 90
     1024
 91
        1
280
     0
281
     0
  0
CLASS
  1
ACMDATUMSTANDARDANSI
  2
AcmDatumStdANSI
  3
"Amdt_StdImp|Product Description: AutoCAD Mechanical|Company: Autodesk, Inc."
 90
     1024
 91
        1
280
     0
281
     0
  0
CLASS
  1
ACMBOMSTANDARDANSI
  2
AcmBOMStdANSI
  3
"Amdt_StdImp|Product Description: AutoCAD Mechanical|Company: Autodesk, Inc."
 90
     1024
 91
        1
280
     0
281
     0
  0
CLASS
  1
ACMDETAILSTANDARDANSI
  2
AmdtDetailSymStdANSI
  3
"Amdt_StdImp|Product Description: AutoCAD Mechanical|Company: Autodesk, Inc."
 90
     1024
 91
        1
280
     0
281
     0
  0
CLASS
  1
ACMSECTIONSTANDARDANSI
  2
AmdtSectionSymStdANSI
  3
"Amdt_StdImp|Product Description: AutoCAD Mechanical|Company: Autodesk, Inc."
 90
     1024
 91
        1
280
     0
281
     0
  0
CLASS
  1
ACMCENTERLINESTANDARDANSI
  2
AmdtCenterLineStdANSI
  3
"Amdt_StdImp|Product Description: AutoCAD Mechanical|Company: Autodesk, Inc."
 90
     1024
 91
        1
280
     0
281
     0
  0
CLASS
  1
ACMTHREADLINESTANDARDANSI
  2
AmdtThreadLineStdANSI
  3
"Amdt_StdImp|Product Description: AutoCAD Mechanical|Company: Autodesk, Inc."
 90
     1024
 91
        1
280
     0
281
     0
  0
CLASS
  1
ACMNOTESTANDARDANSI
  2
AmdtNoteStdANSI
  3
"Amdt_StdImp|Product Description: AutoCAD Mechanical|Company: Autodesk, Inc."
 90
     1024
 91
        1
280
     0
281
     0
  0
CLASS
  1
ACMTAPERSTANDARDANSI
  2
AcmTaperStdANSI
  3
"Amdt_StdImp|Product Description: AutoCAD Mechanical|Company: Autodesk, Inc."
 90
     1024
 91
        1
280
     0
281
     0
  0
CLASS
  1
ACMANOOTATIONVIEWSTANDARDANSI
  2
AmdtAnViewStdANSI
  3
"Amdt_StdImp|Product Description: AutoCAD Mechanical|Company: Autodesk, Inc."
 90
     1024
 91
        1
280
     0
281
     0
  0
CLASS
  1
ACAMGLAYSTD
  2
AcAmgLayStd
  3
"AmgLay|Product Description: AutoCAD Mechanical|Company: Autodesk, Inc."
 90
     1024
 91
        2
280
     0
281
     0
  0
CLASS
  1
ACAMGTITLESTD
  2
AcAmgTitleStd
  3
"AmgTitle|Product Description: AutoCAD Mechanical|Company: Autodesk, Inc."
 90
     1024
 91
        2
280
     0
281
     0
  0
CLASS
  1
ACAMGDIMSTD
  2
AcAmgDimStd
  3
"AmgDim|Product Description: AutoCAD Mechanical|Company: Autodesk, Inc."
 90
     1024
 91
        2
280
     0
281
     0
  0
CLASS
  1
ACAMGHOLECHARTSTDANSI
  2
AcAmgHoleChartStdANSI
  3
"AmgDim" "Product Description: AutoCAD Mechanical|Company: Autodesk, Inc."
 90
     1024
 91
        1
280
     0
281
     0
  0
CLASS
  1
AMGOBJPROPCFG
  2
AmgObjPropCfg
  3
"AmgLay|Product Description: AutoCAD Mechanical|Company: Autodesk, Inc."
 90
     1024
 91
        1
280
     0
281
     0
  0
CLASS
  1
ACMSECTIONSTANDARDCUSTOM
  2
AmdtSectionSymStdCustom
  3
"Amdt_StdImp|Product Description: AutoCAD Mechanical|Company: Autodesk, Inc."
 90
     1024
 91
        6
280
     0
281
     0
  0
CLASS
  1
ACMDETAILTANDARDCUSTOM
  2
AmdtDetailSymStdCustom
  3
"Amdt_StdImp|Product Description: AutoCAD Mechanical|Company: Autodesk, Inc."
 90
     1024
 91
        6
280
     0
281
     0
  0
CLASS
  1
FIELD
  2
AcDbField
  3
ObjectDBX Classes
 90
     1152
 91
       14
280
     0
281
     0
  0
CLASS
  1
FIELDLIST
  2
AcDbFieldList
  3
ObjectDBX Classes
 90
     1152
 91
        1
280
     0
281
     0
  0
CLASS
  1
AMDTNOTETEMPLATEDB
  2
AmdtNoteTemplateDB
  3
"AcmSymBB" "Product Description: AutoCAD Mechanical|Company: Autodesk, Inc."
 90
     1024
 91
       17
280
     0
281
     0
  0
CLASS
  1
ACAMGFILTERDAT
  2
AcAmgFilterDat
  3
"AcadM|Product Description: AutoCAD Mechanical|Company: Autodesk, Inc."
 90
     1024
 91
        0
280
     0
281
     0
  0
CLASS
  1
SORTENTSTABLE
  2
AcDbSortentsTable
  3
ObjectDBX Classes
 90
        0
 91
        2
280
     0
281
     0
  0
CLASS
  1
DICTIONARYVAR
  2
AcDbDictionaryVar
  3
ObjectDBX Classes
 90
        0
 91
       11
280
     0
281
     0
  0
CLASS
  1
CELLSTYLEMAP
  2
AcDbCellStyleMap
  3
ObjectDBX Classes
 90
     1152
 91
        2
280
     0
281
     0
  0
CLASS
  1
ACMSTANDARDJIS
  2
AcmStandardJIS
  3
"Amdt_StdImp|Product Description: AutoCAD Mechanical|Company: Autodesk, Inc."
 90
     1024
 91
        1
280
     0
281
     0
  0
CLASS
  1
ACMSURFSTANDARDJIS2003
  2
AcmSurfTextStdJIS2003
  3
"Amdt_StdImp|Product Description: AutoCAD Mechanical|Company: Autodesk, Inc."
 90
     1024
 91
        1
280
     0
281
     0
  0
CLASS
  1
ACMFCFSTANDARDJIS98
  2
AcmFCFStdJIS98
  3
"Amdt_StdImp|Product Description: AutoCAD Mechanical|Company: Autodesk, Inc."
 90
     1024
 91
        1
280
     0
281
     0
  0
CLASS
  1
ACMWELDSTANDARDJIS
  2
AcmWeldingStdJIS
  3
"Amdt_StdImp|Product Description: AutoCAD Mechanical|Company: Autodesk, Inc."
 90
     1024
 91
        1
280
     0
281
     0
  0
CLASS
  1
ACMIDSTANDARDJIS1998
  2
AcmIdStdJIS1998
  3
"Amdt_StdImp|Product Description: AutoCAD Mechanical|Company: Autodesk, Inc."
 90
     1024
 91
        1
280
     0
281
     0
  0
CLASS
  1
ACMDATUMSTANDARDJIS
  2
AcmDatumStdJIS
  3
"Amdt_StdImp|Product Description: AutoCAD Mechanical|Company: Autodesk, Inc."
 90
     1024
 91
        1
280
     0
281
     0
  0
CLASS
  1
ACMBOMSTANDARDJIS
  2
AcmBOMStdJIS
  3
"Amdt_StdImp|Product Description: AutoCAD Mechanical|Company: Autodesk, Inc."
 90
     1024
 91
        1
280
     0
281
     0
  0
CLASS
  1
ACMDETAILSTANDARDJIS
  2
AmdtDetailSymStdJIS
  3
"Amdt_StdImp|Product Description: AutoCAD Mechanical|Company: Autodesk, Inc."
 90
     1024
 91
        1
280
     0
281
     0
  0
CLASS
  1
ACMSECTIONSTANDARDJIS
  2
AmdtSectionSymStdJIS
  3
"Amdt_StdImp|Product Description: AutoCAD Mechanical|Company: Autodesk, Inc."
 90
     1024
 91
        1
280
     0
281
     0
  0
CLASS
  1
ACMCENTERLINESTANDARDJIS
  2
AmdtCenterLineStdJIS
  3
"Amdt_StdImp|Product Description: AutoCAD Mechanical|Company: Autodesk, Inc."
 90
     1024
 91
        1
280
     0
281
     0
  0
CLASS
  1
ACMTHREADLINESTANDARDJIS
  2
AmdtThreadLineStdJIS
  3
"Amdt_StdImp|Product Description: AutoCAD Mechanical|Company: Autodesk, Inc."
 90
     1024
 91
        1
280
     0
281
     0
  0
CLASS
  1
ACMNOTESTANDARDJIS
  2
AmdtNoteStdJIS
  3
"Amdt_StdImp|Product Description: AutoCAD Mechanical|Company: Autodesk, Inc."
 90
     1024
 91
        1
280
     0
281
     0
  0
CLASS
  1
ACMTAPERSTANDARDJIS
  2
AcmTaperStdJIS
  3
"Amdt_StdImp|Product Description: AutoCAD Mechanical|Company: Autodesk, Inc."
 90
     1024
 91
        1
280
     0
281
     0
  0
CLASS
  1
ACMANOOTATIONVIEWSTANDARDJIS
  2
AmdtAnViewStdJIS
  3
"Amdt_StdImp|Product Description: AutoCAD Mechanical|Company: Autodesk, Inc."
 90
     1024
 91
        1
280
     0
281
     0
  0
CLASS
  1
AMDTEDGESTANDARDJIS
  2
AmdtEdgeStdJIS
  3
"Amdt_StdImp|Product Description: AutoCAD Mechanical|Company: Autodesk, Inc."
 90
     1024
 91
        1
280
     0
281
     0
  0
CLASS
  1
ACAMGHOLECHARTSTDJIS
  2
AcAmgHoleChartStdJIS
  3
"AmgDim" "Product Description: AutoCAD Mechanical|Company: Autodesk, Inc."
 90
     1024
 91
        1
280
     0
281
     0
  0
ENDSEC
  0
SECTION
  2
TABLES
  0
TABLE
  2
VPORT
  5
4452
330
0
100
AcDbSymbolTable
 70
     1
  0
VPORT
  5
44BD
330
4452
100
AcDbSymbolTableRecord
100
AcDbViewportTableRecord
  2
*ACTIVE
 70
     0
 10
0.0
 20
0.0
 11
1.0
 21
1.0
 12
2425.178924532898
 22
1248.851172167435
 13
0.0
 23
0.0
 14
1.0
 24
1.0
 15
0.0
 25
0.0
 16
0.0
 26
0.0
 36
1.0
 17
0.0
 27
0.0
 37
0.0
 40
4315.208019422773
 41
1.887694145758661
 42
50.0
 43
0.0
 44
0.0
 50
0.0
 51
0.0
 71
     0
 72
   100
 73
     1
 74
     1
 75
     0
 76
     0
 77
     0
 78
     0
281
     0
 65
     0
110
0.0
120
0.0
130
0.0
111
1.0
121
0.0
131
0.0
112
0.0
122
1.0
132
0.0
 79
     0
146
0.0
348
4479
 60
     3
 61
     5
292
     1
282
     0
141
0.0
142
0.0
 63
   250
421
  3355443
1001
ACAD_NAV_VCDISPLAY
1070
     3
  0
ENDTAB
  0
TABLE
  2
LTYPE
  5
444F
330
0
100
AcDbSymbolTable
 70
    19
  0
LTYPE
  5
44A4
330
444F
100
AcDbSymbolTableRecord
100
AcDbLinetypeTableRecord
  2
ByBlock
 70
     0
  3

 72
    65
 73
     0
 40
0.0
  0
LTYPE
  5
44A5
330
444F
100
AcDbSymbolTableRecord
100
AcDbLinetypeTableRecord
  2
ByLayer
 70
     0
  3

 72
    65
 73
     0
 40
0.0
  0
LTYPE
  5
44A6
330
444F
100
AcDbSymbolTableRecord
100
AcDbLinetypeTableRecord
  2
CONTINUOUS
 70
     0
  3
実線
 72
    65
 73
     0
 40
0.0
  0
LTYPE
  5
44BE
330
444F
100
AcDbSymbolTableRecord
100
AcDbLinetypeTableRecord
  2
HIDDEN
 70
     0
  3
Hidden __ __ __ __ __ __ __ __ __ __ __ __ __ _
 72
    65
 73
     2
 40
9.524999999999996
 49
6.349999999999997
 74
     0
 49
-3.174999999999998
 74
     0
  0
LTYPE
  5
44BF
330
444F
100
AcDbSymbolTableRecord
100
AcDbLinetypeTableRecord
  2
CENTER
 70
     0
  3
Center ____ _ ____ _ ____ _ ____ _ ____ _ ____
 72
    65
 73
     4
 40
50.8
 49
31.75
 74
     0
 49
-6.349999999999997
 74
     0
 49
6.349999999999997
 74
     0
 49
-6.349999999999997
 74
     0
  0
LTYPE
  5
44C0
330
444F
100
AcDbSymbolTableRecord
100
AcDbLinetypeTableRecord
  2
PHANTOM2
 70
     0
  3
Phantom (.5x) ___ _ _ ___ _ _ ___ _ _ ___ _ _
 72
    65
 73
     6
 40
31.75
 49
15.875
 74
     0
 49
-3.174999999999998
 74
     0
 49
3.174999999999998
 74
     0
 49
-3.174999999999998
 74
     0
 49
3.174999999999998
 74
     0
 49
-3.174999999999998
 74
     0
  0
LTYPE
  5
44C1
330
444F
100
AcDbSymbolTableRecord
100
AcDbLinetypeTableRecord
  2
AMCONSTR
 70
     0
  3
_______________________
 72
    65
 73
     2
 40
9999.0
 49
9999.0
 74
     0
 49
0.0
 74
     0
  0
LTYPE
  5
44CA
330
444F
100
AcDbSymbolTableRecord
100
AcDbLinetypeTableRecord
  2
HIDDEN2
 70
     0
  3
_ _ _ _ _ _ _ _ _ _ _ _ _ _ _ _ _ _ _ _ _ _ _ _
 72
    65
 73
     2
 40
0.1875
 49
0.125
 74
     0
 49
-0.0625
 74
     0
  0
LTYPE
  5
44CB
330
444F
100
AcDbSymbolTableRecord
100
AcDbLinetypeTableRecord
  2
CENTER2
 70
     0
  3
Center (.5x) ___ _ ___ _ ___ _ ___ _ ___ _ ___
 72
    65
 73
     4
 40
1.125
 49
0.75
 74
     0
 49
-0.125
 74
     0
 49
0.125
 74
     0
 49
-0.125
 74
     0
  0
LTYPE
  5
44CC
330
444F
100
AcDbSymbolTableRecord
100
AcDbLinetypeTableRecord
  2
AMZIGZAG2
 70
     0
  3
/\/-/\/-/\/-/\/-/\/-/\/
 72
    65
 73
     2
 40
0.4401
 49
0.0001
 74
     0
 49
-0.4400000000000003
 74
     0
  0
LTYPE
  5
44CD
330
444F
100
AcDbSymbolTableRecord
100
AcDbLinetypeTableRecord
  2
ACANSTGB
 70
     0
  3
__ . . __ . .
 72
    65
 73
     6
 40
0.35433070866
 49
0.15748031496
 74
     0
 49
-0.03937007874
 74
     0
 49
0.03937007874
 74
     0
 49
-0.03937007874
 74
     0
 49
0.03937007874
 74
     0
 49
-0.03937007874
 74
     0
  0
LTYPE
  5
44CE
330
444F
100
AcDbSymbolTableRecord
100
AcDbLinetypeTableRecord
  2
ACANSTGL
 70
     0
  3
_ _ _ _ _
 72
    65
 73
     2
 40
0.11811023622
 49
0.07874015748
 74
     0
 49
-0.03937007874
 74
     0
  0
LTYPE
  5
47F3
330
444F
100
AcDbSymbolTableRecord
100
AcDbLinetypeTableRecord
  2
AM_ISO02W050
 70
     0
  3
__ __ __ __ __ __ __ __ __ __ __ __ __ __ __
 72
    65
 73
     2
 40
7.5
 49
6.0
 74
     0
 49
-1.5
 74
     0
  0
LTYPE
  5
47F4
330
444F
100
AcDbSymbolTableRecord
100
AcDbLinetypeTableRecord
  2
AM_ISO08W050
 70
     0
  3
____ . ____ . ____ . ____ . ____ . ____ . ____
 72
    65
 73
     4
 40
18.0
 49
12.0
 74
     0
 49
-1.5
 74
     0
 49
3.0
 74
     0
 49
-1.5
 74
     0
  0
LTYPE
  5
47F6
330
444F
100
AcDbSymbolTableRecord
100
AcDbLinetypeTableRecord
  2
AM_ISO08W050x2
 70
     0
  3
__ . __ . __ . __ . __ . __
 72
    65
 73
     4
 40
9.0
 49
6.0
 74
     0
 49
-0.75
 74
     0
 49
1.5
 74
     0
 49
-0.75
 74
     0
  0
LTYPE
  5
47F7
330
444F
100
AcDbSymbolTableRecord
100
AcDbLinetypeTableRecord
  2
AM_ISO02W050x2
 70
     0
  3
 _ _ _ _ _ _ _ _ _ _ _ _
 72
    65
 73
     2
 40
3.75
 49
3.0
 74
     0
 49
-0.75
 74
     0
  0
LTYPE
  5
47FA
330
444F
100
AcDbSymbolTableRecord
100
AcDbLinetypeTableRecord
  2
Amzigzag
 70
     0
  3
/\/-/\/-/\/-/\/-/\/-/\/
 72
    65
 73
     2
 40
11.0001
 49
0.0001
 74
     4
 75
   136
340
47F9
 46
0.04
 50
0.0
 44
0.0
 45
0.0
 49
-11.0
 74
     0
  0
LTYPE
  5
48E0
330
444F
100
AcDbSymbolTableRecord
100
AcDbLinetypeTableRecord
  2
ACJISWELD
 70
     0
  3
_ _ _ _ _
 72
    65
 73
     2
 40
2.0
 49
2.0
 74
     0
 49
-1.0
 74
     0
  0
LTYPE
  5
48E1
330
444F
100
AcDbSymbolTableRecord
100
AcDbLinetypeTableRecord
  2
ACJISTGL
 70
     0
  3
_ _ _ _ _
 72
    65
 73
     2
 40
3.0
 49
2.0
 74
     0
 49
-1.0
 74
     0
  0
LTYPE
  5
48E2
330
444F
100
AcDbSymbolTableRecord
100
AcDbLinetypeTableRecord
  2
ACJISTGB
 70
     0
  3
__ . . __ . .
 72
    65
 73
     6
 40
9.0
 49
4.0
 74
     0
 49
-1.0
 74
     0
 49
1.0
 74
     0
 49
-1.0
 74
     0
 49
1.0
 74
     0
 49
-1.0
 74
     0
  0
ENDTAB
  0
TABLE
  2
LAYER
  5
444C
102
{ACAD_XDICTIONARY
360
48F3
102
}
330
0
100
AcDbSymbolTable
 70
     6
  0
LAYER
  5
449E
102
{ACAD_XDICTIONARY
360
4769
102
}
330
444C
100
AcDbSymbolTableRecord
100
AcDbLayerTableRecord
  2
0
 70
     0
 62
     7
  6
CONTINUOUS
370
    -3
390
4459
347
446B
  0
LAYER
  5
44D4
102
{ACAD_XDICTIONARY
360
476B
102
}
330
444C
100
AcDbSymbolTableRecord
100
AcDbLayerTableRecord
  2
1
 70
     0
 62
     4
  6
CONTINUOUS
370
    -3
390
4459
347
446B
  0
LAYER
  5
44D5
330
444C
100
AcDbSymbolTableRecord
100
AcDbLayerTableRecord
  2
DEFPOINTS
 70
     0
 62
     7
  6
CONTINUOUS
290
     0
370
    -3
390
4459
347
446B
  0
ENDTAB
  0
TABLE
  2
STYLE
  5
444D
330
0
100
AcDbSymbolTable
 70
     6
  0
STYLE
  5
449F
330
444D
100
AcDbSymbolTableRecord
100
AcDbTextStyleTableRecord
  2
STANDARD
 70
     0
 40
0.0
 41
1.0
 50
0.0
 71
     0
 42
30.0
  3
TXT
  4
BIGFONT
  0
STYLE
  5
44D6
330
444D
100
AcDbSymbolTableRecord
100
AcDbTextStyleTableRecord
  2
MONO-SET
 70
     0
 40
0.0
 41
1.0
 50
0.0
 71
     0
 42
0.2
  3
MONOTXT
  4
BIGFONT
  0
STYLE
  5
44D8
330
444D
100
AcDbSymbolTableRecord
100
AcDbTextStyleTableRecord
  2
ACANSGDT
 70
     0
 40
0.0
 41
1.0
 50
0.0
 71
     0
 42
60.0
  3
amgdt.shx
  4

  0
STYLE
  5
47F9
330
444D
100
AcDbSymbolTableRecord
100
AcDbTextStyleTableRecord
  2

 70
     1
 40
0.0
 41
1.0
 50
0.0
 71
     0
 42
30.0
  3
genltshp.shx
  4

  0
STYLE
  5
48E9
330
444D
100
AcDbSymbolTableRecord
100
AcDbTextStyleTableRecord
  2
ACJISGDT
 70
     0
 40
0.0
 41
1.0
 50
0.0
 71
     0
 42
2.5
  3
amgdt.shx
  4
extfont2.shx
  0
ENDTAB
  0
TABLE
  2
VIEW
  5
4450
330
0
100
AcDbSymbolTable
 70
     0
  0
ENDTAB
  0
TABLE
  2
UCS
  5
4451
330
0
100
AcDbSymbolTable
 70
     0
  0
ENDTAB
  0
TABLE
  2
APPID
  5
4453
330
0
100
AcDbSymbolTable
 70
    50
  0
APPID
  5
44A0
330
4453
100
AcDbSymbolTableRecord
100
AcDbRegAppTableRecord
  2
ACAD
 70
     0
  0
APPID
  5
44A7
330
4453
100
AcDbSymbolTableRecord
100
AcDbRegAppTableRecord
  2
ACADANNOTATIVE
 70
     0
  0
APPID
  5
44DA
330
4453
100
AcDbSymbolTableRecord
100
AcDbRegAppTableRecord
  2
ACE-LT__COPYRIGHT_TRIALSOFT-JPN
 70
     0
  0
APPID
  5
44DB
330
4453
100
AcDbSymbolTableRecord
100
AcDbRegAppTableRecord
  2
MCAD_NO_VIS
 70
     0
  0
APPID
  5
44DC
330
4453
100
AcDbSymbolTableRecord
100
AcDbRegAppTableRecord
  2
ACAD_TEMP_GRAPHIC
 70
     0
  0
APPID
  5
44DD
330
4453
100
AcDbSymbolTableRecord
100
AcDbRegAppTableRecord
  2
ACAD_PSEXT
 70
     0
  0
APPID
  5
44DE
330
4453
100
AcDbSymbolTableRecord
100
AcDbRegAppTableRecord
  2
ACADANNOPO
 70
     0
  0
APPID
  5
44DF
330
4453
100
AcDbSymbolTableRecord
100
AcDbRegAppTableRecord
  2
ACAD_DSTYLE_DIMJAG
 70
     0
  0
APPID
  5
44E0
330
4453
100
AcDbSymbolTableRecord
100
AcDbRegAppTableRecord
  2
ACAD_DSTYLE_DIMTALN
 70
     0
  0
APPID
  5
44E1
330
4453
100
AcDbSymbolTableRecord
100
AcDbRegAppTableRecord
  2
ACAD_MLEADERVER
 70
     0
  0
APPID
  5
44E2
330
4453
100
AcDbSymbolTableRecord
100
AcDbRegAppTableRecord
  2
ACAD_NAV_VCDISPLAY
 70
     0
  0
APPID
  5
44E3
330
4453
100
AcDbSymbolTableRecord
100
AcDbRegAppTableRecord
  2
ACATTRIBSERVICES
 70
     0
  0
APPID
  5
44E4
330
4453
100
AcDbSymbolTableRecord
100
AcDbRegAppTableRecord
  2
DESIGNERASSEMBLIES
 70
     0
  0
APPID
  5
44E5
330
4453
100
AcDbSymbolTableRecord
100
AcDbRegAppTableRecord
  2
ACAD_DSTYLE_DIMBREAK
 70
     0
  0
APPID
  5
44E6
330
4453
100
AcDbSymbolTableRecord
100
AcDbRegAppTableRecord
  2
ACAECLAYERSTANDARD
 70
     0
  0
APPID
  5
44E7
330
4453
100
AcDbSymbolTableRecord
100
AcDbRegAppTableRecord
  2
AD_DRAW
 70
     0
  0
APPID
  5
44E8
330
4453
100
AcDbSymbolTableRecord
100
AcDbRegAppTableRecord
  2
ACADM_DIM_EDIT
 70
     0
  0
APPID
  5
44E9
330
4453
100
AcDbSymbolTableRecord
100
AcDbRegAppTableRecord
  2
AMDT_DM_ADJ
 70
     0
  0
APPID
  5
44EA
330
4453
100
AcDbSymbolTableRecord
100
AcDbRegAppTableRecord
  2
ACAD_DSTYLE_DIMARC_LENGTH_
 70
     0
  0
APPID
  5
44EB
330
4453
100
AcDbSymbolTableRecord
100
AcDbRegAppTableRecord
  2
ACAD_DSTYLE_DIMJOGGED_JOGA
 70
     0
  0
APPID
  5
44EC
330
4453
100
AcDbSymbolTableRecord
100
AcDbRegAppTableRecord
  2
ACAD_EXEMPT_FROM_CAD_STANDARDS
 70
     0
  0
APPID
  5
44ED
330
4453
100
AcDbSymbolTableRecord
100
AcDbRegAppTableRecord
  2
GENIUS_GENREC_14
 70
     0
  0
APPID
  5
44EE
330
4453
100
AcDbSymbolTableRecord
100
AcDbRegAppTableRecord
  2
GENIUS_GENODEF_13
 70
     0
  0
APPID
  5
44EF
330
4453
100
AcDbSymbolTableRecord
100
AcDbRegAppTableRecord
  2
GENIUS_GENOBJ-N-REC_13
 70
     0
  0
APPID
  5
44F0
330
4453
100
AcDbSymbolTableRecord
100
AcDbRegAppTableRecord
  2
GEVID1362489746
 70
     0
  0
APPID
  5
44F1
330
4453
100
AcDbSymbolTableRecord
100
AcDbRegAppTableRecord
  2
GENIUS_GENBH_13
 70
     0
  0
APPID
  5
44F2
330
4453
100
AcDbSymbolTableRecord
100
AcDbRegAppTableRecord
  2
GENIUS_GENOENT_13
 70
     0
  0
APPID
  5
44F3
330
4453
100
AcDbSymbolTableRecord
100
AcDbRegAppTableRecord
  2
GENIUS_GENOLIS_13
 70
     0
  0
APPID
  5
44F4
330
4453
100
AcDbSymbolTableRecord
100
AcDbRegAppTableRecord
  2
GENIUS_GENOBJ-NBEHI-BHF_13
 70
     0
  0
APPID
  5
44F5
330
4453
100
AcDbSymbolTableRecord
100
AcDbRegAppTableRecord
  2
GENIUS_GENOREF_13
 70
     0
  0
APPID
  5
44F6
330
4453
100
AcDbSymbolTableRecord
100
AcDbRegAppTableRecord
  2
GENIUS_GENOBJ-NBEHI-BHB_13
 70
     0
  0
APPID
  5
44F7
330
4453
100
AcDbSymbolTableRecord
100
AcDbRegAppTableRecord
  2
GEVID1362489747
 70
     0
  0
APPID
  5
44F8
330
4453
100
AcDbSymbolTableRecord
100
AcDbRegAppTableRecord
  2
ACM_PP_DIM_CONSTRAINT
 70
     0
  0
APPID
  5
44F9
330
4453
100
AcDbSymbolTableRecord
100
AcDbRegAppTableRecord
  2
ACM_PP_ASSOCVAR
 70
     0
  0
APPID
  5
44FA
330
4453
100
AcDbSymbolTableRecord
100
AcDbRegAppTableRecord
  2
ACM_PP_DIM_ACTION_MACRO
 70
     0
  0
APPID
  5
44FB
330
4453
100
AcDbSymbolTableRecord
100
AcDbRegAppTableRecord
  2
ACM_PP_DIM_CONSTRAINT_DRAG_GRIP
 70
     0
  0
APPID
  5
44FC
330
4453
100
AcDbSymbolTableRecord
100
AcDbRegAppTableRecord
  2
GEVID1362489748
 70
     0
  0
APPID
  5
44FD
330
4453
100
AcDbSymbolTableRecord
100
AcDbRegAppTableRecord
  2
GENIUS_GENDTOL_13
 70
     0
  0
APPID
  5
44FE
330
4453
100
AcDbSymbolTableRecord
100
AcDbRegAppTableRecord
  2
ACAD_DSTYLE_DIMINSPECT
 70
     0
  0
APPID
  5
44FF
330
4453
100
AcDbSymbolTableRecord
100
AcDbRegAppTableRecord
  2
ACADANNOMONITORALERTICONDI
 70
     0
  0
APPID
  5
4500
330
4453
100
AcDbSymbolTableRecord
100
AcDbRegAppTableRecord
  2
ACAUTHENVIRON
 70
     0
  0
APPID
  5
4501
330
4453
100
AcDbSymbolTableRecord
100
AcDbRegAppTableRecord
  2
ACDBDYNAMICBLOCKTRUENAME
 70
     0
  0
APPID
  5
4502
330
4453
100
AcDbSymbolTableRecord
100
AcDbRegAppTableRecord
  2
ACDBDYNAMICBLOCKGUID
 70
     0
  0
APPID
  5
4503
330
4453
100
AcDbSymbolTableRecord
100
AcDbRegAppTableRecord
  2
GENIUS_GENTRA_14
 70
     0
  0
APPID
  5
4504
330
4453
100
AcDbSymbolTableRecord
100
AcDbRegAppTableRecord
  2
GENIUS_GENOBJ-N-LIB_13
 70
     0
  0
APPID
  5
4505
330
4453
100
AcDbSymbolTableRecord
100
AcDbRegAppTableRecord
  2
GENIUS_GENOBJ-N-RSBK_13
 70
     0
  0
APPID
  5
4506
330
4453
100
AcDbSymbolTableRecord
100
AcDbRegAppTableRecord
  2
GENIUS_GENSCALE_13
 70
     0
  0
APPID
  5
4507
330
4453
100
AcDbSymbolTableRecord
100
AcDbRegAppTableRecord
  2
ACAD_DSTYLE_DIM_LINETYPE
 70
     0
  0
APPID
  5
4508
330
4453
100
AcDbSymbolTableRecord
100
AcDbRegAppTableRecord
  2
ACAD_DSTYLE_DIM_EXT1_LINETYPE
 70
     0
  0
APPID
  5
4509
330
4453
100
AcDbSymbolTableRecord
100
AcDbRegAppTableRecord
  2
ACAD_DSTYLE_DIM_EXT2_LINETYPE
 70
     0
  0
ENDTAB
  0
TABLE
  2
DIMSTYLE
  5
4454
330
0
100
AcDbSymbolTable
 70
    17
100
AcDbDimStyleTable
 71
     0
  0
DIMSTYLE
105
44A1
330
4454
100
AcDbSymbolTableRecord
100
AcDbDimStyleTableRecord
  2
STANDARD
 70
     0
271
     3
272
     3
279
     2
284
     9
285
     9
286
     9
340
449F
  0
DIMSTYLE
105
450A
330
4454
100
AcDbSymbolTableRecord
100
AcDbDimStyleTableRecord
  2
AM_JIS
 70
     0
  4
"
 41
2.0
 42
1.0
 43
7.0
 44
1.8
 48
0.000000001
 73
     0
 74
     0
 77
     3
 78
     9
140
3.0
141
1.0
143
0.0393701
146
0.71
147
1.5
172
     1
176
   256
177
   256
178
     4
271
     3
272
     3
279
     2
284
     9
285
     9
286
     9
340
449F
  0
DIMSTYLE
105
4511
102
{ACAD_REACTORS
330
487D
102
}
330
4454
100
AcDbSymbolTableRecord
100
AcDbDimStyleTableRecord
  2
AM_ANSI
 70
     0
  4
mm
 40
20.0
 41
0.12
 42
0.05
 43
0.5
 44
0.1
 47
0.1
 48
0.1
 78
     7
140
0.12
141
0.0
146
0.71
147
0.06
176
   256
177
   256
178
     2
271
     3
272
     3
279
     2
284
     9
285
     9
286
     9
340
449F
  0
DIMSTYLE
105
4512
330
4454
100
AcDbSymbolTableRecord
100
AcDbDimStyleTableRecord
  2
AM_ANSI$3
 70
     0
  4
mm
 41
0.12
 42
0.05
 43
0.5
 44
0.1
 47
0.1
 48
0.1
 78
     7
140
0.12
141
0.0
146
0.71
147
0.06
176
   256
177
   256
178
     2
271
     3
272
     3
279
     2
284
     9
285
     9
286
     9
340
449F
  0
DIMSTYLE
105
4513
330
4454
100
AcDbSymbolTableRecord
100
AcDbDimStyleTableRecord
  2
AM_ANSI$4
 70
     0
  4
mm
 41
0.12
 42
0.05
 43
0.5
 44
0.1
 47
0.1
 48
0.1
 78
     7
140
0.12
141
0.0
146
0.71
147
0.06
176
   256
177
   256
178
     2
271
     3
272
     3
279
     2
284
     9
285
     9
286
     9
340
449F
  0
DIMSTYLE
105
4514
330
4454
100
AcDbSymbolTableRecord
100
AcDbDimStyleTableRecord
  2
AM_ANSI$7
 70
     0
  4
mm
 41
0.12
 42
0.05
 43
0.5
 44
0.1
 47
0.1
 48
0.1
 78
     7
140
0.12
141
0.0
146
0.71
147
0.06
176
   256
177
   256
178
     2
271
     3
272
     3
279
     2
284
     9
285
     9
286
     9
340
449F
  0
DIMSTYLE
105
4515
330
4454
100
AcDbSymbolTableRecord
100
AcDbDimStyleTableRecord
  2
AM_ANSI$SF
 70
     0
  4
mm
 41
0.12
 42
0.05
 43
0.5
 44
0.1
 47
0.1
 48
0.1
 75
     1
 76
     1
 78
     7
140
0.12
141
0.0
146
0.71
147
0.06
176
   256
177
   256
178
     2
271
     3
272
     3
279
     2
284
     9
285
     9
286
     9
340
449F
  0
DIMSTYLE
105
4516
330
4454
100
AcDbSymbolTableRecord
100
AcDbDimStyleTableRecord
  2
AM_ANSI$SH
 70
     0
  4
mm
 41
0.12
 42
0.05
 43
0.5
 44
0.1
 47
0.1
 48
0.1
 75
     1
 76
     1
 78
     7
140
0.12
141
0.0
146
0.71
147
0.06
173
     1
176
   256
177
   256
178
     2
271
     3
272
     3
279
     2
284
     9
285
     9
286
     9
340
449F
  0
DIMSTYLE
105
48EC
330
4454
100
AcDbSymbolTableRecord
100
AcDbDimStyleTableRecord
  2
AM_JIS$0
 70
     0
  4
"
 41
2.0
 42
1.0
 43
7.0
 44
1.8
 48
0.000000001
 73
     0
 74
     0
 77
     3
 78
     9
 79
     2
 90
        1
140
3.0
141
1.0
143
0.0393701
146
0.71
147
1.5
172
     1
176
   256
177
   256
178
     4
271
     3
272
     3
283
     0
284
     8
340
449F
341
4528
342
4528
345
44A4
346
44A4
347
44A4
371
    -1
372
    -1
1001
ACAD_DSTYLE_DIMBREAK
1070
   391
1040
3.75
1001
ACAD_DSTYLE_DIMJAG
1070
   388
1040
1.5
1001
ACAD_DSTYLE_DIMTALN
1070
   392
1070
     0
  0
DIMSTYLE
105
48ED
330
4454
100
AcDbSymbolTableRecord
100
AcDbDimStyleTableRecord
  2
AM_JIS$3
 70
     0
  4
"
 41
2.0
 42
1.0
 43
7.0
 44
1.8
 48
0.000000001
 73
     0
 77
     3
 78
     9
 79
     2
 90
        1
140
3.0
141
1.0
143
0.0393701
146
0.71
147
1.5
176
   256
177
   256
178
     4
271
     3
272
     3
283
     0
284
     8
288
     1
289
     0
340
449F
341
4528
342
4528
345
44A4
346
44A4
347
44A4
371
    -1
372
    -1
1001
ACAD_DSTYLE_DIMBREAK
1070
   391
1040
3.75
1001
ACAD_DSTYLE_DIMJAG
1070
   388
1040
1.5
1001
ACAD_DSTYLE_DIMTALN
1070
   392
1070
     0
  0
DIMSTYLE
105
48EE
330
4454
100
AcDbSymbolTableRecord
100
AcDbDimStyleTableRecord
  2
AM_JIS$4
 70
     0
  4
"
 41
2.0
 42
1.0
 43
7.0
 44
1.8
 48
0.000000001
 73
     0
 74
     0
 77
     3
 78
     9
 79
     2
 90
        1
140
3.0
141
1.0
143
0.0393701
146
0.71
147
1.5
172
     1
176
   256
177
   256
178
     4
271
     3
272
     3
283
     0
284
     8
340
449F
341
4528
342
4528
345
44A4
346
44A4
347
44A4
371
    -1
372
    -1
1001
ACAD_DSTYLE_DIMBREAK
1070
   391
1040
3.75
1001
ACAD_DSTYLE_DIMJAG
1070
   388
1040
1.5
1001
ACAD_DSTYLE_DIMTALN
1070
   392
1070
     0
  0
DIMSTYLE
105
48EF
330
4454
100
AcDbSymbolTableRecord
100
AcDbDimStyleTableRecord
  2
AM_JIS$6
 70
     0
  4
"
 41
2.0
 42
1.0
 43
7.0
 44
1.8
 48
0.000000001
 73
     0
 74
     0
 78
     9
 79
     2
 90
        1
140
3.0
141
1.0
143
0.0393701
146
0.71
147
1.5
172
     1
176
   256
177
   256
178
     4
271
     3
272
     3
283
     0
284
     8
340
449F
341
4528
342
4528
345
44A4
346
44A4
347
44A4
371
    -1
372
    -1
1001
ACAD_DSTYLE_DIMBREAK
1070
   391
1040
3.75
1001
ACAD_DSTYLE_DIMJAG
1070
   388
1040
1.5
1001
ACAD_DSTYLE_DIMTALN
1070
   392
1070
     0
  0
DIMSTYLE
105
48F0
330
4454
100
AcDbSymbolTableRecord
100
AcDbDimStyleTableRecord
  2
AM_JIS$7
 70
     0
  4
"
 41
2.0
 42
1.0
 43
7.0
 44
1.8
 48
0.000000001
 73
     0
 74
     0
 77
     3
 78
     9
 79
     2
 90
        1
140
3.0
141
1.0
143
0.0393701
146
0.71
147
1.5
172
     1
176
   256
177
   256
178
     4
271
     3
272
     3
283
     0
284
     8
340
449F
341
4528
342
4528
345
44A4
346
44A4
347
44A4
371
    -1
372
    -1
1001
ACAD_DSTYLE_DIMBREAK
1070
   391
1040
3.75
1001
ACAD_DSTYLE_DIMJAG
1070
   388
1040
1.5
1001
ACAD_DSTYLE_DIMTALN
1070
   392
1070
     0
  0
DIMSTYLE
105
48F1
330
4454
100
AcDbSymbolTableRecord
100
AcDbDimStyleTableRecord
  2
AM_JIS$SF
 70
     0
  4
"
 41
2.0
 42
1.0
 43
7.0
 44
1.8
 48
0.000000001
 73
     0
 74
     0
 75
     1
 76
     1
 77
     3
 78
     9
 79
     2
 90
        1
140
3.0
141
1.0
143
0.0393701
146
0.71
147
1.5
172
     1
176
   256
177
   256
178
     4
271
     3
272
     3
283
     0
284
     8
340
449F
341
4528
342
4528
345
44A4
346
44A4
347
44A4
371
    -1
372
    -1
1001
ACAD_DSTYLE_DIMBREAK
1070
   391
1040
3.75
1001
ACAD_DSTYLE_DIMJAG
1070
   388
1040
1.5
1001
ACAD_DSTYLE_DIMTALN
1070
   392
1070
     0
  0
DIMSTYLE
105
48F2
330
4454
100
AcDbSymbolTableRecord
100
AcDbDimStyleTableRecord
  2
AM_JIS$SH
 70
     0
  4
"
 41
2.0
 42
1.0
 43
7.0
 44
1.8
 48
0.000000001
 73
     0
 74
     0
 75
     1
 76
     1
 77
     3
 78
     9
 79
     2
 90
        1
140
3.0
141
1.0
143
0.0393701
144
2.0
146
0.71
147
1.5
172
     1
173
     1
176
   256
177
   256
178
     4
271
     3
272
     3
283
     0
284
     8
340
449F
341
4528
342
4528
343
48DC
345
44A4
346
44A4
347
44A4
371
    -1
372
    -1
1001
ACAD_DSTYLE_DIMBREAK
1070
   391
1040
3.75
1001
ACAD_DSTYLE_DIMJAG
1070
   388
1040
1.5
1001
ACAD_DSTYLE_DIMTALN
1070
   392
1070
     0
  0
ENDTAB
  0
TABLE
  2
BLOCK_RECORD
  5
444B
330
0
100
AcDbSymbolTable
 70
    14
  0
BLOCK_RECORD
  5
44B9
102
{ACAD_XDICTIONARY
360
4681
102
}
330
444B
100
AcDbSymbolTableRecord
100
AcDbBlockTableRecord
  2
*Model_Space
340
44BC
 70
     0
280
     1
281
     0
  0
BLOCK_RECORD
  5
44B5
330
444B
100
AcDbSymbolTableRecord
100
AcDbBlockTableRecord
  2
*Paper_Space
340
44B8
 70
     0
280
     1
281
     0
  0
BLOCK_RECORD
  5
4528
330
444B
100
AcDbSymbolTableRecord
100
AcDbBlockTableRecord
  2
_OPEN30
340
0
102
{BLKREFS
102
}
 70
     0
280
     1
281
     0
  0
BLOCK_RECORD
  5
452A
330
444B
100
AcDbSymbolTableRecord
100
AcDbBlockTableRecord
  2
_ACMFILLEDHALF
340
0
 70
     0
280
     1
281
     0
  0
BLOCK_RECORD
  5
48DC
330
444B
100
AcDbSymbolTableRecord
100
AcDbBlockTableRecord
  2
GENAXEH
340
0
 70
     0
280
     1
281
     0
  0
ENDTAB
  0
ENDSEC
  0
SECTION
  2
BLOCKS
  0
BLOCK
  5
44BA
330
44B9
100
AcDbEntity
  8
0
100
AcDbBlockBegin
  2
*Model_Space
 70
     0
 10
0.0
 20
0.0
 30
0.0
  3
*Model_Space
  1

  0
ENDBLK
  5
44BB
330
44B9
100
AcDbEntity
  8
0
100
AcDbBlockEnd
  0
BLOCK
  5
44B6
330
44B5
100
AcDbEntity
 67
     1
  8
0
100
AcDbBlockBegin
  2
*Paper_Space
 70
     0
 10
0.0
 20
0.0
 30
0.0
  3
*Paper_Space
  1

  0
ENDBLK
  5
44B7
330
44B5
100
AcDbEntity
 67
     1
  8
0
100
AcDbBlockEnd
  0
BLOCK
  5
4529
330
4528
100
AcDbEntity
  8
0
100
AcDbBlockBegin
  2
_OPEN30
 70
     0
 10
0.0
 20
0.0
 30
0.0
  3
_OPEN30
  1

  0
LINE
  5
3F02
330
4528
100
AcDbEntity
  8
0
  6
ByBlock
 62
     0
100
AcDbLine
 10
-1.0
 20
0.26794919
 30
0.0
 11
0.0
 21
0.0
 31
0.0
  0
LINE
  5
3F03
330
4528
100
AcDbEntity
  8
0
  6
ByBlock
 62
     0
100
AcDbLine
 10
0.0
 20
0.0
 30
0.0
 11
-1.0
 21
-0.26794919
 31
0.0
  0
LINE
  5
3F04
330
4528
100
AcDbEntity
  8
0
  6
ByBlock
 62
     0
100
AcDbLine
 10
0.0
 20
0.0
 30
0.0
 11
-1.0
 21
0.0
 31
0.0
  0
ENDBLK
  5
3F05
330
4528
100
AcDbEntity
  8
0
100
AcDbBlockEnd
  0
BLOCK
  5
452B
330
452A
100
AcDbEntity
  8
0
100
AcDbBlockBegin
  2
_ACMFILLEDHALF
 70
     0
 10
0.0
 20
0.0
 30
0.0
  3
_ACMFILLEDHALF
  1

  0
TRACE
  5
40F4
330
452A
100
AcDbEntity
  8
1
 62
     0
100
AcDbTrace
 10
-0.8
 20
0.0
 30
0.0
 11
-1.0
 21
0.166666666
 31
0.0
 12
0.0
 22
0.0
 32
0.0
 13
0.0
 23
0.0
 33
0.0
  0
LINE
  5
40F5
330
452A
100
AcDbEntity
  8
1
 62
     0
100
AcDbLine
 10
-1.0
 20
0.0
 30
0.0
 11
-0.8
 21
0.0
 31
0.0
  0
ENDBLK
  5
40F3
330
452A
100
AcDbEntity
  8
0
100
AcDbBlockEnd
  0
BLOCK
  5
48DD
330
48DC
100
AcDbEntity
  8
0
100
AcDbBlockBegin
  2
GENAXEH
 70
     0
 10
0.0
 20
0.0
 30
0.0
  3
GENAXEH
  1

  0
LINE
  5
48DE
330
48DC
100
AcDbEntity
  8
0
100
AcDbLine
 10
-1.0
 20
0.0
 30
0.0
 11
1.0
 21
0.0
 31
0.0
  0
ENDBLK
  5
48DF
330
48DC
100
AcDbEntity
  8
0
100
AcDbBlockEnd
  0
ENDSEC
  0
SECTION
  2
ENTITIES
  0
TEXT
  5
86F
330
44B9
100
AcDbEntity
  8
0
100
AcDbText
 10
950.0
 20
20.0
 30
0.0
 40
35.0
  1
ABM -302E
  7
MONO-SET
100
AcDbText
  0
TEXT
  5
87D
330
44B9
100
AcDbEntity
  8
0
100
AcDbText
 10
90.00000000000019
 20
1323.55020281532
 30
0.0
 40
30.0
  1
＜基礎ボルト位置＞
100
AcDbText
  0
TEXT
  5
8FF
330
44B9
100
AcDbEntity
  8
0
100
AcDbText
 10
90.00000000000021
 20
2680.0
 30
0.0
 40
30.0
  1
＜外形寸法図＞
100
AcDbText
  0
LINE
  5
901
330
44B9
100
AcDbEntity
  8
0
100
AcDbLine
 10
581.693239487297
 20
2529.999973998448
 30
0.0
 11
981.9407883097342
 21
2529.999973998448
 31
0.0
  0
TEXT
  5
902
330
44B9
100
AcDbEntity
  8
0
100
AcDbText
 10
595.5084324796959
 20
2539.378324638053
 30
0.0
 40
25.0
  1
4-φ16＜機器取付穴＞
100
AcDbText
  0
LINE
  5
11A3
330
44B9
100
AcDbEntity
  8
0
100
AcDbLine
 10
704.9999672747493
 20
1655.000000000001
 30
0.0
 11
944.9999672747493
 21
1655.000000000001
 31
0.0
  0
LINE
  5
11A4
330
44B9
100
AcDbEntity
  8
0
100
AcDbLine
 10
704.9999672747493
 20
1675.0
 30
0.0
 11
944.9999672747493
 21
1675.0
 31
0.0
  0
LINE
  5
11A5
330
44B9
100
AcDbEntity
  8
0
100
AcDbLine
 10
704.9999672747493
 20
1675.0
 30
0.0
 11
704.9999672747493
 21
1655.000000000001
 31
0.0
  0
LINE
  5
11A6
330
44B9
100
AcDbEntity
  8
0
100
AcDbLine
 10
944.9999672747493
 20
1675.0
 30
0.0
 11
944.9999672747493
 21
1655.000000000001
 31
0.0
  0
LINE
  5
1371
330
44B9
100
AcDbEntity
  8
0
100
AcDbLine
 10
1232.99997629755
 20
2369.999949101944
 30
0.0
 11
417.0000000000004
 21
2370.000037743567
 31
0.0
  0
LINE
  5
1372
330
44B9
100
AcDbEntity
  8
0
100
AcDbLine
 10
1232.99997629755
 20
2429.999949101933
 30
0.0
 11
417.0000000000007
 21
2430.000037743556
 31
0.0
  0
LINE
  5
1373
330
44B9
100
AcDbEntity
  8
0
100
AcDbLine
 10
1232.99997629755
 20
2080.000037654332
 30
0.0
 11
417.0000000000004
 21
2079.999949012709
 31
0.0
  0
LINE
  5
1374
330
44B9
100
AcDbEntity
  8
0
100
AcDbLine
 10
1232.99997629755
 20
2020.000037654343
 30
0.0
 11
417.0000000000007
 21
2019.999949012719
 31
0.0
  0
LINE
  5
1375
330
44B9
100
AcDbEntity
  8
0
100
AcDbLine
 10
349.9999554235244
 20
2087.000031738607
 30
0.0
 11
349.9999554235244
 21
2362.999955017668
 31
0.0
  0
LINE
  5
1376
330
44B9
100
AcDbEntity
  8
0
100
AcDbLine
 10
380.9999554235244
 20
2087.000031738607
 30
0.0
 11
380.9999554235244
 21
2362.999955017668
 31
0.0
  0
LINE
  5
1377
330
44B9
100
AcDbEntity
  8
0
100
AcDbLine
 10
412.5
 20
2082.500120380231
 30
0.0
 11
412.5000000000007
 21
2020.000126295966
 31
0.0
  0
LINE
  5
1378
330
44B9
100
AcDbEntity
  8
0
100
AcDbLine
 10
417.0
 20
2087.000120380229
 30
0.0
 11
417.0000000000007
 21
2020.000126295966
 31
0.0
  0
ARC
  5
1379
330
44B9
100
AcDbEntity
  8
0
100
AcDbCircle
 10
374.0000000000002
 20
2044.000164039513
 30
0.0
 40
24.0
100
AcDbArc
 50
180.0
 51
269.9999502863144
  0
CIRCLE
  5
137A
330
44B9
100
AcDbEntity
  8
0
100
AcDbCircle
 10
382.0000000000002
 20
2052.00012247562
 30
0.0
 40
21.0
  0
LINE
  5
137B
330
44B9
100
AcDbEntity
  8
0
100
AcDbLine
 10
382.0000000000002
 20
2022.974248456998
 30
0.0
 11
382.0000000000002
 21
2081.025996494243
 31
0.0
  0
LINE
  5
137C
330
44B9
100
AcDbEntity
  8
0
100
AcDbLine
 10
373.4999791759794
 20
2020.000164039521
 30
0.0
 11
417.0000000000007
 21
2020.000126295966
 31
0.0
  0
LINE
  5
137D
330
44B9
100
AcDbEntity
  8
0
100
AcDbLine
 10
350.0000000000002
 20
2087.000120380229
 30
0.0
 11
417.0
 21
2087.000120380229
 31
0.0
  0
LINE
  5
137E
330
44B9
100
AcDbEntity
  8
0
100
AcDbLine
 10
350.0000000000002
 20
2082.500120380231
 30
0.0
 11
417.0
 21
2082.500120380231
 31
0.0
  0
LINE
  5
137F
330
44B9
100
AcDbEntity
  8
0
100
AcDbLine
 10
350.0000000000002
 20
2043.500164039512
 30
0.0
 11
350.0000000000002
 21
2087.000120380229
 31
0.0
  0
LINE
  5
1380
330
44B9
100
AcDbEntity
  8
0
100
AcDbLine
 10
411.0258740186225
 20
2052.00012247562
 30
0.0
 11
352.9741259813784
 21
2052.00012247562
 31
0.0
  0
CIRCLE
  5
1382
330
44B9
100
AcDbEntity
  8
0
100
AcDbCircle
 10
524.9999554235244
 20
2039.999960361298
 30
0.0
 40
8.0
  0
LINE
  5
1383
330
44B9
100
AcDbEntity
  8
0
100
AcDbLine
 10
524.9999554235244
 20
2061.935738292822
 30
0.0
 11
524.9999554235244
 21
2018.064182429774
 31
0.0
  0
LINE
  5
1384
330
44B9
100
AcDbEntity
  8
0
100
AcDbLine
 10
503.0641774920006
 20
2039.999960361298
 30
0.0
 11
546.9357333550481
 21
2039.999960361298
 31
0.0
  0
LINE
  5
1387
330
44B9
100
AcDbEntity
  8
0
100
AcDbLine
 10
417.0
 20
2363.000043659292
 30
0.0
 11
417.0000000000007
 21
2430.000037743556
 31
0.0
  0
LINE
  5
1388
330
44B9
100
AcDbEntity
  8
0
100
AcDbLine
 10
412.5
 20
2367.500043659291
 30
0.0
 11
412.5000000000007
 21
2430.000037743556
 31
0.0
  0
LINE
  5
1389
330
44B9
100
AcDbEntity
  8
0
100
AcDbLine
 10
382.0000000000002
 20
2427.025915582523
 30
0.0
 11
382.0000000000002
 21
2368.974167545278
 31
0.0
  0
ARC
  5
138A
330
44B9
100
AcDbEntity
  8
0
100
AcDbCircle
 10
374.0000000000002
 20
2406.000000000009
 30
0.0
 40
24.0
100
AcDbArc
 50
90.00004971368547
 51
180.0
  0
LINE
  5
138B
330
44B9
100
AcDbEntity
  8
0
100
AcDbLine
 10
350.0000000000002
 20
2367.500043659291
 30
0.0
 11
417.0
 21
2367.500043659291
 31
0.0
  0
LINE
  5
138C
330
44B9
100
AcDbEntity
  8
0
100
AcDbLine
 10
350.0000000000002
 20
2363.000043659292
 30
0.0
 11
417.0
 21
2363.000043659292
 31
0.0
  0
LINE
  5
138D
330
44B9
100
AcDbEntity
  8
0
100
AcDbLine
 10
350.0000000000002
 20
2406.500000000009
 30
0.0
 11
350.0000000000002
 21
2363.000043659292
 31
0.0
  0
CIRCLE
  5
138E
330
44B9
100
AcDbEntity
  8
0
100
AcDbCircle
 10
382.0000000000002
 20
2398.000041563901
 30
0.0
 40
21.0
  0
LINE
  5
1390
330
44B9
100
AcDbEntity
  8
0
100
AcDbLine
 10
411.0258740186225
 20
2398.000041563901
 30
0.0
 11
352.9741259813784
 21
2398.000041563901
 31
0.0
  0
LINE
  5
1391
330
44B9
100
AcDbEntity
  8
0
100
AcDbLine
 10
373.4999791759794
 20
2430.0
 30
0.0
 11
417.0000000000007
 21
2430.000037743556
 31
0.0
  0
LINE
  5
1393
330
44B9
100
AcDbEntity
  8
0
100
AcDbLine
 10
524.9999554235244
 20
2388.064248463454
 30
0.0
 11
524.9999554235244
 21
2431.935804326502
 31
0.0
  0
CIRCLE
  5
1394
330
44B9
100
AcDbEntity
  8
0
100
AcDbCircle
 10
524.9999554235244
 20
2410.000026394979
 30
0.0
 40
8.0
  0
LINE
  5
1395
330
44B9
100
AcDbEntity
  8
0
100
AcDbLine
 10
503.0641774920006
 20
2410.000026394979
 30
0.0
 11
546.9357333550481
 21
2410.000026394979
 31
0.0
  0
LINE
  5
1398
330
44B9
100
AcDbEntity
  8
0
100
AcDbLine
 10
1268.999955423524
 20
2087.000031738607
 30
0.0
 11
1268.999955423524
 21
2362.999955017668
 31
0.0
  0
LINE
  5
1399
330
44B9
100
AcDbEntity
  8
0
100
AcDbLine
 10
1299.999955423524
 20
2087.000031738607
 30
0.0
 11
1299.999955423524
 21
2362.999955017668
 31
0.0
  0
CIRCLE
  5
139D
330
44B9
100
AcDbEntity
  8
0
100
AcDbCircle
 10
1124.999955423524
 20
2040.000026305759
 30
0.0
 40
8.0
  0
LINE
  5
139E
330
44B9
100
AcDbEntity
  8
0
100
AcDbLine
 10
1124.999955423524
 20
2061.935804237283
 30
0.0
 11
1124.999955423524
 21
2018.064248374235
 31
0.0
  0
LINE
  5
139F
330
44B9
100
AcDbEntity
  8
0
100
AcDbLine
 10
1103.064177492
 20
2040.000026305759
 30
0.0
 11
1146.935733355048
 21
2040.000026305759
 31
0.0
  0
LINE
  5
13A2
330
44B9
100
AcDbEntity
  8
0
100
AcDbLine
 10
1237.49997629755
 20
2082.500031738607
 30
0.0
 11
1237.49997629755
 21
2020.000037654343
 31
0.0
  0
LINE
  5
13A3
330
44B9
100
AcDbEntity
  8
0
100
AcDbLine
 10
1232.99997629755
 20
2087.000031738607
 30
0.0
 11
1232.99997629755
 21
2020.000037654343
 31
0.0
  0
LINE
  5
13A4
330
44B9
100
AcDbEntity
  8
0
100
AcDbLine
 10
1267.99997629755
 20
2022.974159815376
 30
0.0
 11
1267.99997629755
 21
2081.02590785262
 31
0.0
  0
CIRCLE
  5
13A5
330
44B9
100
AcDbEntity
  8
0
100
AcDbCircle
 10
1267.99997629755
 20
2052.000033833997
 30
0.0
 40
21.0
  0
ARC
  5
13A6
330
44B9
100
AcDbEntity
  8
0
100
AcDbCircle
 10
1275.99997629755
 20
2044.00007539789
 30
0.0
 40
24.0
100
AcDbArc
 50
270.0000497136854
 51
0.0
  0
LINE
  5
13A7
330
44B9
100
AcDbEntity
  8
0
100
AcDbLine
 10
1276.49999712157
 20
2020.000075397899
 30
0.0
 11
1232.99997629755
 21
2020.000037654343
 31
0.0
  0
LINE
  5
13A8
330
44B9
100
AcDbEntity
  8
0
100
AcDbLine
 10
1238.974102278928
 20
2052.000033833997
 30
0.0
 11
1297.025850316172
 21
2052.000033833997
 31
0.0
  0
LINE
  5
13A9
330
44B9
100
AcDbEntity
  8
0
100
AcDbLine
 10
1299.99997629755
 20
2087.000031738607
 30
0.0
 11
1232.99997629755
 21
2087.000031738607
 31
0.0
  0
LINE
  5
13AA
330
44B9
100
AcDbEntity
  8
0
100
AcDbLine
 10
1299.99997629755
 20
2082.500031738607
 30
0.0
 11
1232.99997629755
 21
2082.500031738607
 31
0.0
  0
LINE
  5
13AD
330
44B9
100
AcDbEntity
  8
0
100
AcDbLine
 10
1299.99997629755
 20
2043.50007539789
 30
0.0
 11
1299.99997629755
 21
2087.000031738607
 31
0.0
  0
LINE
  5
13B2
330
44B9
100
AcDbEntity
  8
0
100
AcDbLine
 10
1124.999955423524
 20
2388.064182518993
 30
0.0
 11
1124.999955423524
 21
2431.935738382041
 31
0.0
  0
LINE
  5
13B3
330
44B9
100
AcDbEntity
  8
0
100
AcDbLine
 10
1103.064177492
 20
2409.999960450516
 30
0.0
 11
1146.935733355048
 21
2409.999960450516
 31
0.0
  0
CIRCLE
  5
13B4
330
44B9
100
AcDbEntity
  8
0
100
AcDbCircle
 10
1124.999955423524
 20
2409.999960450516
 30
0.0
 40
8.0
  0
LINE
  5
13B5
330
44B9
100
AcDbEntity
  8
0
100
AcDbLine
 10
1237.49997629755
 20
2367.499955017668
 30
0.0
 11
1237.49997629755
 21
2429.999949101933
 31
0.0
  0
LINE
  5
13B6
330
44B9
100
AcDbEntity
  8
0
100
AcDbLine
 10
1232.99997629755
 20
2362.999955017668
 30
0.0
 11
1232.99997629755
 21
2429.999949101933
 31
0.0
  0
LINE
  5
13B7
330
44B9
100
AcDbEntity
  8
0
100
AcDbLine
 10
1267.99997629755
 20
2427.0258269409
 30
0.0
 11
1267.99997629755
 21
2368.974078903656
 31
0.0
  0
ARC
  5
13B8
330
44B9
100
AcDbEntity
  8
0
100
AcDbCircle
 10
1275.99997629755
 20
2405.999911358386
 30
0.0
 40
24.0
100
AcDbArc
 50
0.0
 51
89.99995028631451
  0
LINE
  5
13B9
330
44B9
100
AcDbEntity
  8
0
100
AcDbLine
 10
1299.99997629755
 20
2362.999955017668
 30
0.0
 11
1232.99997629755
 21
2362.999955017668
 31
0.0
  0
LINE
  5
13BA
330
44B9
100
AcDbEntity
  8
0
100
AcDbLine
 10
1299.99997629755
 20
2367.499955017668
 30
0.0
 11
1232.99997629755
 21
2367.499955017668
 31
0.0
  0
LINE
  5
13BB
330
44B9
100
AcDbEntity
  8
0
100
AcDbLine
 10
1238.974102278928
 20
2397.999952922278
 30
0.0
 11
1297.025850316172
 21
2397.999952922278
 31
0.0
  0
CIRCLE
  5
13BC
330
44B9
100
AcDbEntity
  8
0
100
AcDbCircle
 10
1267.99997629755
 20
2397.999952922278
 30
0.0
 40
21.0
  0
LINE
  5
13BE
330
44B9
100
AcDbEntity
  8
0
100
AcDbLine
 10
1299.99997629755
 20
2406.499911358386
 30
0.0
 11
1299.99997629755
 21
2362.999955017668
 31
0.0
  0
LINE
  5
13BF
330
44B9
100
AcDbEntity
  8
0
100
AcDbLine
 10
1276.49999712157
 20
2429.999911358378
 30
0.0
 11
1232.99997629755
 21
2429.999949101933
 31
0.0
  0
LINE
  5
1552
330
44B9
100
AcDbEntity
  8
0
100
AcDbLine
 10
1124.999934549498
 20
1584.121341004633
 30
0.0
 11
1124.999934549498
 21
1526.694335075292
 31
0.0
  0
LINE
  5
1553
330
44B9
100
AcDbEntity
  8
0
100
AcDbLine
 10
524.9999345494983
 20
1584.121275060171
 30
0.0
 11
524.9999345494983
 21
1527.926577359304
 31
0.0
  0
LINE
  5
1555
330
44B9
100
AcDbEntity
  8
0
100
AcDbLine
 10
417.0000000000004
 20
1541.999999999999
 30
0.0
 11
1232.999934549497
 21
1541.999999999999
 31
0.0
  0
LINE
  5
1571
330
44B9
100
AcDbEntity
  8
0
100
AcDbLine
 10
417.0000000000004
 20
1650.0
 30
0.0
 11
1232.999934549498
 21
1650.0
 31
0.0
  0
LINE
  5
1572
330
44B9
100
AcDbEntity
  8
0
100
AcDbLine
 10
417.0000000000004
 20
1680.0
 30
0.0
 11
1232.999934549498
 21
1680.0
 31
0.0
  0
LINE
  5
1573
330
44B9
100
AcDbEntity
  8
0
100
AcDbLine
 10
416.9852813742391
 20
1571.999999999998
 30
0.0
 11
659.9999554231405
 21
1571.999999999998
 31
0.0
  0
LINE
  5
15E8
330
44B9
100
AcDbEntity
  8
0
100
AcDbLine
 10
524.9999345494983
 20
1693.252703989339
 30
0.0
 11
524.9999345494983
 21
1637.058006288472
 31
0.0
  0
LINE
  5
161B
330
44B9
100
AcDbEntity
  8
0
100
AcDbLine
 10
1124.999934549498
 20
1693.2527699338
 30
0.0
 11
1124.999934549498
 21
1635.82576400446
 31
0.0
  0
LINE
  5
16B2
330
44B9
100
AcDbEntity
  8
0
100
AcDbLine
 10
719.9999554239082
 20
1571.999999999999
 30
0.0
 11
1166.99995542314
 21
1571.999999999999
 31
0.0
  0
LINE
  5
1819
330
44B9
100
AcDbEntity
  8
0
100
AcDbLine
 10
529.2716598072006
 20
2419.041737607933
 30
0.0
 11
581.693239487297
 21
2529.999973998448
 31
0.0
  0
LINE
  5
1877
330
44B9
100
AcDbEntity
  8
0
100
AcDbLine
 10
1300.0
 20
751.6913739416761
 30
0.0
 11
350.0
 21
751.6912707436961
 31
0.0
  0
LINE
  5
1878
330
44B9
100
AcDbEntity
  8
0
100
AcDbLine
 10
1269.0
 20
811.6913705719722
 30
0.0
 11
381.0
 21
811.6913705719722
 31
0.0
  0
LINE
  5
187B
330
44B9
100
AcDbEntity
  8
0
100
AcDbLine
 10
1300.0
 20
1161.691270832918
 30
0.0
 11
350.0
 21
1161.691374030898
 31
0.0
  0
LINE
  5
187C
330
44B9
100
AcDbEntity
  8
0
100
AcDbLine
 10
1269.0
 20
1101.691274202621
 30
0.0
 11
381.0
 21
1101.691274202621
 31
0.0
  0
CIRCLE
  5
187D
330
44B9
100
AcDbEntity
  8
0
100
AcDbCircle
 10
525.0
 20
1131.691355404137
 30
0.0
 40
10.0
  0
LINE
  5
1884
330
44B9
100
AcDbEntity
  8
0
100
AcDbLine
 10
525.0
 20
1109.755577472612
 30
0.0
 11
525.0
 21
1153.62713333566
 31
0.0
  0
LINE
  5
1886
330
44B9
100
AcDbEntity
  8
0
100
AcDbLine
 10
350.0
 20
751.6912707436961
 30
0.0
 11
350.0
 21
949.1913223872968
 31
0.0
  0
LINE
  5
1894
330
44B9
100
AcDbEntity
  8
0
100
AcDbLine
 10
350.0
 20
1161.691374030898
 30
0.0
 11
350.0
 21
949.1913223872968
 31
0.0
  0
CIRCLE
  5
1899
330
44B9
100
AcDbEntity
  8
0
100
AcDbCircle
 10
525.0
 20
781.6912893704567
 30
0.0
 40
10.0
  0
LINE
  5
189A
330
44B9
100
AcDbEntity
  8
0
100
AcDbLine
 10
525.0
 20
803.6270673019808
 30
0.0
 11
525.0
 21
759.7555114389331
 31
0.0
  0
LINE
  5
189B
330
44B9
100
AcDbEntity
  8
0
100
AcDbLine
 10
503.0642220684756
 20
781.6912893704567
 30
0.0
 11
546.9357779315242
 21
781.6912893704567
 31
0.0
  0
LINE
  5
18A0
330
44B9
100
AcDbEntity
  8
0
100
AcDbLine
 10
503.0642220684756
 20
1131.691355404137
 30
0.0
 11
546.9357779315242
 21
1131.691355404137
 31
0.0
  0
CIRCLE
  5
18A1
330
44B9
100
AcDbEntity
  8
0
100
AcDbCircle
 10
1125.0
 20
1131.691289459676
 30
0.0
 40
10.0
  0
LINE
  5
18A7
330
44B9
100
AcDbEntity
  8
0
100
AcDbLine
 10
1125.0
 20
1109.755511528152
 30
0.0
 11
1125.0
 21
1153.627067391199
 31
0.0
  0
LINE
  5
18A8
330
44B9
100
AcDbEntity
  8
0
100
AcDbLine
 10
1103.064222068476
 20
781.691355314918
 30
0.0
 11
1146.935777931524
 21
781.691355314918
 31
0.0
  0
CIRCLE
  5
18A9
330
44B9
100
AcDbEntity
  8
0
100
AcDbCircle
 10
1125.0
 20
781.691355314918
 30
0.0
 40
10.0
  0
LINE
  5
18AA
330
44B9
100
AcDbEntity
  8
0
100
AcDbLine
 10
1125.0
 20
803.6271332464421
 30
0.0
 11
1125.0
 21
759.7555773833943
 31
0.0
  0
LINE
  5
18AC
330
44B9
100
AcDbEntity
  8
0
100
AcDbLine
 10
1300.0
 20
751.6913739416761
 30
0.0
 11
1300.0
 21
949.1913223872968
 31
0.0
  0
LINE
  5
18B9
330
44B9
100
AcDbEntity
  8
0
100
AcDbLine
 10
1300.0
 20
1161.691270832918
 30
0.0
 11
1300.0
 21
949.1913223872968
 31
0.0
  0
LINE
  5
18BF
330
44B9
100
AcDbEntity
  8
0
100
AcDbLine
 10
1103.064222068476
 20
1131.691289459676
 30
0.0
 11
1146.935777931524
 21
1131.691289459676
 31
0.0
  0
LINE
  5
1C8A
330
44B9
100
AcDbEntity
  8
0
100
AcDbLine
 10
249.9999554235244
 20
1501.999999999999
 30
0.0
 11
249.9999554235244
 21
1484.425838270156
 31
0.0
  0
LINE
  5
1E9E
330
44B9
100
AcDbEntity
  8
0
100
AcDbLine
 10
1705.787007079048
 20
2331.999927799211
 30
0.0
 11
1705.787007079048
 21
2363.014646424972
 31
0.0
  0
LINE
  5
1F19
330
44B9
100
AcDbEntity
  8
0
100
AcDbLine
 10
1597.787007079047
 20
2087.000017209013
 30
0.0
 11
1597.787007079048
 21
2362.999927799211
 31
0.0
  0
LINE
  5
1F1A
330
44B9
100
AcDbEntity
  8
0
100
AcDbLine
 10
1705.787007079049
 20
2086.985298583252
 30
0.0
 11
1705.787007079049
 21
2363.014688173024
 31
0.0
  0
LINE
  5
1F1B
330
44B9
100
AcDbEntity
  8
0
100
AcDbLine
 10
1735.787007079048
 20
2087.000017209013
 30
0.0
 11
1735.787007079049
 21
2362.99992779921
 31
0.0
  0
LINE
  5
1F1C
330
44B9
100
AcDbEntity
  8
0
100
AcDbLine
 10
1628.787007079047
 20
2087.000017209013
 30
0.0
 11
1628.787007079048
 21
2362.999969547263
 31
0.0
  0
LINE
  5
219A
330
44B9
100
AcDbEntity
  8
0
100
AcDbLine
 10
1274.928143549499
 20
1591.839508999999
 30
0.0
 11
1274.928143549499
 21
1584.56046
 31
0.0
  0
LINE
  5
219B
330
44B9
100
AcDbEntity
  8
0
100
AcDbLine
 10
1281.856328549499
 20
1591.839502999999
 30
0.0
 11
1281.856328549499
 21
1584.560466999999
 31
0.0
  0
LINE
  5
219C
330
44B9
100
AcDbEntity
  8
0
100
AcDbLine
 10
1254.143554549499
 20
1591.839508999999
 30
0.0
 11
1254.143554549499
 21
1584.56046
 31
0.0
  0
LINE
  5
219D
330
44B9
100
AcDbEntity
  8
0
100
AcDbLine
 10
1261.071744549499
 20
1591.839508999999
 30
0.0
 11
1261.071744549499
 21
1584.56046
 31
0.0
  0
LINE
  5
219E
330
44B9
100
AcDbEntity
  8
0
100
AcDbLine
 10
1267.999934549498
 20
1636.659543302268
 30
0.0
 11
1267.999934549498
 21
1559.37616872948
 31
0.0
  0
LINE
  5
219F
330
44B9
100
AcDbEntity
  8
0
100
AcDbLine
 10
1299.999934549499
 20
1575.499999999999
 30
0.0
 11
1241.499934549498
 21
1575.5
 31
0.0
  0
LINE
  5
21A0
330
44B9
100
AcDbEntity
  8
0
100
AcDbLine
 10
1299.999934549499
 20
1579.999999999999
 30
0.0
 11
1241.499934549499
 21
1580.0
 31
0.0
  0
LINE
  5
21A1
330
44B9
100
AcDbEntity
  8
0
100
AcDbLine
 10
1285.999934549498
 20
1557.0
 30
0.0
 11
1254.999934549498
 21
1557.0
 31
0.0
  0
LINE
  5
21A2
330
44B9
100
AcDbEntity
  8
0
100
AcDbLine
 10
1282.999934549498
 20
1583.2
 30
0.0
 11
1252.999934549499
 21
1583.2
 31
0.0
  0
ARC
  5
21A3
330
44B9
100
AcDbEntity
  8
0
100
AcDbCircle
 10
1267.999934549498
 20
1601.521172999999
 30
0.0
 40
18.321183
100
AcDbArc
 50
247.7807000000199
 51
292.2193200000009
  0
ARC
  5
21A4
330
44B9
100
AcDbEntity
  8
0
100
AcDbCircle
 10
1267.999934549498
 20
1574.107142857142
 30
0.0
 40
8.607142857142846
100
AcDbArc
 50
216.3958791981003
 51
323.6041208018997
  0
LINE
  5
21A5
330
44B9
100
AcDbEntity
  8
0
100
AcDbLine
 10
1278.392239394911
 20
1565.499999999999
 30
0.0
 11
1257.607629704085
 21
1565.499999999999
 31
0.0
  0
LINE
  5
21A6
330
44B9
100
AcDbEntity
  8
0
100
AcDbLine
 10
1232.999934549498
 20
1541.999999999999
 30
0.0
 11
1293.699934549498
 21
1541.999999999999
 31
0.0
  0
ARC
  5
21A7
330
44B9
100
AcDbEntity
  8
0
100
AcDbCircle
 10
1285.999934549498
 20
1550.0
 30
0.0
 40
7.0
100
AcDbArc
 50
0.0
 51
90.0
  0
LINE
  5
21A8
330
44B9
100
AcDbEntity
  8
0
100
AcDbLine
 10
1299.999934549499
 20
1544.999999999999
 30
0.0
 11
1299.999934549499
 21
1579.999999999999
 31
0.0
  0
LINE
  5
21A9
330
44B9
100
AcDbEntity
  8
0
100
AcDbLine
 10
1293.999934549498
 20
1541.999999999999
 30
0.0
 11
1296.999934549498
 21
1541.999999999999
 31
0.0
  0
ARC
  5
21AA
330
44B9
100
AcDbEntity
  8
0
100
AcDbCircle
 10
1293.999934549498
 20
1542.999999999999
 30
0.0
 40
1.0
100
AcDbArc
 50
180.0
 51
270.0
  0
ARC
  5
21AB
330
44B9
100
AcDbEntity
  8
0
100
AcDbCircle
 10
1296.999934549498
 20
1544.999999999999
 30
0.0
 40
3.0
100
AcDbArc
 50
270.0
 51
0.0
  0
LINE
  5
21AC
330
44B9
100
AcDbEntity
  8
0
100
AcDbLine
 10
1292.999934549498
 20
1542.999999999999
 30
0.0
 11
1292.999934549498
 21
1550.0
 31
0.0
  0
LINE
  5
21AD
330
44B9
100
AcDbEntity
  8
0
100
AcDbLine
 10
1276.499934549498
 20
1579.999999999999
 30
0.0
 11
1276.499934549498
 21
1575.499999999999
 31
0.0
  0
LINE
  5
21AE
330
44B9
100
AcDbEntity
  8
0
100
AcDbLine
 10
1282.999934549498
 20
1579.999999999999
 30
0.0
 11
1282.999934549498
 21
1583.2
 31
0.0
  0
ARC
  5
21AF
330
44B9
100
AcDbEntity
  8
0
100
AcDbCircle
 10
1278.392239549499
 20
1588.290448999998
 30
0.0
 40
5.090450299999996
100
AcDbArc
 50
227.1166380000248
 51
312.8833100000215
  0
LINE
  5
21B0
330
44B9
100
AcDbEntity
  8
0
100
AcDbLine
 10
1274.928137779773
 20
1575.499999999999
 30
0.0
 11
1274.928137779773
 21
1568.999999999999
 31
0.0
  0
LINE
  5
21B1
330
44B9
100
AcDbEntity
  8
0
100
AcDbLine
 10
1281.856341010049
 20
1575.499999999999
 30
0.0
 11
1281.856341010049
 21
1568.999999999999
 31
0.0
  0
ARC
  5
21B2
330
44B9
100
AcDbEntity
  8
0
100
AcDbCircle
 10
1278.392239394911
 20
1568.964285714285
 30
0.0
 40
3.464285714285711
100
AcDbArc
 50
179.4093113971838
 51
0.5906886028161921
  0
LINE
  5
21B3
330
44B9
100
AcDbEntity
  8
0
100
AcDbLine
 10
1232.999934549498
 20
1541.999999999999
 30
0.0
 11
1232.999934549498
 21
1571.5
 31
0.0
  0
LINE
  5
21B4
330
44B9
100
AcDbEntity
  8
0
100
AcDbLine
 10
1237.499934549498
 20
1541.999999999999
 30
0.0
 11
1237.499934549498
 21
1571.5
 31
0.0
  0
ARC
  5
21B5
330
44B9
100
AcDbEntity
  8
0
100
AcDbCircle
 10
1254.999934549498
 20
1550.0
 30
0.0
 40
7.0
100
AcDbArc
 50
90.0
 51
180.0
  0
ARC
  5
21B6
330
44B9
100
AcDbEntity
  8
0
100
AcDbCircle
 10
1246.999934549498
 20
1542.999999999999
 30
0.0
 40
1.0
100
AcDbArc
 50
270.0
 51
0.0
  0
LINE
  5
21B7
330
44B9
100
AcDbEntity
  8
0
100
AcDbLine
 10
1247.999934549498
 20
1542.999999999999
 30
0.0
 11
1247.999934549498
 21
1550.0
 31
0.0
  0
LINE
  5
21B8
330
44B9
100
AcDbEntity
  8
0
100
AcDbLine
 10
1259.499934549499
 20
1580.0
 30
0.0
 11
1259.499934549499
 21
1575.5
 31
0.0
  0
ARC
  5
21B9
330
44B9
100
AcDbEntity
  8
0
100
AcDbCircle
 10
1257.607634549499
 20
1588.290448999998
 30
0.0
 40
5.090450299999996
100
AcDbArc
 50
227.1166830000212
 51
312.8833600000124
  0
LINE
  5
21BA
330
44B9
100
AcDbEntity
  8
0
100
AcDbLine
 10
1252.999934549499
 20
1580.0
 30
0.0
 11
1252.999934549499
 21
1583.2
 31
0.0
  0
ARC
  5
21BB
330
44B9
100
AcDbEntity
  8
0
100
AcDbCircle
 10
1257.607629704085
 20
1568.964285714285
 30
0.0
 40
3.464285714285711
100
AcDbArc
 50
179.4093113971838
 51
0.5906886028161921
  0
LINE
  5
21BC
330
44B9
100
AcDbEntity
  8
0
100
AcDbLine
 10
1254.143528088947
 20
1568.999999999999
 30
0.0
 11
1254.143528088947
 21
1575.499999999999
 31
0.0
  0
LINE
  5
21BD
330
44B9
100
AcDbEntity
  8
0
100
AcDbLine
 10
1261.071731319222
 20
1575.499999999999
 30
0.0
 11
1261.071731319222
 21
1568.999999999999
 31
0.0
  0
ARC
  5
21BE
330
44B9
100
AcDbEntity
  8
0
100
AcDbCircle
 10
1241.499934549498
 20
1571.5
 30
0.0
 40
8.5
100
AcDbArc
 50
90.0
 51
180.0
  0
ARC
  5
21BF
330
44B9
100
AcDbEntity
  8
0
100
AcDbCircle
 10
1241.499934549499
 20
1571.5
 30
0.0
 40
4.0
100
AcDbArc
 50
90.0
 51
180.0
  0
ARC
  5
21C0
330
44B9
100
AcDbEntity
  8
0
100
AcDbCircle
 10
1267.999934549498
 20
1574.87879
 30
0.0
 40
18.321183
100
AcDbArc
 50
67.78066999999824
 51
112.2192899999792
  0
LINE
  5
21C1
330
44B9
100
AcDbEntity
  8
0
100
AcDbLine
 10
1257.607634549499
 20
1593.199969999999
 30
0.0
 11
1278.392239549499
 21
1593.199969999999
 31
0.0
  0
LINE
  5
21C2
330
44B9
100
AcDbEntity
  8
0
100
AcDbLine
 10
1287.999934549499
 20
1598.999999999999
 30
0.0
 11
1267.999934549498
 21
1598.999999999999
 31
0.0
  0
LINE
  5
21C3
330
44B9
100
AcDbEntity
  8
0
100
AcDbLine
 10
1299.999934549499
 20
1614.5
 30
0.0
 11
1267.999934549498
 21
1614.499999999999
 31
0.0
  0
LINE
  5
21C4
330
44B9
100
AcDbEntity
  8
0
100
AcDbLine
 10
1299.999934549499
 20
1610.0
 30
0.0
 11
1267.999934549498
 21
1609.999999999999
 31
0.0
  0
LINE
  5
21C5
330
44B9
100
AcDbEntity
  8
0
100
AcDbLine
 10
1289.499934549499
 20
1606.5
 30
0.0
 11
1267.999934549498
 21
1606.499999999999
 31
0.0
  0
ARC
  5
21C6
330
44B9
100
AcDbEntity
  8
0
100
AcDbCircle
 10
1267.999928154193
 20
1608.678819999999
 30
0.0
 40
18.321183
100
AcDbArc
 50
67.78066999999824
 51
112.2192899999792
  0
LINE
  5
21C7
330
44B9
100
AcDbEntity
  8
0
100
AcDbLine
 10
1257.607618154193
 20
1626.999983
 30
0.0
 11
1278.392228154194
 21
1626.999983
 31
0.0
  0
LINE
  5
21C8
330
44B9
100
AcDbEntity
  8
0
100
AcDbLine
 10
1232.999934549498
 20
1680.0
 30
0.0
 11
1299.999934549499
 21
1680.0
 31
0.0
  0
ARC
  5
21C9
330
44B9
100
AcDbEntity
  8
0
100
AcDbCircle
 10
1292.999934549498
 20
1653.3
 30
0.0
 40
17.0
100
AcDbArc
 50
97.66225566075876
 51
172.3377443392412
  0
LINE
  5
21CA
330
44B9
100
AcDbEntity
  8
0
100
AcDbLine
 10
1292.999934549498
 20
1655.3
 30
0.0
 11
1292.999934549498
 21
1668.166068747319
 31
0.0
  0
LINE
  5
21CB
330
44B9
100
AcDbEntity
  8
0
100
AcDbLine
 10
1290.999934549498
 20
1653.3
 30
0.0
 11
1278.13386580218
 21
1653.3
 31
0.0
  0
ARC
  5
21CC
330
44B9
100
AcDbEntity
  8
0
100
AcDbCircle
 10
1278.13386580218
 20
1655.3
 30
0.0
 40
2.0
100
AcDbArc
 50
172.3377443392412
 51
270.0
  0
ARC
  5
21CD
330
44B9
100
AcDbEntity
  8
0
100
AcDbCircle
 10
1290.999934549498
 20
1655.3
 30
0.0
 40
2.0
100
AcDbArc
 50
270.0
 51
0.0
  0
ARC
  5
21CE
330
44B9
100
AcDbEntity
  8
0
100
AcDbCircle
 10
1290.999934549498
 20
1668.166068747319
 30
0.0
 40
2.0
100
AcDbArc
 50
0.0
 51
97.66225566075876
  0
LINE
  5
21CF
330
44B9
100
AcDbEntity
  8
0
100
AcDbLine
 10
1276.026479164558
 20
1598.999999999999
 30
0.0
 11
1276.024842601403
 21
1593.199969999999
 31
0.0
  0
ARC
  5
21D0
330
44B9
100
AcDbEntity
  8
0
100
AcDbCircle
 10
1278.392239549499
 20
1588.109520999999
 30
0.0
 40
5.090450299999996
100
AcDbArc
 50
47.11667999997996
 51
132.8833600000123
  0
LINE
  5
21D1
330
44B9
100
AcDbEntity
  8
0
100
AcDbLine
 10
1289.499934549499
 20
1598.999999999999
 30
0.0
 11
1287.999934549499
 21
1598.999999999999
 31
0.0
  0
LINE
  5
21D2
330
44B9
100
AcDbEntity
  8
0
100
AcDbLine
 10
1289.499934549499
 20
1606.5
 30
0.0
 11
1289.499934549499
 21
1598.999999999999
 31
0.0
  0
LINE
  5
21D3
330
44B9
100
AcDbEntity
  8
0
100
AcDbLine
 10
1279.799934549498
 20
1606.499999999999
 30
0.0
 11
1279.799934549499
 21
1609.999999999999
 31
0.0
  0
ARC
  5
21D4
330
44B9
100
AcDbEntity
  8
0
100
AcDbCircle
 10
1278.392228154194
 20
1621.909533999999
 30
0.0
 40
5.090450299999996
100
AcDbArc
 50
47.11667999997996
 51
132.8833600000123
  0
LINE
  5
21D5
330
44B9
100
AcDbEntity
  8
0
100
AcDbLine
 10
1274.928138154193
 20
1625.639521999999
 30
0.0
 11
1274.928138154193
 21
1614.499999999999
 31
0.0
  0
LINE
  5
21D6
330
44B9
100
AcDbEntity
  8
0
100
AcDbLine
 10
1281.856318154193
 20
1625.639521999999
 30
0.0
 11
1281.856318154193
 21
1614.499999999999
 31
0.0
  0
LINE
  5
21D7
330
44B9
100
AcDbEntity
  8
0
100
AcDbLine
 10
1299.999934549499
 20
1680.0
 30
0.0
 11
1299.999934549499
 21
1610.0
 31
0.0
  0
ARC
  5
21D8
330
44B9
100
AcDbEntity
  8
0
100
AcDbCircle
 10
1240.499934549499
 20
1617.499999999999
 30
0.0
 40
7.5
100
AcDbArc
 50
180.0
 51
270.0
  0
ARC
  5
21D9
330
44B9
100
AcDbEntity
  8
0
100
AcDbCircle
 10
1240.499934549499
 20
1617.499999999999
 30
0.0
 40
3.0
100
AcDbArc
 50
180.0
 51
270.0
  0
LINE
  5
21DA
330
44B9
100
AcDbEntity
  8
0
100
AcDbLine
 10
1232.999934549498
 20
1680.0
 30
0.0
 11
1232.999934549498
 21
1617.499999999999
 31
0.0
  0
LINE
  5
21DB
330
44B9
100
AcDbEntity
  8
0
100
AcDbLine
 10
1237.499934549498
 20
1680.0
 30
0.0
 11
1237.499934549498
 21
1617.499999999999
 31
0.0
  0
ARC
  5
21DC
330
44B9
100
AcDbEntity
  8
0
100
AcDbCircle
 10
1242.999934549498
 20
1653.3
 30
0.0
 40
17.0
100
AcDbArc
 50
7.662255660758753
 51
82.3377443392412
  0
LINE
  5
21DD
330
44B9
100
AcDbEntity
  8
0
100
AcDbLine
 10
1242.999934549498
 20
1655.3
 30
0.0
 11
1242.999934549498
 21
1668.166068747319
 31
0.0
  0
LINE
  5
21DE
330
44B9
100
AcDbEntity
  8
0
100
AcDbLine
 10
1244.999934549498
 20
1653.3
 30
0.0
 11
1257.866003296817
 21
1653.3
 31
0.0
  0
ARC
  5
21DF
330
44B9
100
AcDbEntity
  8
0
100
AcDbCircle
 10
1244.999934549498
 20
1655.3
 30
0.0
 40
2.0
100
AcDbArc
 50
180.0
 51
270.0
  0
ARC
  5
21E0
330
44B9
100
AcDbEntity
  8
0
100
AcDbCircle
 10
1257.866003296817
 20
1655.3
 30
0.0
 40
2.0
100
AcDbArc
 50
270.0
 51
7.662255660758753
  0
ARC
  5
21E1
330
44B9
100
AcDbEntity
  8
0
100
AcDbCircle
 10
1244.999934549498
 20
1668.166068747319
 30
0.0
 40
2.0
100
AcDbArc
 50
82.3377443392412
 51
180.0
  0
LINE
  5
21E2
330
44B9
100
AcDbEntity
  8
0
100
AcDbLine
 10
1260.026478588121
 20
1598.999999999999
 30
0.0
 11
1260.024842024965
 21
1593.199969999999
 31
0.0
  0
ARC
  5
21E3
330
44B9
100
AcDbEntity
  8
0
100
AcDbCircle
 10
1257.607634549499
 20
1588.109520999999
 30
0.0
 40
5.090450299999996
100
AcDbArc
 50
47.11662999999878
 51
132.8833100000216
  0
LINE
  5
21E4
330
44B9
100
AcDbEntity
  8
0
100
AcDbLine
 10
1267.999934549498
 20
1598.999999999999
 30
0.0
 11
1247.999934549498
 21
1598.999999999999
 31
0.0
  0
LINE
  5
21E5
330
44B9
100
AcDbEntity
  8
0
100
AcDbLine
 10
1267.999934549498
 20
1606.5
 30
0.0
 11
1246.499934549499
 21
1606.5
 31
0.0
  0
LINE
  5
21E6
330
44B9
100
AcDbEntity
  8
0
100
AcDbLine
 10
1246.499934549499
 20
1606.5
 30
0.0
 11
1246.499934549499
 21
1598.999999999999
 31
0.0
  0
LINE
  5
21E7
330
44B9
100
AcDbEntity
  8
0
100
AcDbLine
 10
1247.999934549498
 20
1598.999999999999
 30
0.0
 11
1246.499934549499
 21
1598.999999999999
 31
0.0
  0
LINE
  5
21E8
330
44B9
100
AcDbEntity
  8
0
100
AcDbLine
 10
1256.199934549498
 20
1606.5
 30
0.0
 11
1256.199934549498
 21
1609.999999999999
 31
0.0
  0
ARC
  5
21E9
330
44B9
100
AcDbEntity
  8
0
100
AcDbCircle
 10
1257.607618154193
 20
1621.909533999999
 30
0.0
 40
5.090450299999996
100
AcDbArc
 50
47.11662999999878
 51
132.8833100000216
  0
LINE
  5
21EA
330
44B9
100
AcDbEntity
  8
0
100
AcDbLine
 10
1261.071718154193
 20
1625.639521999999
 30
0.0
 11
1261.071718154193
 21
1614.499999999999
 31
0.0
  0
LINE
  5
21EB
330
44B9
100
AcDbEntity
  8
0
100
AcDbLine
 10
1254.143528154194
 20
1625.639521999999
 30
0.0
 11
1254.143528154194
 21
1614.499999999999
 31
0.0
  0
LINE
  5
21EC
330
44B9
100
AcDbEntity
  8
0
100
AcDbLine
 10
1267.999934549498
 20
1610.0
 30
0.0
 11
1240.499934549499
 21
1609.999999999999
 31
0.0
  0
LINE
  5
21ED
330
44B9
100
AcDbEntity
  8
0
100
AcDbLine
 10
1267.999934549498
 20
1614.5
 30
0.0
 11
1240.499934549499
 21
1614.499999999999
 31
0.0
  0
LINE
  5
21EE
330
44B9
100
AcDbEntity
  8
0
100
AcDbLine
 10
375.0717909999994
 20
1591.839508999999
 30
0.0
 11
375.0717909999994
 21
1584.56046
 31
0.0
  0
LINE
  5
21EF
330
44B9
100
AcDbEntity
  8
0
100
AcDbLine
 10
368.1436059999996
 20
1591.839502999999
 30
0.0
 11
368.1436059999996
 21
1584.560466999999
 31
0.0
  0
LINE
  5
21F0
330
44B9
100
AcDbEntity
  8
0
100
AcDbLine
 10
395.8563799999993
 20
1591.839508999999
 30
0.0
 11
395.8563799999993
 21
1584.56046
 31
0.0
  0
LINE
  5
21F1
330
44B9
100
AcDbEntity
  8
0
100
AcDbLine
 10
388.9281899999996
 20
1591.839508999999
 30
0.0
 11
388.9281899999996
 21
1584.56046
 31
0.0
  0
LINE
  5
21F2
330
44B9
100
AcDbEntity
  8
0
100
AcDbLine
 10
381.9999999999995
 20
1636.659543302268
 30
0.0
 11
381.9999999999995
 21
1559.37616872948
 31
0.0
  0
LINE
  5
21F3
330
44B9
100
AcDbEntity
  8
0
100
AcDbLine
 10
350.0
 20
1575.499999999999
 30
0.0
 11
408.5000000000004
 21
1575.5
 31
0.0
  0
LINE
  5
21F4
330
44B9
100
AcDbEntity
  8
0
100
AcDbLine
 10
350.0
 20
1579.999999999999
 30
0.0
 11
408.4999999999998
 21
1580.0
 31
0.0
  0
LINE
  5
21F5
330
44B9
100
AcDbEntity
  8
0
100
AcDbLine
 10
364.0000000000005
 20
1557.0
 30
0.0
 11
395.0000000000004
 21
1557.0
 31
0.0
  0
LINE
  5
21F6
330
44B9
100
AcDbEntity
  8
0
100
AcDbLine
 10
366.9999999999995
 20
1583.2
 30
0.0
 11
396.9999999999996
 21
1583.2
 31
0.0
  0
ARC
  5
21F7
330
44B9
100
AcDbEntity
  8
0
100
AcDbCircle
 10
381.9999999999995
 20
1601.521172999999
 30
0.0
 40
18.321183
100
AcDbArc
 50
247.7806800000021
 51
292.2192999999771
  0
ARC
  5
21F8
330
44B9
100
AcDbEntity
  8
0
100
AcDbCircle
 10
382.0000000000007
 20
1574.107142857142
 30
0.0
 40
8.607142857142846
100
AcDbArc
 50
216.3958791981003
 51
323.6041208018997
  0
LINE
  5
21F9
330
44B9
100
AcDbEntity
  8
0
100
AcDbLine
 10
371.6076951545876
 20
1565.499999999999
 30
0.0
 11
392.3923048454136
 21
1565.499999999999
 31
0.0
  0
LINE
  5
21FA
330
44B9
100
AcDbEntity
  8
0
100
AcDbLine
 10
417.0000000000004
 20
1541.999999999999
 30
0.0
 11
356.3000000000005
 21
1541.999999999999
 31
0.0
  0
ARC
  5
21FB
330
44B9
100
AcDbEntity
  8
0
100
AcDbCircle
 10
364.0000000000005
 20
1550.0
 30
0.0
 40
7.0
100
AcDbArc
 50
90.0
 51
180.0
  0
LINE
  5
21FC
330
44B9
100
AcDbEntity
  8
0
100
AcDbLine
 10
350.0
 20
1544.999999999999
 30
0.0
 11
350.0
 21
1579.999999999999
 31
0.0
  0
LINE
  5
21FD
330
44B9
100
AcDbEntity
  8
0
100
AcDbLine
 10
356.0000000000004
 20
1541.999999999999
 30
0.0
 11
353.0
 21
1541.999999999999
 31
0.0
  0
ARC
  5
21FE
330
44B9
100
AcDbEntity
  8
0
100
AcDbCircle
 10
356.0000000000004
 20
1542.999999999999
 30
0.0
 40
1.0
100
AcDbArc
 50
270.0
 51
0.0
  0
ARC
  5
21FF
330
44B9
100
AcDbEntity
  8
0
100
AcDbCircle
 10
353.0
 20
1544.999999999999
 30
0.0
 40
3.0
100
AcDbArc
 50
180.0
 51
270.0
  0
LINE
  5
2200
330
44B9
100
AcDbEntity
  8
0
100
AcDbLine
 10
357.0000000000005
 20
1542.999999999999
 30
0.0
 11
357.0000000000005
 21
1550.0
 31
0.0
  0
LINE
  5
2201
330
44B9
100
AcDbEntity
  8
0
100
AcDbLine
 10
373.4999999999995
 20
1579.999999999999
 30
0.0
 11
373.4999999999995
 21
1575.499999999999
 31
0.0
  0
LINE
  5
2202
330
44B9
100
AcDbEntity
  8
0
100
AcDbLine
 10
366.9999999999995
 20
1579.999999999999
 30
0.0
 11
366.9999999999995
 21
1583.2
 31
0.0
  0
ARC
  5
2203
330
44B9
100
AcDbEntity
  8
0
100
AcDbCircle
 10
371.6076949999997
 20
1588.290448999998
 30
0.0
 40
5.090450299999996
100
AcDbArc
 50
227.1166899999784
 51
312.8833619999752
  0
LINE
  5
2204
330
44B9
100
AcDbEntity
  8
0
100
AcDbLine
 10
375.0717967697253
 20
1575.499999999999
 30
0.0
 11
375.0717967697253
 21
1568.999999999999
 31
0.0
  0
LINE
  5
2205
330
44B9
100
AcDbEntity
  8
0
100
AcDbLine
 10
368.1435935394495
 20
1575.499999999999
 30
0.0
 11
368.1435935394495
 21
1568.999999999999
 31
0.0
  0
ARC
  5
2206
330
44B9
100
AcDbEntity
  8
0
100
AcDbCircle
 10
371.6076951545876
 20
1568.964285714285
 30
0.0
 40
3.464285714285711
100
AcDbArc
 50
179.4093113971838
 51
0.5906886028161587
  0
LINE
  5
2207
330
44B9
100
AcDbEntity
  8
0
100
AcDbLine
 10
417.0000000000004
 20
1541.999999999999
 30
0.0
 11
417.0000000000004
 21
1571.5
 31
0.0
  0
LINE
  5
2208
330
44B9
100
AcDbEntity
  8
0
100
AcDbLine
 10
412.5000000000004
 20
1541.999999999999
 30
0.0
 11
412.5000000000004
 21
1571.5
 31
0.0
  0
ARC
  5
2209
330
44B9
100
AcDbEntity
  8
0
100
AcDbCircle
 10
395.0000000000004
 20
1550.0
 30
0.0
 40
7.0
100
AcDbArc
 50
0.0
 51
90.0
  0
ARC
  5
220A
330
44B9
100
AcDbEntity
  8
0
100
AcDbCircle
 10
403.0000000000002
 20
1542.999999999999
 30
0.0
 40
1.0
100
AcDbArc
 50
180.0
 51
270.0
  0
LINE
  5
220B
330
44B9
100
AcDbEntity
  8
0
100
AcDbLine
 10
402.0000000000004
 20
1542.999999999999
 30
0.0
 11
402.0000000000004
 21
1550.0
 31
0.0
  0
LINE
  5
220C
330
44B9
100
AcDbEntity
  8
0
100
AcDbLine
 10
390.4999999999995
 20
1580.0
 30
0.0
 11
390.4999999999995
 21
1575.5
 31
0.0
  0
ARC
  5
220D
330
44B9
100
AcDbEntity
  8
0
100
AcDbCircle
 10
392.3922999999995
 20
1588.290448999998
 30
0.0
 40
5.090450299999996
100
AcDbArc
 50
227.1166399999853
 51
312.8833169999789
  0
LINE
  5
220E
330
44B9
100
AcDbEntity
  8
0
100
AcDbLine
 10
396.9999999999996
 20
1580.0
 30
0.0
 11
396.9999999999996
 21
1583.2
 31
0.0
  0
ARC
  5
220F
330
44B9
100
AcDbEntity
  8
0
100
AcDbCircle
 10
392.3923048454136
 20
1568.964285714285
 30
0.0
 40
3.464285714285711
100
AcDbArc
 50
179.4093113971838
 51
0.5906886028161587
  0
LINE
  5
2210
330
44B9
100
AcDbEntity
  8
0
100
AcDbLine
 10
395.8564064605519
 20
1568.999999999999
 30
0.0
 11
395.8564064605519
 21
1575.499999999999
 31
0.0
  0
LINE
  5
2211
330
44B9
100
AcDbEntity
  8
0
100
AcDbLine
 10
388.9282032302765
 20
1575.499999999999
 30
0.0
 11
388.9282032302765
 21
1568.999999999999
 31
0.0
  0
ARC
  5
2212
330
44B9
100
AcDbEntity
  8
0
100
AcDbCircle
 10
408.5000000000004
 20
1571.5
 30
0.0
 40
8.5
100
AcDbArc
 50
0.0
 51
90.0
  0
ARC
  5
2213
330
44B9
100
AcDbEntity
  8
0
100
AcDbCircle
 10
408.4999999999998
 20
1571.5
 30
0.0
 40
4.0
100
AcDbArc
 50
0.0
 51
90.0
  0
ARC
  5
2214
330
44B9
100
AcDbEntity
  8
0
100
AcDbCircle
 10
381.9999999999995
 20
1574.87879
 30
0.0
 40
18.321183
100
AcDbArc
 50
67.78071000001772
 51
112.2193300000017
  0
LINE
  5
2215
330
44B9
100
AcDbEntity
  8
0
100
AcDbLine
 10
392.3922999999995
 20
1593.199969999999
 30
0.0
 11
371.6076949999997
 21
1593.199969999999
 31
0.0
  0
LINE
  5
2216
330
44B9
100
AcDbEntity
  8
0
100
AcDbLine
 10
361.9999999999996
 20
1598.999999999999
 30
0.0
 11
381.9999999999995
 21
1598.999999999999
 31
0.0
  0
LINE
  5
2217
330
44B9
100
AcDbEntity
  8
0
100
AcDbLine
 10
350.0
 20
1614.5
 30
0.0
 11
381.9999999999995
 21
1614.499999999999
 31
0.0
  0
LINE
  5
2218
330
44B9
100
AcDbEntity
  8
0
100
AcDbLine
 10
350.0
 20
1610.0
 30
0.0
 11
381.9999999999995
 21
1609.999999999999
 31
0.0
  0
LINE
  5
2219
330
44B9
100
AcDbEntity
  8
0
100
AcDbLine
 10
360.4999999999995
 20
1606.5
 30
0.0
 11
381.9999999999995
 21
1606.499999999999
 31
0.0
  0
ARC
  5
221A
330
44B9
100
AcDbEntity
  8
0
100
AcDbCircle
 10
382.0000063953055
 20
1608.678819999999
 30
0.0
 40
18.321183
100
AcDbArc
 50
67.78071000001772
 51
112.2193300000017
  0
LINE
  5
221B
330
44B9
100
AcDbEntity
  8
0
100
AcDbLine
 10
392.3923163953057
 20
1626.999983
 30
0.0
 11
371.6077063953051
 21
1626.999983
 31
0.0
  0
LINE
  5
221C
330
44B9
100
AcDbEntity
  8
0
100
AcDbLine
 10
417.0000000000004
 20
1680.0
 30
0.0
 11
350.0
 21
1680.0
 31
0.0
  0
ARC
  5
221D
330
44B9
100
AcDbEntity
  8
0
100
AcDbCircle
 10
357.0000000000005
 20
1653.3
 30
0.0
 40
17.0
100
AcDbArc
 50
7.662255660759192
 51
82.3377443392412
  0
LINE
  5
221E
330
44B9
100
AcDbEntity
  8
0
100
AcDbLine
 10
357.0000000000005
 20
1655.3
 30
0.0
 11
357.0000000000005
 21
1668.166068747319
 31
0.0
  0
LINE
  5
221F
330
44B9
100
AcDbEntity
  8
0
100
AcDbLine
 10
359.0000000000005
 20
1653.3
 30
0.0
 11
371.8660687473189
 21
1653.3
 31
0.0
  0
ARC
  5
2220
330
44B9
100
AcDbEntity
  8
0
100
AcDbCircle
 10
371.8660687473189
 20
1655.3
 30
0.0
 40
2.0
100
AcDbArc
 50
270.0
 51
7.662255660759192
  0
ARC
  5
2221
330
44B9
100
AcDbEntity
  8
0
100
AcDbCircle
 10
359.0000000000005
 20
1655.3
 30
0.0
 40
2.0
100
AcDbArc
 50
180.0
 51
270.0
  0
ARC
  5
2222
330
44B9
100
AcDbEntity
  8
0
100
AcDbCircle
 10
359.0000000000005
 20
1668.166068747319
 30
0.0
 40
2.0
100
AcDbArc
 50
82.3377443392412
 51
180.0
  0
LINE
  5
2223
330
44B9
100
AcDbEntity
  8
0
100
AcDbLine
 10
373.9734553849404
 20
1598.999999999999
 30
0.0
 11
373.9750919480957
 21
1593.199969999999
 31
0.0
  0
ARC
  5
2224
330
44B9
100
AcDbEntity
  8
0
100
AcDbCircle
 10
371.6076949999997
 20
1588.109520999999
 30
0.0
 40
5.090450299999996
100
AcDbArc
 50
47.11663999998524
 51
132.8833200000176
  0
LINE
  5
2225
330
44B9
100
AcDbEntity
  8
0
100
AcDbLine
 10
360.4999999999995
 20
1598.999999999999
 30
0.0
 11
361.9999999999996
 21
1598.999999999999
 31
0.0
  0
LINE
  5
2226
330
44B9
100
AcDbEntity
  8
0
100
AcDbLine
 10
360.4999999999995
 20
1606.5
 30
0.0
 11
360.4999999999995
 21
1598.999999999999
 31
0.0
  0
LINE
  5
2227
330
44B9
100
AcDbEntity
  8
0
100
AcDbLine
 10
370.2000000000006
 20
1606.499999999999
 30
0.0
 11
370.2
 21
1609.999999999999
 31
0.0
  0
ARC
  5
2228
330
44B9
100
AcDbEntity
  8
0
100
AcDbCircle
 10
371.6077063953051
 20
1621.909533999999
 30
0.0
 40
5.090450299999996
100
AcDbArc
 50
47.11663999998524
 51
132.8833200000176
  0
LINE
  5
2229
330
44B9
100
AcDbEntity
  8
0
100
AcDbLine
 10
375.0717963953055
 20
1625.639521999999
 30
0.0
 11
375.0717963953055
 21
1614.499999999999
 31
0.0
  0
LINE
  5
222A
330
44B9
100
AcDbEntity
  8
0
100
AcDbLine
 10
368.1436163953056
 20
1625.639521999999
 30
0.0
 11
368.1436163953056
 21
1614.499999999999
 31
0.0
  0
LINE
  5
222B
330
44B9
100
AcDbEntity
  8
0
100
AcDbLine
 10
350.0
 20
1680.0
 30
0.0
 11
350.0
 21
1610.0
 31
0.0
  0
ARC
  5
222C
330
44B9
100
AcDbEntity
  8
0
100
AcDbCircle
 10
409.4999999999997
 20
1617.499999999999
 30
0.0
 40
7.5
100
AcDbArc
 50
270.0
 51
0.0
  0
ARC
  5
222D
330
44B9
100
AcDbEntity
  8
0
100
AcDbCircle
 10
409.4999999999997
 20
1617.499999999999
 30
0.0
 40
3.0
100
AcDbArc
 50
270.0
 51
0.0
  0
LINE
  5
222E
330
44B9
100
AcDbEntity
  8
0
100
AcDbLine
 10
417.0000000000004
 20
1680.0
 30
0.0
 11
417.0000000000004
 21
1617.499999999999
 31
0.0
  0
LINE
  5
222F
330
44B9
100
AcDbEntity
  8
0
100
AcDbLine
 10
412.5000000000004
 20
1680.0
 30
0.0
 11
412.5000000000004
 21
1617.499999999999
 31
0.0
  0
ARC
  5
2230
330
44B9
100
AcDbEntity
  8
0
100
AcDbCircle
 10
407.0000000000008
 20
1653.3
 30
0.0
 40
17.0
100
AcDbArc
 50
97.66225566075876
 51
172.3377443392408
  0
LINE
  5
2231
330
44B9
100
AcDbEntity
  8
0
100
AcDbLine
 10
407.0000000000008
 20
1655.3
 30
0.0
 11
407.0000000000002
 21
1668.166068747319
 31
0.0
  0
LINE
  5
2232
330
44B9
100
AcDbEntity
  8
0
100
AcDbLine
 10
405.0000000000008
 20
1653.3
 30
0.0
 11
392.133931252682
 21
1653.3
 31
0.0
  0
ARC
  5
2233
330
44B9
100
AcDbEntity
  8
0
100
AcDbCircle
 10
405.0000000000008
 20
1655.3
 30
0.0
 40
2.0
100
AcDbArc
 50
270.0
 51
0.0
  0
ARC
  5
2234
330
44B9
100
AcDbEntity
  8
0
100
AcDbCircle
 10
392.133931252682
 20
1655.3
 30
0.0
 40
2.0
100
AcDbArc
 50
172.3377443392408
 51
270.0
  0
ARC
  5
2235
330
44B9
100
AcDbEntity
  8
0
100
AcDbCircle
 10
405.0000000000004
 20
1668.166068747319
 30
0.0
 40
2.0
100
AcDbArc
 50
0.0
 51
97.66225566075876
  0
LINE
  5
2236
330
44B9
100
AcDbEntity
  8
0
100
AcDbLine
 10
389.9734559613781
 20
1598.999999999999
 30
0.0
 11
389.9750925245335
 21
1593.199969999999
 31
0.0
  0
ARC
  5
2237
330
44B9
100
AcDbEntity
  8
0
100
AcDbCircle
 10
392.3922999999995
 20
1588.109520999999
 30
0.0
 40
5.090450299999996
100
AcDbArc
 50
47.11668999997841
 51
132.8833700000012
  0
LINE
  5
2238
330
44B9
100
AcDbEntity
  8
0
100
AcDbLine
 10
381.9999999999995
 20
1598.999999999999
 30
0.0
 11
401.9999999999995
 21
1598.999999999999
 31
0.0
  0
LINE
  5
2239
330
44B9
100
AcDbEntity
  8
0
100
AcDbLine
 10
381.9999999999995
 20
1606.5
 30
0.0
 11
403.4999999999993
 21
1606.5
 31
0.0
  0
LINE
  5
223A
330
44B9
100
AcDbEntity
  8
0
100
AcDbLine
 10
403.4999999999993
 20
1606.5
 30
0.0
 11
403.4999999999993
 21
1598.999999999999
 31
0.0
  0
LINE
  5
223B
330
44B9
100
AcDbEntity
  8
0
100
AcDbLine
 10
401.9999999999995
 20
1598.999999999999
 30
0.0
 11
403.4999999999993
 21
1598.999999999999
 31
0.0
  0
LINE
  5
223C
330
44B9
100
AcDbEntity
  8
0
100
AcDbLine
 10
393.8
 20
1606.5
 30
0.0
 11
393.8
 21
1609.999999999999
 31
0.0
  0
ARC
  5
223D
330
44B9
100
AcDbEntity
  8
0
100
AcDbCircle
 10
392.3923163953057
 20
1621.909533999999
 30
0.0
 40
5.090450299999996
100
AcDbArc
 50
47.11668999997841
 51
132.8833700000012
  0
LINE
  5
223E
330
44B9
100
AcDbEntity
  8
0
100
AcDbLine
 10
388.9282163953055
 20
1625.639521999999
 30
0.0
 11
388.9282163953055
 21
1614.499999999999
 31
0.0
  0
LINE
  5
223F
330
44B9
100
AcDbEntity
  8
0
100
AcDbLine
 10
395.8564063953052
 20
1625.639521999999
 30
0.0
 11
395.8564063953052
 21
1614.499999999999
 31
0.0
  0
LINE
  5
2240
330
44B9
100
AcDbEntity
  8
0
100
AcDbLine
 10
381.9999999999995
 20
1610.0
 30
0.0
 11
409.4999999999995
 21
1609.999999999999
 31
0.0
  0
LINE
  5
2241
330
44B9
100
AcDbEntity
  8
0
100
AcDbLine
 10
381.9999999999995
 20
1614.5
 30
0.0
 11
409.4999999999997
 21
1614.499999999999
 31
0.0
  0
LINE
  5
2242
330
44B9
100
AcDbEntity
  8
0
100
AcDbLine
 10
1685.947498079048
 20
2045.071808209012
 30
0.0
 11
1693.226547079046
 21
2045.071808209012
 31
0.0
  0
LINE
  5
2243
330
44B9
100
AcDbEntity
  8
0
100
AcDbLine
 10
1685.947504079048
 20
2038.143623209013
 30
0.0
 11
1693.226540079048
 21
2038.143623209013
 31
0.0
  0
LINE
  5
2244
330
44B9
100
AcDbEntity
  8
0
100
AcDbLine
 10
1685.947498079048
 20
2065.856397209012
 30
0.0
 11
1693.226547079046
 21
2065.856397209012
 31
0.0
  0
LINE
  5
2245
330
44B9
100
AcDbEntity
  8
0
100
AcDbLine
 10
1685.947498079048
 20
2058.928207209012
 30
0.0
 11
1693.226547079046
 21
2058.928207209012
 31
0.0
  0
LINE
  5
2246
330
44B9
100
AcDbEntity
  8
0
100
AcDbLine
 10
1641.127463776778
 20
2052.000017209012
 30
0.0
 11
1718.410838349567
 21
2052.000017209012
 31
0.0
  0
LINE
  5
2247
330
44B9
100
AcDbEntity
  8
0
100
AcDbLine
 10
1702.287007079048
 20
2020.000017209013
 30
0.0
 11
1702.287007079047
 21
2078.500017209012
 31
0.0
  0
LINE
  5
2248
330
44B9
100
AcDbEntity
  8
0
100
AcDbLine
 10
1697.787007079048
 20
2020.000017209013
 30
0.0
 11
1697.787007079047
 21
2078.500017209012
 31
0.0
  0
LINE
  5
2249
330
44B9
100
AcDbEntity
  8
0
100
AcDbLine
 10
1720.787007079047
 20
2034.000017209013
 30
0.0
 11
1720.787007079047
 21
2065.000017209013
 31
0.0
  0
LINE
  5
224A
330
44B9
100
AcDbEntity
  8
0
100
AcDbLine
 10
1694.587007079047
 20
2037.000017209012
 30
0.0
 11
1694.587007079047
 21
2067.000017209013
 31
0.0
  0
ARC
  5
224B
330
44B9
100
AcDbEntity
  8
0
100
AcDbCircle
 10
1676.265834079048
 20
2052.000017209012
 30
0.0
 40
18.321183
100
AcDbArc
 50
337.7806799999991
 51
22.21929999998009
  0
ARC
  5
224C
330
44B9
100
AcDbEntity
  8
0
100
AcDbCircle
 10
1703.679864221905
 20
2052.000017209013
 30
0.0
 40
8.607142857142846
100
AcDbArc
 50
306.3958791981002
 51
53.60412080189973
  0
LINE
  5
224D
330
44B9
100
AcDbEntity
  8
0
100
AcDbLine
 10
1712.287007079047
 20
2041.6077123636
 30
0.0
 11
1712.287007079047
 21
2062.392322054427
 31
0.0
  0
LINE
  5
224E
330
44B9
100
AcDbEntity
  8
0
100
AcDbLine
 10
1735.787007079048
 20
2087.000017209013
 30
0.0
 11
1735.787007079048
 21
2026.300017209013
 31
0.0
  0
ARC
  5
224F
330
44B9
100
AcDbEntity
  8
0
100
AcDbCircle
 10
1727.787007079047
 20
2034.000017209013
 30
0.0
 40
7.0
100
AcDbArc
 50
180.0
 51
270.0
  0
LINE
  5
2250
330
44B9
100
AcDbEntity
  8
0
100
AcDbLine
 10
1732.787007079048
 20
2020.000017209013
 30
0.0
 11
1697.787007079048
 21
2020.000017209013
 31
0.0
  0
LINE
  5
2251
330
44B9
100
AcDbEntity
  8
0
100
AcDbLine
 10
1735.787007079048
 20
2026.000017209013
 30
0.0
 11
1735.787007079048
 21
2023.000017209013
 31
0.0
  0
ARC
  5
2252
330
44B9
100
AcDbEntity
  8
0
100
AcDbCircle
 10
1734.787007079048
 20
2026.000017209013
 30
0.0
 40
1.0
100
AcDbArc
 50
0.0
 51
90.0
  0
ARC
  5
2253
330
44B9
100
AcDbEntity
  8
0
100
AcDbCircle
 10
1732.787007079048
 20
2023.000017209013
 30
0.0
 40
3.0
100
AcDbArc
 50
270.0
 51
0.0
  0
LINE
  5
2254
330
44B9
100
AcDbEntity
  8
0
100
AcDbLine
 10
1734.787007079048
 20
2027.000017209013
 30
0.0
 11
1727.787007079047
 21
2027.000017209013
 31
0.0
  0
LINE
  5
2255
330
44B9
100
AcDbEntity
  8
0
100
AcDbLine
 10
1697.787007079047
 20
2043.500017209012
 30
0.0
 11
1702.287007079048
 21
2043.500017209012
 31
0.0
  0
LINE
  5
2256
330
44B9
100
AcDbEntity
  8
0
100
AcDbLine
 10
1697.787007079047
 20
2037.000017209012
 30
0.0
 11
1694.587007079047
 21
2037.000017209012
 31
0.0
  0
ARC
  5
2257
330
44B9
100
AcDbEntity
  8
0
100
AcDbCircle
 10
1689.496558079048
 20
2041.607712209012
 30
0.0
 40
5.090450299999996
100
AcDbArc
 50
317.1166899999783
 51
42.8833619999752
  0
LINE
  5
2258
330
44B9
100
AcDbEntity
  8
0
100
AcDbLine
 10
1702.287007079048
 20
2045.071813978738
 30
0.0
 11
1708.787007079047
 21
2045.071813978738
 31
0.0
  0
LINE
  5
2259
330
44B9
100
AcDbEntity
  8
0
100
AcDbLine
 10
1702.287007079048
 20
2038.143610748462
 30
0.0
 11
1708.787007079047
 21
2038.143610748462
 31
0.0
  0
ARC
  5
225A
330
44B9
100
AcDbEntity
  8
0
100
AcDbCircle
 10
1708.822721364762
 20
2041.6077123636
 30
0.0
 40
3.464285714285711
100
AcDbArc
 50
269.4093113971838
 51
90.5906886028162
  0
LINE
  5
225B
330
44B9
100
AcDbEntity
  8
0
100
AcDbLine
 10
1735.787007079048
 20
2087.000017209013
 30
0.0
 11
1706.287007079047
 21
2087.000017209013
 31
0.0
  0
LINE
  5
225C
330
44B9
100
AcDbEntity
  8
0
100
AcDbLine
 10
1735.787007079048
 20
2082.500017209013
 30
0.0
 11
1706.287007079047
 21
2082.500017209013
 31
0.0
  0
ARC
  5
225D
330
44B9
100
AcDbEntity
  8
0
100
AcDbCircle
 10
1727.787007079047
 20
2065.000017209013
 30
0.0
 40
7.0
100
AcDbArc
 50
90.0
 51
180.0
  0
ARC
  5
225E
330
44B9
100
AcDbEntity
  8
0
100
AcDbCircle
 10
1734.787007079048
 20
2073.000017209013
 30
0.0
 40
1.0
100
AcDbArc
 50
270.0
 51
0.0
  0
LINE
  5
225F
330
44B9
100
AcDbEntity
  8
0
100
AcDbLine
 10
1734.787007079048
 20
2072.000017209013
 30
0.0
 11
1727.787007079047
 21
2072.000017209013
 31
0.0
  0
LINE
  5
2260
330
44B9
100
AcDbEntity
  8
0
100
AcDbLine
 10
1697.787007079047
 20
2060.500017209012
 30
0.0
 11
1702.287007079047
 21
2060.500017209012
 31
0.0
  0
ARC
  5
2261
330
44B9
100
AcDbEntity
  8
0
100
AcDbCircle
 10
1689.496558079048
 20
2062.392317209012
 30
0.0
 40
5.090450299999996
100
AcDbArc
 50
317.1166399999876
 51
42.88331699997889
  0
LINE
  5
2262
330
44B9
100
AcDbEntity
  8
0
100
AcDbLine
 10
1697.787007079047
 20
2067.000017209013
 30
0.0
 11
1694.587007079047
 21
2067.000017209013
 31
0.0
  0
ARC
  5
2263
330
44B9
100
AcDbEntity
  8
0
100
AcDbCircle
 10
1708.822721364762
 20
2062.392322054427
 30
0.0
 40
3.464285714285711
100
AcDbArc
 50
269.4093113971838
 51
90.5906886028162
  0
LINE
  5
2264
330
44B9
100
AcDbEntity
  8
0
100
AcDbLine
 10
1708.787007079047
 20
2065.856423669565
 30
0.0
 11
1702.287007079048
 21
2065.856423669565
 31
0.0
  0
LINE
  5
2265
330
44B9
100
AcDbEntity
  8
0
100
AcDbLine
 10
1702.287007079048
 20
2058.928220439288
 30
0.0
 11
1708.787007079047
 21
2058.928220439288
 31
0.0
  0
ARC
  5
2266
330
44B9
100
AcDbEntity
  8
0
100
AcDbCircle
 10
1706.287007079047
 20
2078.500017209012
 30
0.0
 40
8.5
100
AcDbArc
 50
90.0
 51
180.0
  0
ARC
  5
2267
330
44B9
100
AcDbEntity
  8
0
100
AcDbCircle
 10
1706.287007079047
 20
2078.500017209012
 30
0.0
 40
4.0
100
AcDbArc
 50
90.0
 51
180.0
  0
ARC
  5
2268
330
44B9
100
AcDbEntity
  8
0
100
AcDbCircle
 10
1702.908217079047
 20
2052.000017209012
 30
0.0
 40
18.321183
100
AcDbArc
 50
157.7807100000207
 51
202.2193300000017
  0
LINE
  5
2269
330
44B9
100
AcDbEntity
  8
0
100
AcDbLine
 10
1684.587037079047
 20
2062.392317209012
 30
0.0
 11
1684.587037079047
 21
2041.607712209012
 31
0.0
  0
LINE
  5
226A
330
44B9
100
AcDbEntity
  8
0
100
AcDbLine
 10
1678.787007079048
 20
2032.000017209012
 30
0.0
 11
1678.787007079048
 21
2052.000017209012
 31
0.0
  0
LINE
  5
226B
330
44B9
100
AcDbEntity
  8
0
100
AcDbLine
 10
1663.287007079047
 20
2020.000017209013
 30
0.0
 11
1663.287007079048
 21
2052.000017209012
 31
0.0
  0
LINE
  5
226C
330
44B9
100
AcDbEntity
  8
0
100
AcDbLine
 10
1667.787007079047
 20
2020.000017209013
 30
0.0
 11
1667.787007079048
 21
2052.000017209012
 31
0.0
  0
LINE
  5
226D
330
44B9
100
AcDbEntity
  8
0
100
AcDbLine
 10
1671.287007079047
 20
2030.500017209012
 30
0.0
 11
1671.287007079048
 21
2052.000017209012
 31
0.0
  0
ARC
  5
226E
330
44B9
100
AcDbEntity
  8
0
100
AcDbCircle
 10
1669.108187079047
 20
2052.000023604318
 30
0.0
 40
18.321183
100
AcDbArc
 50
157.7807100000207
 51
202.2193300000017
  0
LINE
  5
226F
330
44B9
100
AcDbEntity
  8
0
100
AcDbLine
 10
1650.787024079046
 20
2062.392333604319
 30
0.0
 11
1650.787024079046
 21
2041.607723604318
 31
0.0
  0
LINE
  5
2270
330
44B9
100
AcDbEntity
  8
0
100
AcDbLine
 10
1597.787007079047
 20
2087.000017209013
 30
0.0
 11
1597.787007079047
 21
2020.000017209013
 31
0.0
  0
ARC
  5
2271
330
44B9
100
AcDbEntity
  8
0
100
AcDbCircle
 10
1624.487007079047
 20
2027.000017209013
 30
0.0
 40
17.0
100
AcDbArc
 50
97.66225566075876
 51
172.3377443392412
  0
LINE
  5
2272
330
44B9
100
AcDbEntity
  8
0
100
AcDbLine
 10
1622.487007079047
 20
2027.000017209013
 30
0.0
 11
1609.620938331728
 21
2027.000017209013
 31
0.0
  0
LINE
  5
2273
330
44B9
100
AcDbEntity
  8
0
100
AcDbLine
 10
1624.487007079047
 20
2029.000017209013
 30
0.0
 11
1624.487007079047
 21
2041.866085956332
 31
0.0
  0
ARC
  5
2274
330
44B9
100
AcDbEntity
  8
0
100
AcDbCircle
 10
1622.487007079047
 20
2041.866085956332
 30
0.0
 40
2.0
100
AcDbArc
 50
0.0
 51
97.66225566075876
  0
ARC
  5
2275
330
44B9
100
AcDbEntity
  8
0
100
AcDbCircle
 10
1622.487007079047
 20
2029.000017209013
 30
0.0
 40
2.0
100
AcDbArc
 50
270.0
 51
0.0
  0
ARC
  5
2276
330
44B9
100
AcDbEntity
  8
0
100
AcDbCircle
 10
1609.620938331728
 20
2029.000017209013
 30
0.0
 40
2.0
100
AcDbArc
 50
172.3377443392412
 51
270.0
  0
LINE
  5
2277
330
44B9
100
AcDbEntity
  8
0
100
AcDbLine
 10
1678.787007079048
 20
2043.973472593953
 30
0.0
 11
1684.587037079047
 21
2043.975109157108
 31
0.0
  0
ARC
  5
2278
330
44B9
100
AcDbEntity
  8
0
100
AcDbCircle
 10
1689.677486079048
 20
2041.607712209012
 30
0.0
 40
5.090450299999996
100
AcDbArc
 50
137.1166399999876
 51
222.8833200000199
  0
LINE
  5
2279
330
44B9
100
AcDbEntity
  8
0
100
AcDbLine
 10
1678.787007079048
 20
2030.500017209012
 30
0.0
 11
1678.787007079048
 21
2032.000017209012
 31
0.0
  0
LINE
  5
227A
330
44B9
100
AcDbEntity
  8
0
100
AcDbLine
 10
1671.287007079047
 20
2030.500017209012
 30
0.0
 11
1678.787007079048
 21
2030.500017209012
 31
0.0
  0
LINE
  5
227B
330
44B9
100
AcDbEntity
  8
0
100
AcDbLine
 10
1671.287007079048
 20
2040.200017209013
 30
0.0
 11
1667.787007079048
 21
2040.200017209013
 31
0.0
  0
ARC
  5
227C
330
44B9
100
AcDbEntity
  8
0
100
AcDbCircle
 10
1655.877473079048
 20
2041.607723604318
 30
0.0
 40
5.090450299999996
100
AcDbArc
 50
137.1166399999876
 51
222.8833200000199
  0
LINE
  5
227D
330
44B9
100
AcDbEntity
  8
0
100
AcDbLine
 10
1652.147485079048
 20
2045.071813604318
 30
0.0
 11
1663.287007079048
 21
2045.071813604318
 31
0.0
  0
LINE
  5
227E
330
44B9
100
AcDbEntity
  8
0
100
AcDbLine
 10
1652.147485079048
 20
2038.143633604319
 30
0.0
 11
1663.287007079048
 21
2038.143633604319
 31
0.0
  0
LINE
  5
227F
330
44B9
100
AcDbEntity
  8
0
100
AcDbLine
 10
1597.787007079047
 20
2020.000017209013
 30
0.0
 11
1667.787007079047
 21
2020.000017209013
 31
0.0
  0
ARC
  5
2280
330
44B9
100
AcDbEntity
  8
0
100
AcDbCircle
 10
1660.287007079048
 20
2079.500017209013
 30
0.0
 40
7.5
100
AcDbArc
 50
0.0
 51
90.0
  0
ARC
  5
2281
330
44B9
100
AcDbEntity
  8
0
100
AcDbCircle
 10
1660.287007079048
 20
2079.500017209013
 30
0.0
 40
3.0
100
AcDbArc
 50
0.0
 51
90.0
  0
LINE
  5
2282
330
44B9
100
AcDbEntity
  8
0
100
AcDbLine
 10
1597.787007079047
 20
2087.000017209013
 30
0.0
 11
1660.287007079048
 21
2087.000017209013
 31
0.0
  0
LINE
  5
2283
330
44B9
100
AcDbEntity
  8
0
100
AcDbLine
 10
1597.787007079047
 20
2082.500017209013
 30
0.0
 11
1660.287007079048
 21
2082.500017209013
 31
0.0
  0
ARC
  5
2284
330
44B9
100
AcDbEntity
  8
0
100
AcDbCircle
 10
1624.487007079047
 20
2077.000017209014
 30
0.0
 40
17.0
100
AcDbArc
 50
187.6622556607587
 51
262.3377443392413
  0
LINE
  5
2285
330
44B9
100
AcDbEntity
  8
0
100
AcDbLine
 10
1622.487007079047
 20
2077.000017209014
 30
0.0
 11
1609.620938331728
 21
2077.000017209013
 31
0.0
  0
LINE
  5
2286
330
44B9
100
AcDbEntity
  8
0
100
AcDbLine
 10
1624.487007079047
 20
2075.000017209013
 30
0.0
 11
1624.487007079047
 21
2062.133948461695
 31
0.0
  0
ARC
  5
2287
330
44B9
100
AcDbEntity
  8
0
100
AcDbCircle
 10
1622.487007079047
 20
2075.000017209013
 30
0.0
 40
2.0
100
AcDbArc
 50
0.0
 51
90.0
  0
ARC
  5
2288
330
44B9
100
AcDbEntity
  8
0
100
AcDbCircle
 10
1622.487007079047
 20
2062.133948461695
 30
0.0
 40
2.0
100
AcDbArc
 50
262.3377443392413
 51
0.0
  0
ARC
  5
2289
330
44B9
100
AcDbEntity
  8
0
100
AcDbCircle
 10
1609.620938331728
 20
2075.000017209013
 30
0.0
 40
2.0
100
AcDbArc
 50
90.0
 51
187.6622556607587
  0
LINE
  5
228A
330
44B9
100
AcDbEntity
  8
0
100
AcDbLine
 10
1678.787007079048
 20
2059.973473170391
 30
0.0
 11
1684.587037079047
 21
2059.975109733546
 31
0.0
  0
ARC
  5
228B
330
44B9
100
AcDbEntity
  8
0
100
AcDbCircle
 10
1689.677486079048
 20
2062.392317209012
 30
0.0
 40
5.090450299999996
100
AcDbArc
 50
137.1166899999784
 51
222.8833700000012
  0
LINE
  5
228C
330
44B9
100
AcDbEntity
  8
0
100
AcDbLine
 10
1678.787007079048
 20
2052.000017209012
 30
0.0
 11
1678.787007079048
 21
2072.000017209012
 31
0.0
  0
LINE
  5
228D
330
44B9
100
AcDbEntity
  8
0
100
AcDbLine
 10
1671.287007079047
 20
2052.000017209012
 30
0.0
 11
1671.287007079047
 21
2073.500017209012
 31
0.0
  0
LINE
  5
228E
330
44B9
100
AcDbEntity
  8
0
100
AcDbLine
 10
1671.287007079047
 20
2073.500017209012
 30
0.0
 11
1678.787007079048
 21
2073.500017209012
 31
0.0
  0
LINE
  5
228F
330
44B9
100
AcDbEntity
  8
0
100
AcDbLine
 10
1678.787007079048
 20
2072.000017209012
 30
0.0
 11
1678.787007079048
 21
2073.500017209012
 31
0.0
  0
LINE
  5
2290
330
44B9
100
AcDbEntity
  8
0
100
AcDbLine
 10
1671.287007079047
 20
2063.800017209013
 30
0.0
 11
1667.787007079048
 21
2063.800017209013
 31
0.0
  0
ARC
  5
2291
330
44B9
100
AcDbEntity
  8
0
100
AcDbCircle
 10
1655.877473079048
 20
2062.392333604319
 30
0.0
 40
5.090450299999996
100
AcDbArc
 50
137.1166899999784
 51
222.8833700000012
  0
LINE
  5
2292
330
44B9
100
AcDbEntity
  8
0
100
AcDbLine
 10
1652.147485079048
 20
2058.928233604317
 30
0.0
 11
1663.287007079048
 21
2058.928233604317
 31
0.0
  0
LINE
  5
2293
330
44B9
100
AcDbEntity
  8
0
100
AcDbLine
 10
1652.147485079048
 20
2065.856423604318
 30
0.0
 11
1663.287007079048
 21
2065.856423604318
 31
0.0
  0
LINE
  5
2294
330
44B9
100
AcDbEntity
  8
0
100
AcDbLine
 10
1667.787007079047
 20
2052.000017209012
 30
0.0
 11
1667.787007079048
 21
2079.500017209012
 31
0.0
  0
LINE
  5
2295
330
44B9
100
AcDbEntity
  8
0
100
AcDbLine
 10
1663.287007079047
 20
2052.000017209012
 30
0.0
 11
1663.287007079048
 21
2079.500017209013
 31
0.0
  0
LINE
  5
2296
330
44B9
100
AcDbEntity
  8
0
100
AcDbLine
 10
1685.947498079048
 20
2404.928136799212
 30
0.0
 11
1693.226547079048
 21
2404.928136799212
 31
0.0
  0
LINE
  5
2297
330
44B9
100
AcDbEntity
  8
0
100
AcDbLine
 10
1685.947504079048
 20
2411.856321799212
 30
0.0
 11
1693.226540079048
 21
2411.856321799212
 31
0.0
  0
LINE
  5
2298
330
44B9
100
AcDbEntity
  8
0
100
AcDbLine
 10
1685.947498079048
 20
2384.143547799212
 30
0.0
 11
1693.226547079048
 21
2384.143547799212
 31
0.0
  0
LINE
  5
2299
330
44B9
100
AcDbEntity
  8
0
100
AcDbLine
 10
1685.947498079048
 20
2391.071737799212
 30
0.0
 11
1693.226547079048
 21
2391.071737799212
 31
0.0
  0
LINE
  5
229A
330
44B9
100
AcDbEntity
  8
0
100
AcDbLine
 10
1641.127463776778
 20
2397.999927799212
 30
0.0
 11
1718.410838349567
 21
2397.999927799212
 31
0.0
  0
LINE
  5
229B
330
44B9
100
AcDbEntity
  8
0
100
AcDbLine
 10
1702.287007079048
 20
2429.999927799212
 30
0.0
 11
1702.287007079048
 21
2371.499927799211
 31
0.0
  0
LINE
  5
229C
330
44B9
100
AcDbEntity
  8
0
100
AcDbLine
 10
1697.787007079049
 20
2429.999927799212
 30
0.0
 11
1697.787007079047
 21
2371.499927799212
 31
0.0
  0
LINE
  5
229D
330
44B9
100
AcDbEntity
  8
0
100
AcDbLine
 10
1720.787007079048
 20
2415.999927799211
 30
0.0
 11
1720.787007079048
 21
2384.999927799211
 31
0.0
  0
LINE
  5
229E
330
44B9
100
AcDbEntity
  8
0
100
AcDbLine
 10
1694.587007079048
 20
2412.999927799212
 30
0.0
 11
1694.587007079048
 21
2382.999927799212
 31
0.0
  0
ARC
  5
229F
330
44B9
100
AcDbEntity
  8
0
100
AcDbCircle
 10
1676.265834079049
 20
2397.999927799212
 30
0.0
 40
18.321183
100
AcDbArc
 50
337.78070000002
 51
22.21932000000092
  0
ARC
  5
22A0
330
44B9
100
AcDbEntity
  8
0
100
AcDbCircle
 10
1703.679864221905
 20
2397.999927799211
 30
0.0
 40
8.607142857142846
100
AcDbArc
 50
306.3958791981002
 51
53.60412080189973
  0
LINE
  5
22A1
330
44B9
100
AcDbEntity
  8
0
100
AcDbLine
 10
1712.287007079048
 20
2408.392232644624
 30
0.0
 11
1712.287007079048
 21
2387.607622953797
 31
0.0
  0
LINE
  5
22A2
330
44B9
100
AcDbEntity
  8
0
100
AcDbLine
 10
1735.787007079048
 20
2362.999927799211
 30
0.0
 11
1735.787007079048
 21
2423.699927799211
 31
0.0
  0
ARC
  5
22A3
330
44B9
100
AcDbEntity
  8
0
100
AcDbCircle
 10
1727.787007079047
 20
2415.999927799211
 30
0.0
 40
7.0
100
AcDbArc
 50
90.0
 51
180.0
  0
LINE
  5
22A4
330
44B9
100
AcDbEntity
  8
0
100
AcDbLine
 10
1732.787007079048
 20
2429.999927799212
 30
0.0
 11
1697.787007079049
 21
2429.999927799212
 31
0.0
  0
LINE
  5
22A5
330
44B9
100
AcDbEntity
  8
0
100
AcDbLine
 10
1735.787007079048
 20
2423.999927799211
 30
0.0
 11
1735.787007079048
 21
2426.999927799211
 31
0.0
  0
ARC
  5
22A6
330
44B9
100
AcDbEntity
  8
0
100
AcDbCircle
 10
1734.787007079049
 20
2423.999927799211
 30
0.0
 40
1.0
100
AcDbArc
 50
270.0
 51
0.0
  0
ARC
  5
22A7
330
44B9
100
AcDbEntity
  8
0
100
AcDbCircle
 10
1732.787007079048
 20
2426.999927799212
 30
0.0
 40
3.0
100
AcDbArc
 50
0.0
 51
90.0
  0
LINE
  5
22A8
330
44B9
100
AcDbEntity
  8
0
100
AcDbLine
 10
1734.787007079049
 20
2422.999927799211
 30
0.0
 11
1727.787007079047
 21
2422.999927799211
 31
0.0
  0
LINE
  5
22A9
330
44B9
100
AcDbEntity
  8
0
100
AcDbLine
 10
1697.787007079048
 20
2406.499927799212
 30
0.0
 11
1702.287007079048
 21
2406.499927799212
 31
0.0
  0
LINE
  5
22AA
330
44B9
100
AcDbEntity
  8
0
100
AcDbLine
 10
1697.787007079048
 20
2412.999927799212
 30
0.0
 11
1694.587007079048
 21
2412.999927799212
 31
0.0
  0
ARC
  5
22AB
330
44B9
100
AcDbEntity
  8
0
100
AcDbCircle
 10
1689.496558079049
 20
2408.392232799212
 30
0.0
 40
5.090450299999996
100
AcDbArc
 50
317.1166380000152
 51
42.88331000001202
  0
LINE
  5
22AC
330
44B9
100
AcDbEntity
  8
0
100
AcDbLine
 10
1702.287007079048
 20
2404.928131029486
 30
0.0
 11
1708.787007079048
 21
2404.928131029486
 31
0.0
  0
LINE
  5
22AD
330
44B9
100
AcDbEntity
  8
0
100
AcDbLine
 10
1702.287007079048
 20
2411.856334259763
 30
0.0
 11
1708.787007079048
 21
2411.856334259763
 31
0.0
  0
ARC
  5
22AE
330
44B9
100
AcDbEntity
  8
0
100
AcDbCircle
 10
1708.822721364763
 20
2408.392232644624
 30
0.0
 40
3.464285714285711
100
AcDbArc
 50
269.409311397184
 51
90.59068860281604
  0
LINE
  5
22AF
330
44B9
100
AcDbEntity
  8
0
100
AcDbLine
 10
1735.787007079048
 20
2362.999927799211
 30
0.0
 11
1706.287007079048
 21
2362.999927799211
 31
0.0
  0
LINE
  5
22B0
330
44B9
100
AcDbEntity
  8
0
100
AcDbLine
 10
1735.787007079048
 20
2367.499927799211
 30
0.0
 11
1706.287007079048
 21
2367.499927799211
 31
0.0
  0
ARC
  5
22B1
330
44B9
100
AcDbEntity
  8
0
100
AcDbCircle
 10
1727.787007079047
 20
2384.999927799211
 30
0.0
 40
7.0
100
AcDbArc
 50
180.0
 51
270.0
  0
ARC
  5
22B2
330
44B9
100
AcDbEntity
  8
0
100
AcDbCircle
 10
1734.787007079049
 20
2376.999927799211
 30
0.0
 40
1.0
100
AcDbArc
 50
0.0
 51
90.0
  0
LINE
  5
22B3
330
44B9
100
AcDbEntity
  8
0
100
AcDbLine
 10
1734.787007079048
 20
2377.999927799211
 30
0.0
 11
1727.787007079047
 21
2377.999927799211
 31
0.0
  0
LINE
  5
22B4
330
44B9
100
AcDbEntity
  8
0
100
AcDbLine
 10
1697.787007079047
 20
2389.499927799212
 30
0.0
 11
1702.287007079048
 21
2389.499927799212
 31
0.0
  0
ARC
  5
22B5
330
44B9
100
AcDbEntity
  8
0
100
AcDbCircle
 10
1689.496558079049
 20
2387.607627799212
 30
0.0
 40
5.090450299999996
100
AcDbArc
 50
317.1166830000116
 51
42.88336000001232
  0
LINE
  5
22B6
330
44B9
100
AcDbEntity
  8
0
100
AcDbLine
 10
1697.787007079047
 20
2382.999927799212
 30
0.0
 11
1694.587007079048
 21
2382.999927799212
 31
0.0
  0
ARC
  5
22B7
330
44B9
100
AcDbEntity
  8
0
100
AcDbCircle
 10
1708.822721364763
 20
2387.607622953797
 30
0.0
 40
3.464285714285711
100
AcDbArc
 50
269.409311397184
 51
90.59068860281604
  0
LINE
  5
22B8
330
44B9
100
AcDbEntity
  8
0
100
AcDbLine
 10
1708.787007079048
 20
2384.143521338661
 30
0.0
 11
1702.287007079048
 21
2384.143521338661
 31
0.0
  0
LINE
  5
22B9
330
44B9
100
AcDbEntity
  8
0
100
AcDbLine
 10
1702.287007079048
 20
2391.071724568935
 30
0.0
 11
1708.787007079048
 21
2391.071724568935
 31
0.0
  0
ARC
  5
22BA
330
44B9
100
AcDbEntity
  8
0
100
AcDbCircle
 10
1706.287007079048
 20
2371.499927799211
 30
0.0
 40
8.5
100
AcDbArc
 50
180.0
 51
270.0
  0
ARC
  5
22BB
330
44B9
100
AcDbEntity
  8
0
100
AcDbCircle
 10
1706.287007079048
 20
2371.499927799212
 30
0.0
 40
4.0
100
AcDbArc
 50
180.0
 51
270.0
  0
ARC
  5
22BC
330
44B9
100
AcDbEntity
  8
0
100
AcDbCircle
 10
1702.908217079048
 20
2397.999927799212
 30
0.0
 40
18.321183
100
AcDbArc
 50
157.7806699999982
 51
202.2192899999793
  0
LINE
  5
22BD
330
44B9
100
AcDbEntity
  8
0
100
AcDbLine
 10
1684.587037079048
 20
2387.607627799212
 30
0.0
 11
1684.587037079048
 21
2408.392232799212
 31
0.0
  0
LINE
  5
22BE
330
44B9
100
AcDbEntity
  8
0
100
AcDbLine
 10
1678.787007079048
 20
2417.999927799212
 30
0.0
 11
1678.787007079048
 21
2397.999927799212
 31
0.0
  0
LINE
  5
22BF
330
44B9
100
AcDbEntity
  8
0
100
AcDbLine
 10
1663.287007079048
 20
2429.999927799212
 30
0.0
 11
1663.287007079049
 21
2397.999927799212
 31
0.0
  0
LINE
  5
22C0
330
44B9
100
AcDbEntity
  8
0
100
AcDbLine
 10
1667.787007079048
 20
2429.999927799212
 30
0.0
 11
1667.787007079048
 21
2397.999927799212
 31
0.0
  0
LINE
  5
22C1
330
44B9
100
AcDbEntity
  8
0
100
AcDbLine
 10
1671.287007079048
 20
2419.499927799212
 30
0.0
 11
1671.287007079048
 21
2397.999927799212
 31
0.0
  0
ARC
  5
22C2
330
44B9
100
AcDbEntity
  8
0
100
AcDbCircle
 10
1669.108187079048
 20
2397.999921403906
 30
0.0
 40
18.321183
100
AcDbArc
 50
157.7806699999982
 51
202.2192899999793
  0
LINE
  5
22C3
330
44B9
100
AcDbEntity
  8
0
100
AcDbLine
 10
1650.787024079046
 20
2387.607611403906
 30
0.0
 11
1650.787024079046
 21
2408.392221403907
 31
0.0
  0
LINE
  5
22C4
330
44B9
100
AcDbEntity
  8
0
100
AcDbLine
 10
1597.787007079048
 20
2362.999927799211
 30
0.0
 11
1597.787007079048
 21
2429.999927799212
 31
0.0
  0
ARC
  5
22C5
330
44B9
100
AcDbEntity
  8
0
100
AcDbCircle
 10
1624.487007079047
 20
2422.999927799211
 30
0.0
 40
17.0
100
AcDbArc
 50
187.6622556607587
 51
262.3377443392413
  0
LINE
  5
22C6
330
44B9
100
AcDbEntity
  8
0
100
AcDbLine
 10
1622.487007079047
 20
2422.999927799211
 30
0.0
 11
1609.620938331729
 21
2422.999927799211
 31
0.0
  0
LINE
  5
22C7
330
44B9
100
AcDbEntity
  8
0
100
AcDbLine
 10
1624.487007079047
 20
2420.999927799211
 30
0.0
 11
1624.487007079047
 21
2408.133859051893
 31
0.0
  0
ARC
  5
22C8
330
44B9
100
AcDbEntity
  8
0
100
AcDbCircle
 10
1622.487007079047
 20
2408.133859051893
 30
0.0
 40
2.0
100
AcDbArc
 50
262.3377443392413
 51
0.0
  0
ARC
  5
22C9
330
44B9
100
AcDbEntity
  8
0
100
AcDbCircle
 10
1622.487007079047
 20
2420.999927799211
 30
0.0
 40
2.0
100
AcDbArc
 50
0.0
 51
90.0
  0
ARC
  5
22CA
330
44B9
100
AcDbEntity
  8
0
100
AcDbCircle
 10
1609.620938331729
 20
2420.999927799211
 30
0.0
 40
2.0
100
AcDbArc
 50
90.0
 51
187.6622556607587
  0
LINE
  5
22CB
330
44B9
100
AcDbEntity
  8
0
100
AcDbLine
 10
1678.787007079048
 20
2406.026472414271
 30
0.0
 11
1684.587037079048
 21
2406.024835851117
 31
0.0
  0
ARC
  5
22CC
330
44B9
100
AcDbEntity
  8
0
100
AcDbCircle
 10
1689.677486079048
 20
2408.392232799212
 30
0.0
 40
5.090450299999996
100
AcDbArc
 50
137.11667999998
 51
222.8833600000124
  0
LINE
  5
22CD
330
44B9
100
AcDbEntity
  8
0
100
AcDbLine
 10
1678.787007079048
 20
2419.499927799212
 30
0.0
 11
1678.787007079048
 21
2417.999927799212
 31
0.0
  0
LINE
  5
22CE
330
44B9
100
AcDbEntity
  8
0
100
AcDbLine
 10
1671.287007079048
 20
2419.499927799212
 30
0.0
 11
1678.787007079048
 21
2419.499927799212
 31
0.0
  0
LINE
  5
22CF
330
44B9
100
AcDbEntity
  8
0
100
AcDbLine
 10
1671.287007079048
 20
2409.799927799211
 30
0.0
 11
1667.787007079048
 21
2409.799927799211
 31
0.0
  0
ARC
  5
22D0
330
44B9
100
AcDbEntity
  8
0
100
AcDbCircle
 10
1655.877473079048
 20
2408.392221403907
 30
0.0
 40
5.090450299999996
100
AcDbArc
 50
137.11667999998
 51
222.8833600000124
  0
LINE
  5
22D1
330
44B9
100
AcDbEntity
  8
0
100
AcDbLine
 10
1652.147485079048
 20
2404.928131403906
 30
0.0
 11
1663.287007079048
 21
2404.928131403906
 31
0.0
  0
LINE
  5
22D2
330
44B9
100
AcDbEntity
  8
0
100
AcDbLine
 10
1652.147485079048
 20
2411.856311403906
 30
0.0
 11
1663.287007079048
 21
2411.856311403906
 31
0.0
  0
LINE
  5
22D3
330
44B9
100
AcDbEntity
  8
0
100
AcDbLine
 10
1597.787007079048
 20
2429.999927799212
 30
0.0
 11
1667.787007079048
 21
2429.999927799212
 31
0.0
  0
ARC
  5
22D4
330
44B9
100
AcDbEntity
  8
0
100
AcDbCircle
 10
1660.287007079049
 20
2370.499927799212
 30
0.0
 40
7.5
100
AcDbArc
 50
270.0
 51
0.0
  0
ARC
  5
22D5
330
44B9
100
AcDbEntity
  8
0
100
AcDbCircle
 10
1660.287007079049
 20
2370.499927799212
 30
0.0
 40
3.0
100
AcDbArc
 50
270.0
 51
0.0
  0
LINE
  5
22D6
330
44B9
100
AcDbEntity
  8
0
100
AcDbLine
 10
1597.787007079048
 20
2362.999927799211
 30
0.0
 11
1660.287007079049
 21
2362.999927799211
 31
0.0
  0
LINE
  5
22D7
330
44B9
100
AcDbEntity
  8
0
100
AcDbLine
 10
1597.787007079048
 20
2367.499927799211
 30
0.0
 11
1660.287007079049
 21
2367.499927799211
 31
0.0
  0
ARC
  5
22D8
330
44B9
100
AcDbEntity
  8
0
100
AcDbCircle
 10
1624.487007079047
 20
2372.999927799211
 30
0.0
 40
17.0
100
AcDbArc
 50
97.66225566075876
 51
172.3377443392412
  0
LINE
  5
22D9
330
44B9
100
AcDbEntity
  8
0
100
AcDbLine
 10
1622.487007079047
 20
2372.999927799211
 30
0.0
 11
1609.620938331729
 21
2372.999927799211
 31
0.0
  0
LINE
  5
22DA
330
44B9
100
AcDbEntity
  8
0
100
AcDbLine
 10
1624.487007079047
 20
2374.999927799211
 30
0.0
 11
1624.487007079047
 21
2387.86599654653
 31
0.0
  0
ARC
  5
22DB
330
44B9
100
AcDbEntity
  8
0
100
AcDbCircle
 10
1622.487007079047
 20
2374.999927799211
 30
0.0
 40
2.0
100
AcDbArc
 50
270.0
 51
0.0
  0
ARC
  5
22DC
330
44B9
100
AcDbEntity
  8
0
100
AcDbCircle
 10
1622.487007079047
 20
2387.86599654653
 30
0.0
 40
2.0
100
AcDbArc
 50
0.0
 51
97.66225566075876
  0
ARC
  5
22DD
330
44B9
100
AcDbEntity
  8
0
100
AcDbCircle
 10
1609.620938331729
 20
2374.999927799211
 30
0.0
 40
2.0
100
AcDbArc
 50
172.3377443392412
 51
270.0
  0
LINE
  5
22DE
330
44B9
100
AcDbEntity
  8
0
100
AcDbLine
 10
1678.787007079048
 20
2390.026471837833
 30
0.0
 11
1684.587037079048
 21
2390.024835274678
 31
0.0
  0
ARC
  5
22DF
330
44B9
100
AcDbEntity
  8
0
100
AcDbCircle
 10
1689.677486079048
 20
2387.607627799212
 30
0.0
 40
5.090450299999996
100
AcDbArc
 50
137.1166299999987
 51
222.883310000012
  0
LINE
  5
22E0
330
44B9
100
AcDbEntity
  8
0
100
AcDbLine
 10
1678.787007079048
 20
2397.999927799212
 30
0.0
 11
1678.787007079048
 21
2377.999927799212
 31
0.0
  0
LINE
  5
22E1
330
44B9
100
AcDbEntity
  8
0
100
AcDbLine
 10
1671.287007079048
 20
2397.999927799212
 30
0.0
 11
1671.287007079048
 21
2376.499927799212
 31
0.0
  0
LINE
  5
22E2
330
44B9
100
AcDbEntity
  8
0
100
AcDbLine
 10
1671.287007079048
 20
2376.499927799212
 30
0.0
 11
1678.787007079048
 21
2376.499927799212
 31
0.0
  0
LINE
  5
22E3
330
44B9
100
AcDbEntity
  8
0
100
AcDbLine
 10
1678.787007079048
 20
2377.999927799212
 30
0.0
 11
1678.787007079048
 21
2376.499927799212
 31
0.0
  0
LINE
  5
22E4
330
44B9
100
AcDbEntity
  8
0
100
AcDbLine
 10
1671.287007079048
 20
2386.199927799211
 30
0.0
 11
1667.787007079048
 21
2386.199927799211
 31
0.0
  0
ARC
  5
22E5
330
44B9
100
AcDbEntity
  8
0
100
AcDbCircle
 10
1655.877473079048
 20
2387.607611403906
 30
0.0
 40
5.090450299999996
100
AcDbArc
 50
137.1166299999987
 51
222.883310000012
  0
LINE
  5
22E6
330
44B9
100
AcDbEntity
  8
0
100
AcDbLine
 10
1652.147485079048
 20
2391.071711403907
 30
0.0
 11
1663.287007079048
 21
2391.071711403907
 31
0.0
  0
LINE
  5
22E7
330
44B9
100
AcDbEntity
  8
0
100
AcDbLine
 10
1652.147485079048
 20
2384.143521403906
 30
0.0
 11
1663.287007079048
 21
2384.143521403906
 31
0.0
  0
LINE
  5
22E8
330
44B9
100
AcDbEntity
  8
0
100
AcDbLine
 10
1667.787007079048
 20
2397.999927799212
 30
0.0
 11
1667.787007079048
 21
2370.499927799212
 31
0.0
  0
LINE
  5
22E9
330
44B9
100
AcDbEntity
  8
0
100
AcDbLine
 10
1663.287007079048
 20
2397.999927799212
 30
0.0
 11
1663.287007079049
 21
2370.499927799212
 31
0.0
  0
LINE
  5
2FE5
330
44B9
100
AcDbEntity
  8
0
100
AcDbLine
 10
1287.871853441311
 20
2106.014019617854
 30
0.0
 11
1287.871853441311
 21
2185.348539401831
 31
0.0
  0
LINE
  5
2FE6
330
44B9
100
AcDbEntity
  8
0
100
AcDbLine
 10
1278.556810314147
 20
2106.014019617854
 30
0.0
 11
1278.556810314147
 21
2185.348539401831
 31
0.0
  0
LINE
  5
2FE7
330
44B9
100
AcDbEntity
  8
0
100
AcDbLine
 10
1278.556810314147
 20
2106.014019617854
 30
0.0
 11
1287.871853441311
 21
2106.014019617854
 31
0.0
  0
LINE
  5
2FE8
330
44B9
100
AcDbEntity
  8
0
100
AcDbLine
 10
1278.556810314147
 20
2185.348539401831
 30
0.0
 11
1287.871853441311
 21
2185.348539401831
 31
0.0
  0
ARC
  5
32D3
330
44B9
100
AcDbEntity
  8
0
100
AcDbCircle
 10
724.9999554229242
 20
1600.499999999607
 30
0.0
 40
1.0
100
AcDbArc
 50
270.0
 51
90.0
  0
ARC
  5
32D4
330
44B9
100
AcDbEntity
  8
0
100
AcDbCircle
 10
714.9999554229244
 20
1622.243557214409
 30
0.0
 40
10.0
100
AcDbArc
 50
0.0
 51
14.32271997981211
  0
LINE
  5
32D5
330
44B9
100
AcDbEntity
  8
0
100
AcDbLine
 10
724.9999554229242
 20
1591.499999999608
 30
0.0
 11
724.9999554229242
 21
1599.499999999609
 31
0.0
  0
LINE
  5
32D6
330
44B9
100
AcDbEntity
  8
0
100
AcDbLine
 10
724.9999554229242
 20
1601.499999999608
 30
0.0
 11
724.9999554229242
 21
1622.243557214409
 31
0.0
  0
LINE
  5
32D7
330
44B9
100
AcDbEntity
  8
0
100
AcDbLine
 10
724.6891325290245
 20
1624.717389667409
 30
0.0
 11
718.9999554222238
 21
1647.000000000009
 31
0.0
  0
ARC
  5
32D8
330
44B9
100
AcDbEntity
  8
0
100
AcDbCircle
 10
717.9999554222241
 20
1648.000000000008
 30
0.0
 40
1.0
100
AcDbArc
 50
0.0
 51
90.0
  0
LINE
  5
32D9
330
44B9
100
AcDbEntity
  8
0
100
AcDbLine
 10
718.9999554222238
 20
1647.000000000009
 30
0.0
 11
718.9999554222238
 21
1648.000000000008
 31
0.0
  0
LINE
  5
32DA
330
44B9
100
AcDbEntity
  8
0
100
AcDbLine
 10
689.9999554235246
 20
1601.499999999608
 30
0.0
 11
724.9999554229242
 21
1601.499999999608
 31
0.0
  0
LINE
  5
32DB
330
44B9
100
AcDbEntity
  8
0
100
AcDbLine
 10
689.9999554235246
 20
1599.499999999609
 30
0.0
 11
724.9999554229242
 21
1599.499999999609
 31
0.0
  0
LINE
  5
32DC
330
44B9
100
AcDbEntity
  8
0
100
AcDbLine
 10
689.9999554235246
 20
1591.499999999608
 30
0.0
 11
724.9999554229242
 21
1591.499999999608
 31
0.0
  0
LINE
  5
32DD
330
44B9
100
AcDbEntity
  8
0
100
AcDbLine
 10
689.9999554235246
 20
1649.000000000008
 30
0.0
 11
717.9999554222241
 21
1649.000000000008
 31
0.0
  0
LINE
  5
32DE
330
44B9
100
AcDbEntity
  8
0
100
AcDbLine
 10
719.9999554239084
 20
1560.999999999999
 30
0.0
 11
689.9999554235246
 21
1560.999999999999
 31
0.0
  0
LINE
  5
32DF
330
44B9
100
AcDbEntity
  8
0
100
AcDbLine
 10
719.9999554239084
 20
1560.999999999999
 30
0.0
 11
719.9999554239084
 21
1573.999999999999
 31
0.0
  0
LINE
  5
32E1
330
44B9
100
AcDbEntity
  8
0
100
AcDbLine
 10
718.9999554235246
 20
1573.999999999998
 30
0.0
 11
718.9999554235246
 21
1591.500000000147
 31
0.0
  0
LINE
  5
32E2
330
44B9
100
AcDbEntity
  8
0
100
AcDbLine
 10
719.9999554239084
 20
1573.999999999999
 30
0.0
 11
719.9999554239084
 21
1571.999999999999
 31
0.0
  0
LINE
  5
32E3
330
44B9
100
AcDbEntity
  8
0
100
AcDbLine
 10
719.9999554239084
 20
1573.999999999999
 30
0.0
 11
689.9999554235246
 21
1573.999999999999
 31
0.0
  0
LINE
  5
32E4
330
44B9
100
AcDbEntity
  8
0
100
AcDbLine
 10
689.9999554235246
 20
1591.500000000147
 30
0.0
 11
718.9999554235246
 21
1591.500000000147
 31
0.0
  0
LINE
  5
32E5
330
44B9
100
AcDbEntity
  8
0
100
AcDbLine
 10
706.9999554235246
 20
1650.0
 30
0.0
 11
706.9999554235246
 21
1649.000000000008
 31
0.0
  0
LINE
  5
32E6
330
44B9
100
AcDbEntity
  8
0
100
AcDbLine
 10
706.9999554235246
 20
1650.0
 30
0.0
 11
689.9999554235246
 21
1650.0
 31
0.0
  0
ARC
  5
32E7
330
44B9
100
AcDbEntity
  8
0
100
AcDbCircle
 10
654.9999554241249
 20
1600.499999999607
 30
0.0
 40
1.0
100
AcDbArc
 50
90.0
 51
270.0
  0
ARC
  5
32E8
330
44B9
100
AcDbEntity
  8
0
100
AcDbCircle
 10
664.9999554241247
 20
1622.243557214409
 30
0.0
 40
10.0
100
AcDbArc
 50
165.6772800201879
 51
180.0
  0
LINE
  5
32E9
330
44B9
100
AcDbEntity
  8
0
100
AcDbLine
 10
654.9999554241249
 20
1591.499999999608
 30
0.0
 11
654.9999554241249
 21
1599.499999999609
 31
0.0
  0
LINE
  5
32EA
330
44B9
100
AcDbEntity
  8
0
100
AcDbLine
 10
654.9999554241249
 20
1601.499999999608
 30
0.0
 11
654.9999554241249
 21
1622.243557214409
 31
0.0
  0
LINE
  5
32EB
330
44B9
100
AcDbEntity
  8
0
100
AcDbLine
 10
655.3107783180247
 20
1624.717389667409
 30
0.0
 11
660.9999554248242
 21
1647.000000000009
 31
0.0
  0
ARC
  5
32EC
330
44B9
100
AcDbEntity
  8
0
100
AcDbCircle
 10
661.9999554248241
 20
1648.000000000008
 30
0.0
 40
1.0
100
AcDbArc
 50
90.0
 51
180.0
  0
LINE
  5
32ED
330
44B9
100
AcDbEntity
  8
0
100
AcDbLine
 10
660.9999554248242
 20
1647.000000000009
 30
0.0
 11
660.9999554248242
 21
1648.000000000008
 31
0.0
  0
LINE
  5
32EE
330
44B9
100
AcDbEntity
  8
0
100
AcDbLine
 10
689.9999554235246
 20
1601.499999999608
 30
0.0
 11
654.9999554241249
 21
1601.499999999608
 31
0.0
  0
LINE
  5
32EF
330
44B9
100
AcDbEntity
  8
0
100
AcDbLine
 10
689.9999554235246
 20
1599.499999999609
 30
0.0
 11
654.9999554241249
 21
1599.499999999609
 31
0.0
  0
LINE
  5
32F0
330
44B9
100
AcDbEntity
  8
0
100
AcDbLine
 10
689.9999554235246
 20
1591.499999999608
 30
0.0
 11
654.9999554241249
 21
1591.499999999608
 31
0.0
  0
LINE
  5
32F1
330
44B9
100
AcDbEntity
  8
0
100
AcDbLine
 10
689.9999554235246
 20
1649.000000000008
 30
0.0
 11
661.9999554248241
 21
1649.000000000008
 31
0.0
  0
LINE
  5
32F2
330
44B9
100
AcDbEntity
  8
0
100
AcDbLine
 10
659.9999554231405
 20
1560.999999999999
 30
0.0
 11
689.9999554235246
 21
1560.999999999999
 31
0.0
  0
LINE
  5
32F3
330
44B9
100
AcDbEntity
  8
0
100
AcDbLine
 10
659.9999554231405
 20
1560.999999999999
 30
0.0
 11
659.9999554231405
 21
1573.999999999999
 31
0.0
  0
LINE
  5
32F5
330
44B9
100
AcDbEntity
  8
0
100
AcDbLine
 10
660.9999554235246
 20
1573.999999999999
 30
0.0
 11
660.9999554235246
 21
1591.500000000147
 31
0.0
  0
LINE
  5
32F6
330
44B9
100
AcDbEntity
  8
0
100
AcDbLine
 10
659.9999554231405
 20
1573.999999999999
 30
0.0
 11
659.9999554231405
 21
1571.999999999999
 31
0.0
  0
LINE
  5
32F7
330
44B9
100
AcDbEntity
  8
0
100
AcDbLine
 10
659.9999554231405
 20
1573.999999999999
 30
0.0
 11
689.9999554235246
 21
1573.999999999999
 31
0.0
  0
LINE
  5
32F8
330
44B9
100
AcDbEntity
  8
0
100
AcDbLine
 10
689.9999554235246
 20
1591.500000000147
 30
0.0
 11
660.9999554235246
 21
1591.500000000147
 31
0.0
  0
LINE
  5
32F9
330
44B9
100
AcDbEntity
  8
0
100
AcDbLine
 10
672.9999554235246
 20
1650.0
 30
0.0
 11
672.9999554235246
 21
1649.000000000008
 31
0.0
  0
LINE
  5
32FA
330
44B9
100
AcDbEntity
  8
0
100
AcDbLine
 10
672.9999554235246
 20
1650.0
 30
0.0
 11
689.9999554235246
 21
1650.0
 31
0.0
  0
ARC
  5
32FB
330
44B9
100
AcDbEntity
  8
0
100
AcDbCircle
 10
1231.999955422924
 20
1600.499999999607
 30
0.0
 40
1.0
100
AcDbArc
 50
270.0
 51
90.0
  0
ARC
  5
32FC
330
44B9
100
AcDbEntity
  8
0
100
AcDbCircle
 10
1221.999955422924
 20
1622.243557214409
 30
0.0
 40
10.0
100
AcDbArc
 50
0.0
 51
14.32271997981211
  0
LINE
  5
32FD
330
44B9
100
AcDbEntity
  8
0
100
AcDbLine
 10
1231.999955422924
 20
1591.499999999608
 30
0.0
 11
1231.999955422924
 21
1599.499999999609
 31
0.0
  0
LINE
  5
32FE
330
44B9
100
AcDbEntity
  8
0
100
AcDbLine
 10
1231.999955422924
 20
1601.499999999608
 30
0.0
 11
1231.999955422924
 21
1622.243557214409
 31
0.0
  0
LINE
  5
32FF
330
44B9
100
AcDbEntity
  8
0
100
AcDbLine
 10
1231.689132529024
 20
1624.717389667409
 30
0.0
 11
1225.999955422224
 21
1647.000000000009
 31
0.0
  0
ARC
  5
3300
330
44B9
100
AcDbEntity
  8
0
100
AcDbCircle
 10
1224.999955422224
 20
1648.000000000008
 30
0.0
 40
1.0
100
AcDbArc
 50
0.0
 51
90.0
  0
LINE
  5
3301
330
44B9
100
AcDbEntity
  8
0
100
AcDbLine
 10
1225.999955422224
 20
1647.000000000009
 30
0.0
 11
1225.999955422224
 21
1648.000000000008
 31
0.0
  0
LINE
  5
3302
330
44B9
100
AcDbEntity
  8
0
100
AcDbLine
 10
1196.999955423524
 20
1601.499999999608
 30
0.0
 11
1231.999955422924
 21
1601.499999999608
 31
0.0
  0
LINE
  5
3303
330
44B9
100
AcDbEntity
  8
0
100
AcDbLine
 10
1196.999955423524
 20
1599.499999999609
 30
0.0
 11
1231.999955422924
 21
1599.499999999609
 31
0.0
  0
LINE
  5
3304
330
44B9
100
AcDbEntity
  8
0
100
AcDbLine
 10
1196.999955423524
 20
1591.499999999608
 30
0.0
 11
1231.999955422924
 21
1591.499999999608
 31
0.0
  0
LINE
  5
3305
330
44B9
100
AcDbEntity
  8
0
100
AcDbLine
 10
1196.999955423524
 20
1649.000000000008
 30
0.0
 11
1224.999955422224
 21
1649.000000000008
 31
0.0
  0
LINE
  5
3306
330
44B9
100
AcDbEntity
  8
0
100
AcDbLine
 10
1226.999955423908
 20
1560.999999999999
 30
0.0
 11
1196.999955423524
 21
1560.999999999999
 31
0.0
  0
LINE
  5
3307
330
44B9
100
AcDbEntity
  8
0
100
AcDbLine
 10
1226.999955423908
 20
1560.999999999999
 30
0.0
 11
1226.999955423908
 21
1573.999999999999
 31
0.0
  0
LINE
  5
3309
330
44B9
100
AcDbEntity
  8
0
100
AcDbLine
 10
1225.999955423524
 20
1573.999999999998
 30
0.0
 11
1225.999955423524
 21
1591.500000000147
 31
0.0
  0
LINE
  5
330A
330
44B9
100
AcDbEntity
  8
0
100
AcDbLine
 10
1226.999955423908
 20
1573.999999999999
 30
0.0
 11
1226.999955423908
 21
1571.999999999999
 31
0.0
  0
LINE
  5
330B
330
44B9
100
AcDbEntity
  8
0
100
AcDbLine
 10
1226.999955423908
 20
1573.999999999999
 30
0.0
 11
1196.999955423524
 21
1573.999999999999
 31
0.0
  0
LINE
  5
330C
330
44B9
100
AcDbEntity
  8
0
100
AcDbLine
 10
1196.999955423524
 20
1591.500000000147
 30
0.0
 11
1225.999955423524
 21
1591.500000000147
 31
0.0
  0
LINE
  5
330D
330
44B9
100
AcDbEntity
  8
0
100
AcDbLine
 10
1213.999955423524
 20
1650.0
 30
0.0
 11
1213.999955423524
 21
1649.000000000008
 31
0.0
  0
LINE
  5
330E
330
44B9
100
AcDbEntity
  8
0
100
AcDbLine
 10
1213.999955423524
 20
1650.0
 30
0.0
 11
1196.999955423524
 21
1650.0
 31
0.0
  0
ARC
  5
330F
330
44B9
100
AcDbEntity
  8
0
100
AcDbCircle
 10
1161.999955424124
 20
1600.499999999607
 30
0.0
 40
1.0
100
AcDbArc
 50
90.0
 51
270.0
  0
ARC
  5
3310
330
44B9
100
AcDbEntity
  8
0
100
AcDbCircle
 10
1171.999955424124
 20
1622.243557214409
 30
0.0
 40
10.0
100
AcDbArc
 50
165.6772800201879
 51
180.0
  0
LINE
  5
3311
330
44B9
100
AcDbEntity
  8
0
100
AcDbLine
 10
1161.999955424124
 20
1591.499999999608
 30
0.0
 11
1161.999955424124
 21
1599.499999999609
 31
0.0
  0
LINE
  5
3312
330
44B9
100
AcDbEntity
  8
0
100
AcDbLine
 10
1161.999955424124
 20
1601.499999999608
 30
0.0
 11
1161.999955424124
 21
1622.243557214409
 31
0.0
  0
LINE
  5
3313
330
44B9
100
AcDbEntity
  8
0
100
AcDbLine
 10
1162.310778318024
 20
1624.717389667409
 30
0.0
 11
1167.999955424824
 21
1647.000000000009
 31
0.0
  0
ARC
  5
3314
330
44B9
100
AcDbEntity
  8
0
100
AcDbCircle
 10
1168.999955424824
 20
1648.000000000008
 30
0.0
 40
1.0
100
AcDbArc
 50
90.0
 51
180.0
  0
LINE
  5
3315
330
44B9
100
AcDbEntity
  8
0
100
AcDbLine
 10
1167.999955424824
 20
1647.000000000009
 30
0.0
 11
1167.999955424824
 21
1648.000000000008
 31
0.0
  0
LINE
  5
3316
330
44B9
100
AcDbEntity
  8
0
100
AcDbLine
 10
1196.999955423524
 20
1601.499999999608
 30
0.0
 11
1161.999955424124
 21
1601.499999999608
 31
0.0
  0
LINE
  5
3317
330
44B9
100
AcDbEntity
  8
0
100
AcDbLine
 10
1196.999955423524
 20
1599.499999999609
 30
0.0
 11
1161.999955424124
 21
1599.499999999609
 31
0.0
  0
LINE
  5
3318
330
44B9
100
AcDbEntity
  8
0
100
AcDbLine
 10
1196.999955423524
 20
1591.499999999608
 30
0.0
 11
1161.999955424124
 21
1591.499999999608
 31
0.0
  0
LINE
  5
3319
330
44B9
100
AcDbEntity
  8
0
100
AcDbLine
 10
1196.999955423524
 20
1649.000000000008
 30
0.0
 11
1168.999955424824
 21
1649.000000000008
 31
0.0
  0
LINE
  5
331A
330
44B9
100
AcDbEntity
  8
0
100
AcDbLine
 10
1166.99995542314
 20
1560.999999999999
 30
0.0
 11
1196.999955423524
 21
1560.999999999999
 31
0.0
  0
LINE
  5
331B
330
44B9
100
AcDbEntity
  8
0
100
AcDbLine
 10
1166.99995542314
 20
1560.999999999999
 30
0.0
 11
1166.99995542314
 21
1573.999999999999
 31
0.0
  0
LINE
  5
331D
330
44B9
100
AcDbEntity
  8
0
100
AcDbLine
 10
1167.999955423524
 20
1573.999999999999
 30
0.0
 11
1167.999955423524
 21
1591.500000000147
 31
0.0
  0
LINE
  5
331E
330
44B9
100
AcDbEntity
  8
0
100
AcDbLine
 10
1166.99995542314
 20
1573.999999999999
 30
0.0
 11
1166.99995542314
 21
1571.999999999999
 31
0.0
  0
LINE
  5
331F
330
44B9
100
AcDbEntity
  8
0
100
AcDbLine
 10
1166.99995542314
 20
1573.999999999999
 30
0.0
 11
1196.999955423524
 21
1573.999999999999
 31
0.0
  0
LINE
  5
3320
330
44B9
100
AcDbEntity
  8
0
100
AcDbLine
 10
1196.999955423524
 20
1591.500000000147
 30
0.0
 11
1167.999955423524
 21
1591.500000000147
 31
0.0
  0
LINE
  5
3321
330
44B9
100
AcDbEntity
  8
0
100
AcDbLine
 10
1179.999955423524
 20
1650.0
 30
0.0
 11
1179.999955423524
 21
1649.000000000008
 31
0.0
  0
LINE
  5
3322
330
44B9
100
AcDbEntity
  8
0
100
AcDbLine
 10
1179.999955423524
 20
1650.0
 30
0.0
 11
1196.999955423524
 21
1650.0
 31
0.0
  0
LINE
  5
3323
330
44B9
100
AcDbEntity
  8
0
100
AcDbLine
 10
1226.999955423908
 20
1571.999999999999
 30
0.0
 11
1233.01465317526
 21
1571.999999999999
 31
0.0
  0
LINE
  5
3807
330
44B9
100
AcDbEntity
  8
0
100
AcDbLine
 10
1269.0
 20
1101.691274202621
 30
0.0
 11
1269.0
 21
811.6913705719722
 31
0.0
  0
LINE
  5
3808
330
44B9
100
AcDbEntity
  8
0
100
AcDbLine
 10
381.0
 20
1101.691274202621
 30
0.0
 11
381.0
 21
811.6913705719722
 31
0.0
  0
LINE
  5
3B85
330
44B9
100
AcDbEntity
  8
0
100
AcDbLine
 10
249.9999554235244
 20
1690.19997
 30
0.0
 11
249.9999554235244
 21
1707.774131729842
 31
0.0
  0
LINE
  5
3BAB
330
44B9
100
AcDbEntity
  8
0
100
AcDbLine
 10
349.0000000000002
 20
1650.0
 30
0.0
 11
231.9999554235244
 21
1650.0
 31
0.0
  0
LINE
  5
3BAC
330
44B9
100
AcDbEntity
  8
0
100
AcDbLine
 10
248.9999554235243
 20
1680.0
 30
0.0
 11
231.9999554235244
 21
1680.0
 31
0.0
  0
LINE
  5
3BAD
330
44B9
100
AcDbEntity
  8
0
100
AcDbLine
 10
249.9999554235244
 20
1630.0
 30
0.0
 11
249.9999554235244
 21
1610.0
 31
0.0
  0
LINE
  5
3BAE
330
44B9
100
AcDbEntity
  8
0
100
AcDbLine
 10
249.9999554235244
 20
1700.0
 30
0.0
 11
249.9999554235244
 21
1720.0
 31
0.0
  0
LINE
  5
3BB0
330
44B9
100
AcDbEntity
  8
0
100
AcDbLine
 10
249.9999554235244
 20
1650.0
 30
0.0
 11
249.9999554235244
 21
1680.0
 31
0.0
  0
LINE
  5
3BB3
330
44B9
100
AcDbEntity
  8
0
100
AcDbLine
 10
349.0000000000002
 20
1571.999999999998
 30
0.0
 11
231.9999554235244
 21
1571.999999999998
 31
0.0
  0
LINE
  5
3BB4
330
44B9
100
AcDbEntity
  8
0
100
AcDbLine
 10
248.9999554235243
 20
1541.999999999999
 30
0.0
 11
231.9999554235244
 21
1541.999999999999
 31
0.0
  0
LINE
  5
3BB5
330
44B9
100
AcDbEntity
  8
0
100
AcDbLine
 10
249.9999554235244
 20
1591.999999999998
 30
0.0
 11
249.9999554235244
 21
1606.999999999999
 31
0.0
  0
LINE
  5
3BB6
330
44B9
100
AcDbEntity
  8
0
100
AcDbLine
 10
249.9999554235244
 20
1521.999999999999
 30
0.0
 11
249.9999554235244
 21
1501.999999999999
 31
0.0
  0
LINE
  5
3BB8
330
44B9
100
AcDbEntity
  8
0
100
AcDbLine
 10
249.9999554235244
 20
1571.999999999998
 30
0.0
 11
249.9999554235244
 21
1541.999999999999
 31
0.0
  0
LINE
  5
3BBB
330
44B9
100
AcDbEntity
  8
0
100
AcDbLine
 10
349.0000000000002
 20
1680.0
 30
0.0
 11
131.9999554235242
 21
1680.0
 31
0.0
  0
LINE
  5
3BBC
330
44B9
100
AcDbEntity
  8
0
100
AcDbLine
 10
266.9999777117623
 20
1541.999999999999
 30
0.0
 11
131.9999554235242
 21
1541.999999999999
 31
0.0
  0
LINE
  5
3BBD
330
44B9
100
AcDbEntity
  8
0
100
AcDbLine
 10
149.9999554235242
 20
1660.0
 30
0.0
 11
149.9999554235242
 21
1561.999999999999
 31
0.0
  0
LINE
  5
3BC1
330
44B9
100
AcDbEntity
  8
0
100
AcDbLine
 10
349.0000000000002
 20
1680.0
 30
0.0
 11
181.9999554235244
 21
1680.0
 31
0.0
  0
LINE
  5
3BC2
330
44B9
100
AcDbEntity
  8
0
100
AcDbLine
 10
352.0000000000002
 20
1541.999999999999
 30
0.0
 11
181.9999554235244
 21
1541.999999999999
 31
0.0
  0
LINE
  5
3BC7
330
44B9
100
AcDbEntity
  8
0
100
AcDbLine
 10
372.9999791759802
 20
2430.0
 30
0.0
 11
131.9999554235244
 21
2430.0
 31
0.0
  0
LINE
  5
3BC8
330
44B9
100
AcDbEntity
  8
0
100
AcDbLine
 10
372.4999791759795
 20
2020.000164039521
 30
0.0
 11
131.9999554235243
 21
2020.000164039521
 31
0.0
  0
LINE
  5
3BC9
330
44B9
100
AcDbEntity
  8
0
100
AcDbLine
 10
149.9999554235244
 20
2410.0
 30
0.0
 11
149.9999554235243
 21
2040.000164039522
 31
0.0
  0
LINE
  5
3BCD
330
44B9
100
AcDbEntity
  8
0
100
AcDbLine
 10
1299.99997629755
 20
2407.499911358386
 30
0.0
 11
1299.99997629755
 21
2647.999949101932
 31
0.0
  0
LINE
  5
3BCE
330
44B9
100
AcDbEntity
  8
0
100
AcDbLine
 10
350.0000000000002
 20
2407.500000000009
 30
0.0
 11
350.0000000000002
 21
2647.999949101932
 31
0.0
  0
LINE
  5
3BCF
330
44B9
100
AcDbEntity
  8
0
100
AcDbLine
 10
1279.99997629755
 20
2629.999949101931
 30
0.0
 11
370.0000000000002
 21
2629.999949101931
 31
0.0
  0
LINE
  5
3BD3
330
44B9
100
AcDbEntity
  8
0
100
AcDbLine
 10
525.0
 20
1262.703768149588
 30
0.0
 11
525.0
 21
1279.703768149588
 31
0.0
  0
LINE
  5
3BD4
330
44B9
100
AcDbEntity
  8
0
100
AcDbLine
 10
350.0
 20
1139.191240367554
 30
0.0
 11
350.0
 21
1279.703768149588
 31
0.0
  0
LINE
  5
3BD5
330
44B9
100
AcDbEntity
  8
0
100
AcDbLine
 10
505.0
 20
1261.703768149588
 30
0.0
 11
370.0
 21
1261.703768149588
 31
0.0
  0
LINE
  5
3BD9
330
44B9
100
AcDbEntity
  8
0
100
AcDbLine
 10
1125.0
 20
1262.703768149588
 30
0.0
 11
1125.0
 21
1279.703768149588
 31
0.0
  0
LINE
  5
3BDA
330
44B9
100
AcDbEntity
  8
0
100
AcDbLine
 10
1300.0
 20
1139.191240367554
 30
0.0
 11
1300.0
 21
1279.703768149588
 31
0.0
  0
LINE
  5
3BDB
330
44B9
100
AcDbEntity
  8
0
100
AcDbLine
 10
1145.0
 20
1261.703768149588
 30
0.0
 11
1280.0
 21
1261.703768149588
 31
0.0
  0
LINE
  5
3BDF
330
44B9
100
AcDbEntity
  8
0
100
AcDbLine
 10
197.9847962426746
 20
781.6912893704567
 30
0.0
 11
180.9847962426746
 21
781.6912893704567
 31
0.0
  0
LINE
  5
3BE0
330
44B9
100
AcDbEntity
  8
0
100
AcDbLine
 10
372.5000446264803
 20
751.6914044070489
 30
0.0
 11
180.9847962426746
 21
751.6914044070489
 31
0.0
  0
LINE
  5
3BE1
330
44B9
100
AcDbEntity
  8
0
100
AcDbLine
 10
198.9847962426746
 20
801.6912893704567
 30
0.0
 11
198.9847962426746
 21
821.691289370457
 31
0.0
  0
LINE
  5
3BE2
330
44B9
100
AcDbEntity
  8
0
100
AcDbLine
 10
198.9847962426746
 20
731.6914044070489
 30
0.0
 11
198.9847962426746
 21
674.191404407049
 31
0.0
  0
LINE
  5
3BE3
330
44B9
100
AcDbEntity
  8
0
100
AcDbLine
 10
198.9847962426746
 20
781.6912893704567
 30
0.0
 11
198.9847962426746
 21
751.6914044070489
 31
0.0
  0
LINE
  5
3BE7
330
44B9
100
AcDbEntity
  8
0
100
AcDbLine
 10
197.9847962426746
 20
1131.691355404137
 30
0.0
 11
180.9847962426746
 21
1131.691355404137
 31
0.0
  0
LINE
  5
3BE8
330
44B9
100
AcDbEntity
  8
0
100
AcDbLine
 10
373.0000446264822
 20
1161.691240367545
 30
0.0
 11
180.9847962426746
 21
1161.691240367545
 31
0.0
  0
LINE
  5
3BE9
330
44B9
100
AcDbEntity
  8
0
100
AcDbLine
 10
198.9847962426746
 20
1111.691355404137
 30
0.0
 11
198.9847962426746
 21
1091.691355404137
 31
0.0
  0
LINE
  5
3BEA
330
44B9
100
AcDbEntity
  8
0
100
AcDbLine
 10
198.9847962426746
 20
1181.691240367545
 30
0.0
 11
198.9847962426748
 21
1239.191240367545
 31
0.0
  0
LINE
  5
3BEB
330
44B9
100
AcDbEntity
  8
0
100
AcDbLine
 10
198.9847962426746
 20
1131.691355404137
 30
0.0
 11
198.9847962426746
 21
1161.691240367545
 31
0.0
  0
LINE
  5
3BEF
330
44B9
100
AcDbEntity
  8
0
100
AcDbLine
 10
502.0642220684757
 20
1131.691355404137
 30
0.0
 11
180.9847962426748
 21
1131.691355404137
 31
0.0
  0
LINE
  5
3BF0
330
44B9
100
AcDbEntity
  8
0
100
AcDbLine
 10
502.0642220684757
 20
781.6912893704567
 30
0.0
 11
180.9847962426746
 21
781.6912893704567
 31
0.0
  0
LINE
  5
3BF1
330
44B9
100
AcDbEntity
  8
0
100
AcDbLine
 10
198.9847962426748
 20
1111.691355404137
 30
0.0
 11
198.9847962426746
 21
801.6912893704567
 31
0.0
  0
LINE
  5
3BF5
330
44B9
100
AcDbEntity
  8
0
100
AcDbLine
 10
1125.0
 20
1154.627067391199
 30
0.0
 11
1125.0
 21
1279.703768149588
 31
0.0
  0
LINE
  5
3BF6
330
44B9
100
AcDbEntity
  8
0
100
AcDbLine
 10
525.0
 20
1154.627133335661
 30
0.0
 11
525.0
 21
1279.703768149588
 31
0.0
  0
LINE
  5
3BF7
330
44B9
100
AcDbEntity
  8
0
100
AcDbLine
 10
1105.0
 20
1261.703768149588
 30
0.0
 11
545.0
 21
1261.703768149588
 31
0.0
  0
LINE
  5
3BFB
330
44B9
100
AcDbEntity
  8
0
100
AcDbLine
 10
524.9999554235244
 20
2410.000026394979
 30
0.0
 11
526.8489405894937
 21
2420.186337347844
 31
0.0
  0
LINE
  5
3BFC
330
44B9
100
AcDbEntity
  8
0
100
AcDbLine
 10
524.9999554235244
 20
2410.000026394979
 30
0.0
 11
531.6943790249069
 21
2417.897137868023
 31
0.0
  0
LINE
  5
3BFD
330
44B9
100
AcDbEntity
  8
0
100
AcDbLine
 10
529.2716598072006
 20
2419.041737607933
 30
0.0
 11
524.9999554235244
 21
2410.000026394979
 31
0.0
  0
CIRCLE
  5
3BFE
330
44B9
100
AcDbEntity
  8
0
100
AcDbCircle
 10
1267.99997629755
 20
2397.999952922278
 30
0.0
 40
12.0000000000005
  0
CIRCLE
  5
3C00
330
44B9
100
AcDbEntity
  8
0
100
AcDbCircle
 10
1267.99997629755
 20
2052.000033833997
 30
0.0
 40
12.0000000000005
  0
CIRCLE
  5
3C02
330
44B9
100
AcDbEntity
  8
0
100
AcDbCircle
 10
382.0000000000002
 20
2398.000041563901
 30
0.0
 40
12.0000000000005
  0
CIRCLE
  5
3C04
330
44B9
100
AcDbEntity
  8
0
100
AcDbCircle
 10
382.0000000000002
 20
2052.00012247562
 30
0.0
 40
12.0000000000005
  0
LINE
  5
3C08
330
44B9
100
AcDbEntity
  8
0
100
AcDbLine
 10
80.0
 20
2808.0
 30
0.0
 11
1880.0
 21
2808.0
 31
0.0
  0
LINE
  5
3C0A
330
44B9
100
AcDbEntity
  8
0
100
AcDbLine
 10
80.0
 20
2808.0
 30
0.0
 11
80.0
 21
-0.0000000000000089
 31
0.0
  0
LINE
  5
3CD9
330
44B9
100
AcDbEntity
  8
0
100
AcDbLine
 10
1880.0
 20
2808.0
 30
0.0
 11
1880.0
 21
-0.000000000000453
 31
0.0
  0
LINE
  5
3CE5
330
44B9
100
AcDbEntity
  8
0
100
AcDbLine
 10
80.0
 20
0.0
 30
0.0
 11
1880.0
 21
0.0
 31
0.0
  0
LINE
  5
3CE6
330
44B9
100
AcDbEntity
  8
0
100
AcDbLine
 10
80.0
 20
0.0
 30
0.0
 11
1880.0
 21
0.0
 31
0.0
  0
LINE
  5
3CF1
330
44B9
100
AcDbEntity
  8
0
100
AcDbLine
 10
388.9282032302757
 20
2064.00012247562
 30
0.0
 11
395.8564064605512
 21
2052.00012247562
 31
0.0
  0
LINE
  5
3CF2
330
44B9
100
AcDbEntity
  8
0
100
AcDbLine
 10
395.8564064605512
 20
2052.00012247562
 30
0.0
 11
388.9282032302757
 21
2040.00012247562
 31
0.0
  0
LINE
  5
3CF3
330
44B9
100
AcDbEntity
  8
0
100
AcDbLine
 10
388.9282032302757
 20
2040.00012247562
 30
0.0
 11
375.0717967697247
 21
2040.00012247562
 31
0.0
  0
LINE
  5
3CF4
330
44B9
100
AcDbEntity
  8
0
100
AcDbLine
 10
375.0717967697247
 20
2040.00012247562
 30
0.0
 11
368.1435935394492
 21
2052.00012247562
 31
0.0
  0
LINE
  5
3CF5
330
44B9
100
AcDbEntity
  8
0
100
AcDbLine
 10
368.1435935394492
 20
2052.00012247562
 30
0.0
 11
375.0717967697247
 21
2064.00012247562
 31
0.0
  0
LINE
  5
3CF6
330
44B9
100
AcDbEntity
  8
0
100
AcDbLine
 10
375.0717967697247
 20
2064.00012247562
 30
0.0
 11
388.9282032302757
 21
2064.00012247562
 31
0.0
  0
LINE
  5
3CF7
330
44B9
100
AcDbEntity
  8
0
100
AcDbLine
 10
1261.071773067275
 20
2385.999952922278
 30
0.0
 11
1254.143569836999
 21
2397.999952922278
 31
0.0
  0
LINE
  5
3CF8
330
44B9
100
AcDbEntity
  8
0
100
AcDbLine
 10
1254.143569836999
 20
2397.999952922278
 30
0.0
 11
1261.071773067275
 21
2409.999952922278
 31
0.0
  0
LINE
  5
3CF9
330
44B9
100
AcDbEntity
  8
0
100
AcDbLine
 10
1261.071773067275
 20
2409.999952922278
 30
0.0
 11
1274.928179527826
 21
2409.999952922278
 31
0.0
  0
LINE
  5
3CFA
330
44B9
100
AcDbEntity
  8
0
100
AcDbLine
 10
1274.928179527826
 20
2409.999952922278
 30
0.0
 11
1281.856382758101
 21
2397.999952922278
 31
0.0
  0
LINE
  5
3CFB
330
44B9
100
AcDbEntity
  8
0
100
AcDbLine
 10
1281.856382758101
 20
2397.999952922278
 30
0.0
 11
1274.928179527826
 21
2385.999952922278
 31
0.0
  0
LINE
  5
3CFC
330
44B9
100
AcDbEntity
  8
0
100
AcDbLine
 10
1274.928179527826
 20
2385.999952922278
 30
0.0
 11
1261.071773067275
 21
2385.999952922278
 31
0.0
  0
LINE
  5
3CFD
330
44B9
100
AcDbEntity
  8
0
100
AcDbLine
 10
255.3589392235244
 20
1700.0
 30
0.0
 11
249.9999554235244
 21
1680.0
 31
0.0
  0
LINE
  5
3CFE
330
44B9
100
AcDbEntity
  8
0
100
AcDbLine
 10
249.9999554235244
 20
1680.0
 30
0.0
 11
244.6409716235244
 21
1700.0
 31
0.0
  0
LINE
  5
3CFF
330
44B9
100
AcDbEntity
  8
0
100
AcDbLine
 10
249.9999554235244
 20
1680.0
 30
0.0
 11
249.9999554235244
 21
1700.0
 31
0.0
  0
LINE
  5
3D00
330
44B9
100
AcDbEntity
  8
0
100
AcDbLine
 10
244.6409716235244
 20
1630.0
 30
0.0
 11
249.9999554235244
 21
1650.0
 31
0.0
  0
LINE
  5
3D01
330
44B9
100
AcDbEntity
  8
0
100
AcDbLine
 10
249.9999554235244
 20
1650.0
 30
0.0
 11
255.3589392235244
 21
1630.0
 31
0.0
  0
LINE
  5
3D02
330
44B9
100
AcDbEntity
  8
0
100
AcDbLine
 10
249.9999554235244
 20
1650.0
 30
0.0
 11
249.9999554235244
 21
1630.0
 31
0.0
  0
TEXT
  5
3D03
330
44B9
100
AcDbEntity
  8
0
100
AcDbText
 10
237.8359159768388
 20
1696.915483897703
 30
0.0
 40
25.0
  1
30
 50
90.0
100
AcDbText
  0
LINE
  5
3D04
330
44B9
100
AcDbEntity
  8
0
100
AcDbLine
 10
244.6409716235244
 20
1521.999999999999
 30
0.0
 11
249.9999554235244
 21
1541.999999999999
 31
0.0
  0
LINE
  5
3D05
330
44B9
100
AcDbEntity
  8
0
100
AcDbLine
 10
249.9999554235244
 20
1541.999999999999
 30
0.0
 11
255.3589392235244
 21
1521.999999999999
 31
0.0
  0
LINE
  5
3D06
330
44B9
100
AcDbEntity
  8
0
100
AcDbLine
 10
249.9999554235244
 20
1541.999999999999
 30
0.0
 11
249.9999554235244
 21
1521.999999999999
 31
0.0
  0
LINE
  5
3D07
330
44B9
100
AcDbEntity
  8
0
100
AcDbLine
 10
255.3589392235244
 20
1591.999999999998
 30
0.0
 11
249.9999554235244
 21
1571.999999999998
 31
0.0
  0
LINE
  5
3D08
330
44B9
100
AcDbEntity
  8
0
100
AcDbLine
 10
249.9999554235244
 20
1571.999999999998
 30
0.0
 11
244.6409716235244
 21
1591.999999999998
 31
0.0
  0
LINE
  5
3D09
330
44B9
100
AcDbEntity
  8
0
100
AcDbLine
 10
249.9999554235244
 20
1571.999999999998
 30
0.0
 11
249.9999554235244
 21
1591.999999999998
 31
0.0
  0
TEXT
  5
3D0A
330
44B9
100
AcDbEntity
  8
0
100
AcDbText
 10
237.8359159768388
 20
1487.584516102295
 30
0.0
 40
25.0
  1
30
 50
90.0
100
AcDbText
  0
LINE
  5
3D0B
330
44B9
100
AcDbEntity
  8
0
100
AcDbLine
 10
149.9999554235242
 20
1541.999999999999
 30
0.0
 11
144.6409715749021
 21
1561.999999999999
 31
0.0
  0
LINE
  5
3D0C
330
44B9
100
AcDbEntity
  8
0
100
AcDbLine
 10
149.9999554235242
 20
1541.999999999999
 30
0.0
 11
155.3589392721463
 21
1561.999999999999
 31
0.0
  0
LINE
  5
3D0D
330
44B9
100
AcDbEntity
  8
0
100
AcDbLine
 10
149.9999554235242
 20
1561.999999999999
 30
0.0
 11
149.9999554235242
 21
1541.999999999999
 31
0.0
  0
LINE
  5
3D0E
330
44B9
100
AcDbEntity
  8
0
100
AcDbLine
 10
149.9999554235242
 20
1680.0
 30
0.0
 11
155.3589392721463
 21
1660.0
 31
0.0
  0
LINE
  5
3D0F
330
44B9
100
AcDbEntity
  8
0
100
AcDbLine
 10
149.9999554235242
 20
1680.0
 30
0.0
 11
144.6409715749022
 21
1660.0
 31
0.0
  0
LINE
  5
3D10
330
44B9
100
AcDbEntity
  8
0
100
AcDbLine
 10
149.9999554235242
 20
1660.0
 30
0.0
 11
149.9999554235242
 21
1680.0
 31
0.0
  0
TEXT
  5
3D11
330
44B9
100
AcDbEntity
  8
0
100
AcDbText
 10
131.999955423524
 20
1514.333333333333
 30
0.0
 40
25.0
  1
据付時約138
 50
90.0
100
AcDbText
  0
TEXT
  5
3D19
330
44B9
100
AcDbEntity
  8
0
100
AcDbText
 10
137.499955423524
 20
2197.916748686427
 30
0.0
 40
25.0
  1
410
 50
90.0
100
AcDbText
  0
LINE
  5
3D1A
330
44B9
100
AcDbEntity
  8
0
100
AcDbLine
 10
149.9999554235243
 20
2020.000164039521
 30
0.0
 11
144.6409715749022
 21
2040.000164039522
 31
0.0
  0
LINE
  5
3D1B
330
44B9
100
AcDbEntity
  8
0
100
AcDbLine
 10
149.9999554235243
 20
2020.000164039521
 30
0.0
 11
155.3589392721464
 21
2040.000164039522
 31
0.0
  0
LINE
  5
3D1C
330
44B9
100
AcDbEntity
  8
0
100
AcDbLine
 10
149.9999554235243
 20
2040.000164039522
 30
0.0
 11
149.9999554235243
 21
2020.000164039521
 31
0.0
  0
LINE
  5
3D1D
330
44B9
100
AcDbEntity
  8
0
100
AcDbLine
 10
149.9999554235244
 20
2430.0
 30
0.0
 11
155.3589392721465
 21
2410.0
 31
0.0
  0
LINE
  5
3D1E
330
44B9
100
AcDbEntity
  8
0
100
AcDbLine
 10
149.9999554235244
 20
2430.0
 30
0.0
 11
144.6409715749023
 21
2410.0
 31
0.0
  0
LINE
  5
3D1F
330
44B9
100
AcDbEntity
  8
0
100
AcDbLine
 10
149.9999554235244
 20
2410.0
 30
0.0
 11
149.9999554235244
 21
2430.0
 31
0.0
  0
TEXT
  5
3D20
330
44B9
100
AcDbEntity
  8
0
100
AcDbText
 10
793.7499881487751
 20
2642.499949101932
 30
0.0
 40
25.0
  1
950
100
AcDbText
  0
LINE
  5
3D21
330
44B9
100
AcDbEntity
  8
0
100
AcDbLine
 10
350.0000000000002
 20
2629.999949101931
 30
0.0
 11
370.0000000000002
 21
2635.358932950553
 31
0.0
  0
LINE
  5
3D22
330
44B9
100
AcDbEntity
  8
0
100
AcDbLine
 10
350.0000000000002
 20
2629.999949101931
 30
0.0
 11
370.0000000000002
 21
2624.640965253309
 31
0.0
  0
LINE
  5
3D23
330
44B9
100
AcDbEntity
  8
0
100
AcDbLine
 10
370.0000000000002
 20
2629.999949101931
 30
0.0
 11
350.0000000000002
 21
2629.999949101931
 31
0.0
  0
LINE
  5
3D24
330
44B9
100
AcDbEntity
  8
0
100
AcDbLine
 10
1299.99997629755
 20
2629.999949101931
 30
0.0
 11
1279.99997629755
 21
2624.64096525331
 31
0.0
  0
LINE
  5
3D25
330
44B9
100
AcDbEntity
  8
0
100
AcDbLine
 10
1299.99997629755
 20
2629.999949101931
 30
0.0
 11
1279.99997629755
 21
2635.358932950553
 31
0.0
  0
LINE
  5
3D26
330
44B9
100
AcDbEntity
  8
0
100
AcDbLine
 10
1279.99997629755
 20
2629.999949101931
 30
0.0
 11
1299.99997629755
 21
2629.999949101931
 31
0.0
  0
TEXT
  5
3D27
330
44B9
100
AcDbEntity
  8
0
100
AcDbText
 10
408.3333333333333
 20
1274.203768149588
 30
0.0
 40
25.0
  1
175
100
AcDbText
  0
LINE
  5
3D28
330
44B9
100
AcDbEntity
  8
0
100
AcDbLine
 10
350.0
 20
1261.703768149588
 30
0.0
 11
370.0
 21
1267.06275199821
 31
0.0
  0
LINE
  5
3D29
330
44B9
100
AcDbEntity
  8
0
100
AcDbLine
 10
350.0
 20
1261.703768149588
 30
0.0
 11
370.0
 21
1256.344784300966
 31
0.0
  0
LINE
  5
3D2A
330
44B9
100
AcDbEntity
  8
0
100
AcDbLine
 10
370.0
 20
1261.703768149588
 30
0.0
 11
350.0
 21
1261.703768149588
 31
0.0
  0
LINE
  5
3D2B
330
44B9
100
AcDbEntity
  8
0
100
AcDbLine
 10
525.0
 20
1261.703768149588
 30
0.0
 11
505.0
 21
1256.344784300966
 31
0.0
  0
LINE
  5
3D2C
330
44B9
100
AcDbEntity
  8
0
100
AcDbLine
 10
525.0
 20
1261.703768149588
 30
0.0
 11
505.0
 21
1267.06275199821
 31
0.0
  0
LINE
  5
3D2D
330
44B9
100
AcDbEntity
  8
0
100
AcDbLine
 10
505.0
 20
1261.703768149588
 30
0.0
 11
525.0
 21
1261.703768149588
 31
0.0
  0
TEXT
  5
3D2E
330
44B9
100
AcDbEntity
  8
0
100
AcDbText
 10
1183.333333333333
 20
1274.203768149588
 30
0.0
 40
25.0
  1
175
100
AcDbText
  0
LINE
  5
3D2F
330
44B9
100
AcDbEntity
  8
0
100
AcDbLine
 10
1300.0
 20
1261.703768149588
 30
0.0
 11
1280.0
 21
1256.344784300966
 31
0.0
  0
LINE
  5
3D30
330
44B9
100
AcDbEntity
  8
0
100
AcDbLine
 10
1300.0
 20
1261.703768149588
 30
0.0
 11
1280.0
 21
1267.06275199821
 31
0.0
  0
LINE
  5
3D31
330
44B9
100
AcDbEntity
  8
0
100
AcDbLine
 10
1280.0
 20
1261.703768149588
 30
0.0
 11
1300.0
 21
1261.703768149588
 31
0.0
  0
LINE
  5
3D32
330
44B9
100
AcDbEntity
  8
0
100
AcDbLine
 10
1125.0
 20
1261.703768149588
 30
0.0
 11
1145.0
 21
1267.06275199821
 31
0.0
  0
LINE
  5
3D33
330
44B9
100
AcDbEntity
  8
0
100
AcDbLine
 10
1125.0
 20
1261.703768149588
 30
0.0
 11
1145.0
 21
1256.344784300966
 31
0.0
  0
LINE
  5
3D34
330
44B9
100
AcDbEntity
  8
0
100
AcDbLine
 10
1145.0
 20
1261.703768149588
 30
0.0
 11
1125.0
 21
1261.703768149588
 31
0.0
  0
TEXT
  5
3D35
330
44B9
100
AcDbEntity
  8
0
100
AcDbText
 10
186.4847962426746
 20
674.191404407049
 30
0.0
 40
25.0
  1
30
 50
90.0
100
AcDbText
  0
LINE
  5
3D36
330
44B9
100
AcDbEntity
  8
0
100
AcDbLine
 10
198.9847962426746
 20
751.6914044070489
 30
0.0
 11
204.3437800912968
 21
731.6914044070489
 31
0.0
  0
LINE
  5
3D37
330
44B9
100
AcDbEntity
  8
0
100
AcDbLine
 10
198.9847962426746
 20
751.6914044070489
 30
0.0
 11
193.6258123940525
 21
731.6914044070489
 31
0.0
  0
LINE
  5
3D38
330
44B9
100
AcDbEntity
  8
0
100
AcDbLine
 10
198.9847962426746
 20
731.6914044070489
 30
0.0
 11
198.9847962426746
 21
751.6914044070489
 31
0.0
  0
LINE
  5
3D39
330
44B9
100
AcDbEntity
  8
0
100
AcDbLine
 10
198.9847962426746
 20
781.6912893704567
 30
0.0
 11
193.6258123940525
 21
801.6912893704567
 31
0.0
  0
LINE
  5
3D3A
330
44B9
100
AcDbEntity
  8
0
100
AcDbLine
 10
198.9847962426746
 20
781.6912893704567
 30
0.0
 11
204.3437800912968
 21
801.6912893704567
 31
0.0
  0
LINE
  5
3D3B
330
44B9
100
AcDbEntity
  8
0
100
AcDbLine
 10
198.9847962426746
 20
801.6912893704567
 30
0.0
 11
198.9847962426746
 21
781.6912893704567
 31
0.0
  0
TEXT
  5
3D3C
330
44B9
100
AcDbEntity
  8
0
100
AcDbText
 10
186.4847962426745
 20
1201.691240367545
 30
0.0
 40
25.0
  1
30
 50
90.0
100
AcDbText
  0
LINE
  5
3D3D
330
44B9
100
AcDbEntity
  8
0
100
AcDbLine
 10
198.9847962426746
 20
1161.691240367545
 30
0.0
 11
193.6258123940525
 21
1181.691240367545
 31
0.0
  0
LINE
  5
3D3E
330
44B9
100
AcDbEntity
  8
0
100
AcDbLine
 10
198.9847962426746
 20
1161.691240367545
 30
0.0
 11
204.3437800912968
 21
1181.691240367545
 31
0.0
  0
LINE
  5
3D3F
330
44B9
100
AcDbEntity
  8
0
100
AcDbLine
 10
198.9847962426746
 20
1181.691240367545
 30
0.0
 11
198.9847962426746
 21
1161.691240367545
 31
0.0
  0
LINE
  5
3D40
330
44B9
100
AcDbEntity
  8
0
100
AcDbLine
 10
198.9847962426746
 20
1131.691355404137
 30
0.0
 11
204.3437800912968
 21
1111.691355404137
 31
0.0
  0
LINE
  5
3D41
330
44B9
100
AcDbEntity
  8
0
100
AcDbLine
 10
198.9847962426746
 20
1131.691355404137
 30
0.0
 11
193.6258123940525
 21
1111.691355404137
 31
0.0
  0
LINE
  5
3D42
330
44B9
100
AcDbEntity
  8
0
100
AcDbLine
 10
198.9847962426746
 20
1111.691355404137
 30
0.0
 11
198.9847962426746
 21
1131.691355404137
 31
0.0
  0
TEXT
  5
3D43
330
44B9
100
AcDbEntity
  8
0
100
AcDbText
 10
186.4847962426746
 20
925.4413223872971
 30
0.0
 40
25.0
  1
350
 50
90.0
100
AcDbText
  0
LINE
  5
3D44
330
44B9
100
AcDbEntity
  8
0
100
AcDbLine
 10
198.9847962426746
 20
781.6912893704567
 30
0.0
 11
193.6258123940525
 21
801.6912893704567
 31
0.0
  0
LINE
  5
3D45
330
44B9
100
AcDbEntity
  8
0
100
AcDbLine
 10
198.9847962426746
 20
781.6912893704567
 30
0.0
 11
204.3437800912968
 21
801.6912893704567
 31
0.0
  0
LINE
  5
3D46
330
44B9
100
AcDbEntity
  8
0
100
AcDbLine
 10
198.9847962426746
 20
801.6912893704567
 30
0.0
 11
198.9847962426746
 21
781.6912893704567
 31
0.0
  0
LINE
  5
3D47
330
44B9
100
AcDbEntity
  8
0
100
AcDbLine
 10
198.9847962426748
 20
1131.691355404137
 30
0.0
 11
204.3437800912969
 21
1111.691355404137
 31
0.0
  0
LINE
  5
3D48
330
44B9
100
AcDbEntity
  8
0
100
AcDbLine
 10
198.9847962426748
 20
1131.691355404137
 30
0.0
 11
193.6258123940527
 21
1111.691355404137
 31
0.0
  0
LINE
  5
3D49
330
44B9
100
AcDbEntity
  8
0
100
AcDbLine
 10
198.9847962426748
 20
1111.691355404137
 30
0.0
 11
198.9847962426748
 21
1131.691355404137
 31
0.0
  0
TEXT
  5
3D4A
330
44B9
100
AcDbEntity
  8
0
100
AcDbText
 10
795.8333333333331
 20
1274.203768149588
 30
0.0
 40
25.0
  1
600
100
AcDbText
  0
LINE
  5
3D4B
330
44B9
100
AcDbEntity
  8
0
100
AcDbLine
 10
525.0
 20
1261.703768149588
 30
0.0
 11
545.0
 21
1267.06275199821
 31
0.0
  0
LINE
  5
3D4C
330
44B9
100
AcDbEntity
  8
0
100
AcDbLine
 10
525.0
 20
1261.703768149588
 30
0.0
 11
545.0
 21
1256.344784300966
 31
0.0
  0
LINE
  5
3D4D
330
44B9
100
AcDbEntity
  8
0
100
AcDbLine
 10
545.0
 20
1261.703768149588
 30
0.0
 11
525.0
 21
1261.703768149588
 31
0.0
  0
LINE
  5
3D4E
330
44B9
100
AcDbEntity
  8
0
100
AcDbLine
 10
1125.0
 20
1261.703768149588
 30
0.0
 11
1105.0
 21
1256.344784300966
 31
0.0
  0
LINE
  5
3D4F
330
44B9
100
AcDbEntity
  8
0
100
AcDbLine
 10
1125.0
 20
1261.703768149588
 30
0.0
 11
1105.0
 21
1267.06275199821
 31
0.0
  0
LINE
  5
3D50
330
44B9
100
AcDbEntity
  8
0
100
AcDbLine
 10
1105.0
 20
1261.703768149588
 30
0.0
 11
1125.0
 21
1261.703768149588
 31
0.0
  0
LINE
  5
3D51
330
44B9
100
AcDbEntity
  8
0
100
AcDbLine
 10
1261.071773067275
 20
2064.000033833997
 30
0.0
 11
1254.143569836999
 21
2052.000033833997
 31
0.0
  0
LINE
  5
3D52
330
44B9
100
AcDbEntity
  8
0
100
AcDbLine
 10
1254.143569836999
 20
2052.000033833997
 30
0.0
 11
1261.071773067275
 21
2040.000033833997
 31
0.0
  0
LINE
  5
3D53
330
44B9
100
AcDbEntity
  8
0
100
AcDbLine
 10
1261.071773067275
 20
2040.000033833997
 30
0.0
 11
1274.928179527826
 21
2040.000033833997
 31
0.0
  0
LINE
  5
3D54
330
44B9
100
AcDbEntity
  8
0
100
AcDbLine
 10
1274.928179527826
 20
2040.000033833997
 30
0.0
 11
1281.856382758101
 21
2052.000033833997
 31
0.0
  0
LINE
  5
3D55
330
44B9
100
AcDbEntity
  8
0
100
AcDbLine
 10
1281.856382758101
 20
2052.000033833997
 30
0.0
 11
1274.928179527826
 21
2064.000033833997
 31
0.0
  0
LINE
  5
3D56
330
44B9
100
AcDbEntity
  8
0
100
AcDbLine
 10
1274.928179527826
 20
2064.000033833997
 30
0.0
 11
1261.071773067275
 21
2064.000033833997
 31
0.0
  0
LINE
  5
3D57
330
44B9
100
AcDbEntity
  8
0
100
AcDbLine
 10
388.9282032302757
 20
2386.000041563901
 30
0.0
 11
395.8564064605512
 21
2398.000041563901
 31
0.0
  0
LINE
  5
3D58
330
44B9
100
AcDbEntity
  8
0
100
AcDbLine
 10
395.8564064605512
 20
2398.000041563901
 30
0.0
 11
388.9282032302757
 21
2410.000041563901
 31
0.0
  0
LINE
  5
3D59
330
44B9
100
AcDbEntity
  8
0
100
AcDbLine
 10
388.9282032302757
 20
2410.000041563901
 30
0.0
 11
375.0717967697247
 21
2410.000041563901
 31
0.0
  0
LINE
  5
3D5A
330
44B9
100
AcDbEntity
  8
0
100
AcDbLine
 10
375.0717967697247
 20
2410.000041563901
 30
0.0
 11
368.1435935394492
 21
2398.000041563901
 31
0.0
  0
LINE
  5
3D5B
330
44B9
100
AcDbEntity
  8
0
100
AcDbLine
 10
368.1435935394492
 20
2398.000041563901
 30
0.0
 11
375.0717967697247
 21
2386.000041563901
 31
0.0
  0
LINE
  5
3D5C
330
44B9
100
AcDbEntity
  8
0
100
AcDbLine
 10
375.0717967697247
 20
2386.000041563901
 30
0.0
 11
388.9282032302757
 21
2386.000041563901
 31
0.0
  0
TEXT
  5
3E07
330
44B9
100
AcDbEntity
  8
0
100
AcDbText
 10
728.0583500517121
 20
698.5004542583798
 30
0.0
 40
25.0
  1
＜基礎ボルト穴＞
100
AcDbText
  0
LINE
  5
3E08
330
44B9
100
AcDbEntity
  8
0
100
AcDbLine
 10
553.3580381434328
 20
693.8718355789343
 30
0.0
 11
1022.535308842245
 21
693.8718355789343
 31
0.0
  0
LINE
  5
3E0B
330
44B9
100
AcDbEntity
  8
0
100
AcDbLine
 10
531.1457836151329
 20
762.6589657142143
 30
0.0
 11
553.3580381434328
 21
693.8718355789343
 31
0.0
  0
TEXT
  5
4169
330
44B9
100
AcDbEntity
  8
0
100
AcDbText
 10
889.4131103659983
 20
114.9999966946904
 30
0.0
 40
35.0
  1
エアコン防振台
  7
MONO-SET
100
AcDbText
  0
LINE
  5
43F4
330
44B9
100
AcDbEntity
  8
0
100
AcDbLine
 10
525.0
 20
781.6912893704567
 30
0.0
 11
536.2454793689106
 21
764.3057234707456
 31
0.0
  0
LINE
  5
43F5
330
44B9
100
AcDbEntity
  8
0
100
AcDbLine
 10
525.0
 20
781.6912893704567
 30
0.0
 11
526.0460878613555
 21
761.0122079576828
 31
0.0
  0
LINE
  5
43F6
330
44B9
100
AcDbEntity
  8
0
100
AcDbLine
 10
531.1457836151329
 20
762.6589657142143
 30
0.0
 11
525.0
 21
781.6912893704567
 31
0.0
  0
TEXT
  5
43F7
330
44B9
100
AcDbEntity
  8
0
100
AcDbText
 10
573.887162780127
 20
699.1192731535996
 30
0.0
 40
25.0
  1
4-∅20
100
AcDbText
  0
MTEXT
  5
4768
330
44B9
100
AcDbEntity
  8
0
100
AcDbMText
 10
329.8227531037646
 20
1471.378879223244
 30
0.0
 40
30.0
 41
1369.2
 46
0.0
 71
     1
 72
     1
  1
※搭載機器や施工状況等によって、据え付け高さは若干異なる可能性があります。
 73
     1
 44
1.0
  0
TEXT
  5
49D8
330
44B9
100
AcDbEntity
  8
0
100
AcDbText
 10
1371.404363712859
 20
2103.904085224803
 30
0.0
 40
25.0
  1
「配管側」ラベル
 50
89.99999656979346
100
AcDbText
  0
LINE
  5
49D9
330
44B9
100
AcDbEntity
  8
0
100
AcDbLine
 10
1359.786723317437
 20
2072.917761975359
 30
0.0
 11
1359.786723317437
 21
2097.586424085396
 31
0.0
  0
LINE
  5
49DB
330
44B9
100
AcDbEntity
  8
0
100
AcDbLine
 10
1302.338615127913
 20
2108.901221846975
 30
0.0
 11
1359.786723317437
 21
2072.917761975359
 31
0.0
  0
LINE
  5
49DC
330
44B9
100
AcDbEntity
  8
0
  6
ByBlock
100
AcDbLine
 10
1299.493904214773
 20
2104.359600199444
 30
0.0
 11
1285.389052236788
 21
2119.517827603985
 31
0.0
  0
LINE
  5
49DD
330
44B9
100
AcDbEntity
  8
0
  6
ByBlock
100
AcDbLine
 10
1285.389052236788
 20
2119.517827603985
 30
0.0
 11
1305.183326041054
 21
2113.442843494506
 31
0.0
  0
LINE
  5
49DE
330
44B9
100
AcDbEntity
  8
0
  6
ByBlock
100
AcDbLine
 10
1285.389052236788
 20
2119.517827603985
 30
0.0
 11
1302.338615127914
 21
2108.901221846975
 31
0.0
  0
ENDSEC
  0
SECTION
  2
OBJECTS
  0
DICTIONARY
  5
4456
330
0
100
AcDbDictionary
281
     1
  3
ACAD_CIP_PREVIOUS_PRODUCT_INFO
350
452F
  3
ACAD_COLOR
350
44AC
  3
ACAD_DETAILVIEWSTYLE
350
44B3
  3
ACAD_FIELDLIST
350
4578
  3
ACAD_GROUP
350
4457
  3
ACAD_LAYOUT
350
44AB
  3
ACAD_MATERIAL
350
445A
  3
ACAD_MLEADERSTYLE
350
44AF
  3
ACAD_MLINESTYLE
350
44A8
  3
ACAD_PLOTSETTINGS
350
44AA
  3
ACAD_PLOTSTYLENAME
350
4458
  3
ACAD_SCALELIST
350
448C
  3
ACAD_SECTIONVIEWSTYLE
350
44B1
  3
ACAD_TABLESTYLE
350
44AD
  3
ACAD_VISUALSTYLE
350
4473
  3
ACDB_RECOMPOSE_DATA
350
49E1
  3
AcDbVariableDictionary
350
476D
  3
AcmDictionary
350
4555
  3
AMG
350
4530
  3
AMGSNAPSETTINGS
350
4643
  0
DICTIONARY
  5
48F3
330
444C
100
AcDbDictionary
280
     1
281
     1
  3
ACAD_LAYERSTATES
360
48F4
  0
DICTIONARY
  5
4769
330
449E
100
AcDbDictionary
280
     1
281
     1
  3
ADSK_XREC_LAYER_RECONCILED
360
476A
  0
DICTIONARY
  5
476B
330
44D4
100
AcDbDictionary
280
     1
281
     1
  3
ADSK_XREC_LAYER_RECONCILED
360
476C
  0
DICTIONARY
  5
4681
330
44B9
100
AcDbDictionary
280
     1
281
     1
  3
ACAD_SORTENTS
360
4682
  0
XRECORD
  5
452F
102
{ACAD_REACTORS
330
4456
102
}
330
4456
100
AcDbXrecord
280
     1
300
AMECH_PP
300
2021
300
87400AMECH_PP_2021_0F
  0
DICTIONARY
  5
44AC
102
{ACAD_REACTORS
330
4456
102
}
330
4456
100
AcDbDictionary
281
     1
  0
DICTIONARY
  5
44B3
102
{ACAD_REACTORS
330
4456
102
}
330
4456
100
AcDbDictionary
281
     1
  3
Imperial24
350
44B4
  3
Metric50
350
4904
  0
FIELDLIST
  5
4578
102
{ACAD_REACTORS
330
4456
102
}
330
4456
100
AcDbIdSet
 90
       14
330
48F8
330
48F9
330
48FA
330
48FE
330
48FF
330
4900
330
4895
330
4896
330
4897
330
4898
330
489C
330
489D
330
489E
330
489F
100
AcDbFieldList
  0
DICTIONARY
  5
4457
102
{ACAD_REACTORS
330
4456
102
}
330
4456
100
AcDbDictionary
281
     1
  0
DICTIONARY
  5
44AB
102
{ACAD_REACTORS
330
4456
102
}
330
4456
100
AcDbDictionary
281
     1
  3
Model
350
44BC
  3
レイアウト1
350
44B8
  0
DICTIONARY
  5
445A
102
{ACAD_REACTORS
330
4456
102
}
330
4456
100
AcDbDictionary
281
     1
  3
ByBlock
350
4463
  3
ByLayer
350
445B
  3
Global
350
446B
  0
DICTIONARY
  5
44AF
102
{ACAD_REACTORS
330
4456
102
}
330
4456
100
AcDbDictionary
281
     1
  3
Standard
350
44B0
  0
DICTIONARY
  5
44A8
102
{ACAD_REACTORS
330
4456
102
}
330
4456
100
AcDbDictionary
281
     1
  3
Standard
350
44A9
  0
DICTIONARY
  5
44AA
102
{ACAD_REACTORS
330
4456
102
}
330
4456
100
AcDbDictionary
281
     1
  0
ACDBDICTIONARYWDFLT
  5
4458
102
{ACAD_REACTORS
330
4456
102
}
330
4456
100
AcDbDictionary
281
     1
  3
Normal
350
4459
100
AcDbDictionaryWithDefault
340
4459
  0
DICTIONARY
  5
448C
102
{ACAD_REACTORS
330
4456
102
}
330
4456
100
AcDbDictionary
281
     1
  3
A0
350
448D
  3
A1
350
448E
  3
A2
350
448F
  3
A3
350
4490
  3
A4
350
4491
  3
A5
350
4492
  3
A6
350
4493
  3
A7
350
4494
  3
A8
350
4495
  3
A9
350
4496
  3
B0
350
4497
  3
B1
350
4498
  3
B2
350
4499
  3
B3
350
449A
  3
B4
350
449B
  3
B5
350
449C
  3
B6
350
449D
  0
DICTIONARY
  5
44B1
102
{ACAD_REACTORS
330
4456
102
}
330
4456
100
AcDbDictionary
281
     1
  3
Imperial24
350
44B2
  3
Metric50
350
4901
  0
DICTIONARY
  5
44AD
102
{ACAD_REACTORS
330
4456
102
}
330
4456
100
AcDbDictionary
281
     1
  3
Standard
350
44AE
  0
DICTIONARY
  5
4473
102
{ACAD_REACTORS
330
4456
102
}
330
4456
100
AcDbDictionary
281
     1
  3
2dWireframe
350
4479
  3
Basic
350
4478
  3
Brighten
350
447F
  3
ColorChange
350
4483
  3
Conceptual
350
447C
  3
Dim
350
447E
  3
EdgeColorOff
350
448B
  3
Facepattern
350
4482
  3
Flat
350
4474
  3
FlatWithEdges
350
4475
  3
Gouraud
350
4476
  3
GouraudWithEdges
350
4477
  3
Hidden
350
447B
  3
JitterOff
350
4489
  3
Linepattern
350
4481
  3
OverhangOff
350
448A
  3
Realistic
350
447D
  3
Shaded
350
4488
  3
Shaded with edges
350
4487
  3
Shades of Gray
350
4484
  3
Sketchy
350
4485
  3
Thicken
350
4480
  3
Wireframe
350
447A
  3
X-Ray
350
4486
  0
XRECORD
  5
49E1
102
{ACAD_REACTORS
330
4456
102
}
330
4456
100
AcDbXrecord
280
     1
 90
        1
330
44AE
  0
DICTIONARY
  5
476D
102
{ACAD_REACTORS
330
4456
102
}
330
4456
100
AcDbDictionary
281
     1
  3
CANNOSCALE
350
4773
  3
CMLEADERSTYLE
350
476F
  3
CTABLESTYLE
350
476E
  3
CVIEWDETAILSTYLE
350
4770
  3
CVIEWSECTIONSTYLE
350
4771
  3
LAYEREVAL
350
4775
  3
LAYERNOTIFY
350
4776
  3
LIGHTINGUNITS
350
4774
  3
MSLTSCALE
350
4772
  3
XCLIPFRAME
350
49DF
  0
DICTIONARY
  5
4555
102
{ACAD_REACTORS
330
4456
102
}
330
4456
100
AcDbDictionary
281
     1
  3
AcmStdDictionary
350
455C
  0
DICTIONARY
  5
4530
102
{ACAD_REACTORS
330
4456
102
}
330
4456
100
AcDbDictionary
281
     1
  0
DICTIONARY
  5
4643
102
{ACAD_REACTORS
330
4456
102
}
330
4456
100
AcDbDictionary
281
     1
  0
DICTIONARY
  5
48F4
102
{ACAD_REACTORS
330
48F3
102
}
330
48F3
100
AcDbDictionary
281
     1
  0
XRECORD
  5
476A
102
{ACAD_REACTORS
330
4769
102
}
330
4769
100
AcDbXrecord
280
     1
290
     1
  0
XRECORD
  5
476C
102
{ACAD_REACTORS
330
476B
102
}
330
476B
100
AcDbXrecord
280
     1
290
     1
  0
SORTENTSTABLE
  5
4682
102
{ACAD_REACTORS
330
4681
102
}
330
4681
100
AcDbSortentsTable
330
44B9
331
86F
  5
902
331
87D
  5
11A3
331
8FF
  5
11A4
331
901
  5
11A5
331
902
  5
11A6
331
11A3
  5
1371
331
11A4
  5
1372
331
11A5
  5
1373
331
11A6
  5
1374
331
1371
  5
1375
331
1372
  5
1376
331
1373
  5
1377
331
1374
  5
1378
331
1375
  5
1379
331
1376
  5
137A
331
1377
  5
137B
331
1378
  5
137C
331
1379
  5
137D
331
137A
  5
137E
331
137B
  5
137F
331
137C
  5
1380
331
137D
  5
1382
331
137E
  5
1383
331
137F
  5
1384
331
1380
  5
1387
331
1382
  5
1388
331
1383
  5
1389
331
1384
  5
138A
331
1387
  5
138B
331
1388
  5
138C
331
1389
  5
138D
331
138A
  5
138E
331
138B
  5
1390
331
138C
  5
1391
331
138D
  5
1393
331
138E
  5
1394
331
1390
  5
1395
331
1391
  5
1398
331
1393
  5
1399
331
1394
  5
139D
331
1395
  5
139E
331
1398
  5
139F
331
1399
  5
13A2
331
139D
  5
13A3
331
139E
  5
13A4
331
139F
  5
13A5
331
13A2
  5
13A6
331
13A3
  5
13A7
331
13A4
  5
13A8
331
13A5
  5
13A9
331
13A6
  5
13AA
331
13A7
  5
13AD
331
13A8
  5
13B2
331
13A9
  5
13B3
331
13AA
  5
13B4
331
13AD
  5
13B5
331
13B2
  5
13B6
331
13B3
  5
13B7
331
13B4
  5
13B8
331
13B5
  5
13B9
331
13B6
  5
13BA
331
13B7
  5
13BB
331
13B8
  5
13BC
331
13B9
  5
13BE
331
13BA
  5
13BF
331
13BB
  5
1552
331
13BC
  5
1553
331
13BE
  5
1555
331
13BF
  5
1571
331
1552
  5
1572
331
1553
  5
1573
331
1555
  5
15E8
331
1571
  5
161B
331
1572
  5
16B2
331
1573
  5
1819
331
15E8
  5
1877
331
161B
  5
1878
331
16B2
  5
187B
331
1819
  5
187C
331
1877
  5
187D
331
1878
  5
1884
331
187B
  5
1886
331
187C
  5
1894
331
187D
  5
1899
331
1884
  5
189A
331
1886
  5
189B
331
1894
  5
18A0
331
1899
  5
18A1
331
189A
  5
18A7
331
189B
  5
18A8
331
18A0
  5
18A9
331
18A1
  5
18AA
331
18A7
  5
18AC
331
18A8
  5
18B9
331
18A9
  5
18BF
331
18AA
  5
1C8A
331
18AC
  5
1E9E
331
18B9
  5
1F19
331
18BF
  5
1F1A
331
1C8A
  5
1F1B
331
1E9E
  5
1F1C
331
1F19
  5
219A
331
1F1A
  5
219B
331
1F1B
  5
219C
331
1F1C
  5
219D
331
219A
  5
219E
331
219B
  5
219F
331
219C
  5
21A0
331
219D
  5
21A1
331
219E
  5
21A2
331
219F
  5
21A3
331
21A0
  5
21A4
331
21A1
  5
21A5
331
21A2
  5
21A6
331
21A3
  5
21A7
331
21A4
  5
21A8
331
21A5
  5
21A9
331
21A6
  5
21AA
331
21A7
  5
21AB
331
21A8
  5
21AC
331
21A9
  5
21AD
331
21AA
  5
21AE
331
21AB
  5
21AF
331
21AC
  5
21B0
331
21AD
  5
21B1
331
21AE
  5
21B2
331
21AF
  5
21B3
331
21B0
  5
21B4
331
21B1
  5
21B5
331
21B2
  5
21B6
331
21B3
  5
21B7
331
21B4
  5
21B8
331
21B5
  5
21B9
331
21B6
  5
21BA
331
21B7
  5
21BB
331
21B8
  5
21BC
331
21B9
  5
21BD
331
21BA
  5
21BE
331
21BB
  5
21BF
331
21BC
  5
21C0
331
21BD
  5
21C1
331
21BE
  5
21C2
331
21BF
  5
21C3
331
21C0
  5
21C4
331
21C1
  5
21C5
331
21C2
  5
21C6
331
21C3
  5
21C7
331
21C4
  5
21C8
331
21C5
  5
21C9
331
21C6
  5
21CA
331
21C7
  5
21CB
331
21C8
  5
21CC
331
21C9
  5
21CD
331
21CA
  5
21CE
331
21CB
  5
21CF
331
21CC
  5
21D0
331
21CD
  5
21D1
331
21CE
  5
21D2
331
21CF
  5
21D3
331
21D0
  5
21D4
331
21D1
  5
21D5
331
21D2
  5
21D6
331
21D3
  5
21D7
331
21D4
  5
21D8
331
21D5
  5
21D9
331
21D6
  5
21DA
331
21D7
  5
21DB
331
21D8
  5
21DC
331
21D9
  5
21DD
331
21DA
  5
21DE
331
21DB
  5
21DF
331
21DC
  5
21E0
331
21DD
  5
21E1
331
21DE
  5
21E2
331
21DF
  5
21E3
331
21E0
  5
21E4
331
21E1
  5
21E5
331
21E2
  5
21E6
331
21E3
  5
21E7
331
21E4
  5
21E8
331
21E5
  5
21E9
331
21E6
  5
21EA
331
21E7
  5
21EB
331
21E8
  5
21EC
331
21E9
  5
21ED
331
21EA
  5
21EE
331
21EB
  5
21EF
331
21EC
  5
21F0
331
21ED
  5
21F1
331
21EE
  5
21F2
331
21EF
  5
21F3
331
21F0
  5
21F4
331
21F1
  5
21F5
331
21F2
  5
21F6
331
21F3
  5
21F7
331
21F4
  5
21F8
331
21F5
  5
21F9
331
21F6
  5
21FA
331
21F7
  5
21FB
331
21F8
  5
21FC
331
21F9
  5
21FD
331
21FA
  5
21FE
331
21FB
  5
21FF
331
21FC
  5
2200
331
21FD
  5
2201
331
21FE
  5
2202
331
21FF
  5
2203
331
2200
  5
2204
331
2201
  5
2205
331
2202
  5
2206
331
2203
  5
2207
331
2204
  5
2208
331
2205
  5
2209
331
2206
  5
220A
331
2207
  5
220B
331
2208
  5
220C
331
2209
  5
220D
331
220A
  5
220E
331
220B
  5
220F
331
220C
  5
2210
331
220D
  5
2211
331
220E
  5
2212
331
220F
  5
2213
331
2210
  5
2214
331
2211
  5
2215
331
2212
  5
2216
331
2213
  5
2217
331
2214
  5
2218
331
2215
  5
2219
331
2216
  5
221A
331
2217
  5
221B
331
2218
  5
221C
331
2219
  5
221D
331
221A
  5
221E
331
221B
  5
221F
331
221C
  5
2220
331
221D
  5
2221
331
221E
  5
2222
331
221F
  5
2223
331
2220
  5
2224
331
2221
  5
2225
331
2222
  5
2226
331
2223
  5
2227
331
2224
  5
2228
331
2225
  5
2229
331
2226
  5
222A
331
2227
  5
222B
331
2228
  5
222C
331
2229
  5
222D
331
222A
  5
222E
331
222B
  5
222F
331
222C
  5
2230
331
222D
  5
2231
331
222E
  5
2232
331
222F
  5
2233
331
2230
  5
2234
331
2231
  5
2235
331
2232
  5
2236
331
2233
  5
2237
331
2234
  5
2238
331
2235
  5
2239
331
2236
  5
223A
331
2237
  5
223B
331
2238
  5
223C
331
2239
  5
223D
331
223A
  5
223E
331
223B
  5
223F
331
223C
  5
2240
331
223D
  5
2241
331
223E
  5
2242
331
223F
  5
2243
331
2240
  5
2244
331
2241
  5
2245
331
2242
  5
2246
331
2243
  5
2247
331
2244
  5
2248
331
2245
  5
2249
331
2246
  5
224A
331
2247
  5
224B
331
2248
  5
224C
331
2249
  5
224D
331
224A
  5
224E
331
224B
  5
224F
331
224C
  5
2250
331
224D
  5
2251
331
224E
  5
2252
331
224F
  5
2253
331
2250
  5
2254
331
2251
  5
2255
331
2252
  5
2256
331
2253
  5
2257
331
2254
  5
2258
331
2255
  5
2259
331
2256
  5
225A
331
2257
  5
225B
331
2258
  5
225C
331
2259
  5
225D
331
225A
  5
225E
331
225B
  5
225F
331
225C
  5
2260
331
225D
  5
2261
331
225E
  5
2262
331
225F
  5
2263
331
2260
  5
2264
331
2261
  5
2265
331
2262
  5
2266
331
2263
  5
2267
331
2264
  5
2268
331
2265
  5
2269
331
2266
  5
226A
331
2267
  5
226B
331
2268
  5
226C
331
2269
  5
226D
331
226A
  5
226E
331
226B
  5
226F
331
226C
  5
2270
331
226D
  5
2271
331
226E
  5
2272
331
226F
  5
2273
331
2270
  5
2274
331
2271
  5
2275
331
2272
  5
2276
331
2273
  5
2277
331
2274
  5
2278
331
2275
  5
2279
331
2276
  5
227A
331
2277
  5
227B
331
2278
  5
227C
331
2279
  5
227D
331
227A
  5
227E
331
227B
  5
227F
331
227C
  5
2280
331
227D
  5
2281
331
227E
  5
2282
331
227F
  5
2283
331
2280
  5
2284
331
2281
  5
2285
331
2282
  5
2286
331
2283
  5
2287
331
2284
  5
2288
331
2285
  5
2289
331
2286
  5
228A
331
2287
  5
228B
331
2288
  5
228C
331
2289
  5
228D
331
228A
  5
228E
331
228B
  5
228F
331
228C
  5
2290
331
228D
  5
2291
331
228E
  5
2292
331
228F
  5
2293
331
2290
  5
2294
331
2291
  5
2295
331
2292
  5
2296
331
2293
  5
2297
331
2294
  5
2298
331
2295
  5
2299
331
2296
  5
229A
331
2297
  5
229B
331
2298
  5
229C
331
2299
  5
229D
331
229A
  5
229E
331
229B
  5
229F
331
229C
  5
22A0
331
229D
  5
22A1
331
229E
  5
22A2
331
229F
  5
22A3
331
22A0
  5
22A4
331
22A1
  5
22A5
331
22A2
  5
22A6
331
22A3
  5
22A7
331
22A4
  5
22A8
331
22A5
  5
22A9
331
22A6
  5
22AA
331
22A7
  5
22AB
331
22A8
  5
22AC
331
22A9
  5
22AD
331
22AA
  5
22AE
331
22AB
  5
22AF
331
22AC
  5
22B0
331
22AD
  5
22B1
331
22AE
  5
22B2
331
22AF
  5
22B3
331
22B0
  5
22B4
331
22B1
  5
22B5
331
22B2
  5
22B6
331
22B3
  5
22B7
331
22B4
  5
22B8
331
22B5
  5
22B9
331
22B6
  5
22BA
331
22B7
  5
22BB
331
22B8
  5
22BC
331
22B9
  5
22BD
331
22BA
  5
22BE
331
22BB
  5
22BF
331
22BC
  5
22C0
331
22BD
  5
22C1
331
22BE
  5
22C2
331
22BF
  5
22C3
331
22C0
  5
22C4
331
22C1
  5
22C5
331
22C2
  5
22C6
331
22C3
  5
22C7
331
22C4
  5
22C8
331
22C5
  5
22C9
331
22C6
  5
22CA
331
22C7
  5
22CB
331
22C8
  5
22CC
331
22C9
  5
22CD
331
22CA
  5
22CE
331
22CB
  5
22CF
331
22CC
  5
22D0
331
22CD
  5
22D1
331
22CE
  5
22D2
331
22CF
  5
22D3
331
22D0
  5
22D4
331
22D1
  5
22D5
331
22D2
  5
22D6
331
22D3
  5
22D7
331
22D4
  5
22D8
331
22D5
  5
22D9
331
22D6
  5
22DA
331
22D7
  5
22DB
331
22D8
  5
22DC
331
22D9
  5
22DD
331
22DA
  5
22DE
331
22DB
  5
22DF
331
22DC
  5
22E0
331
22DD
  5
22E1
331
22DE
  5
22E2
331
22DF
  5
22E3
331
22E0
  5
22E4
331
22E1
  5
22E5
331
22E2
  5
22E6
331
22E3
  5
22E7
331
22E4
  5
22E8
331
22E5
  5
22E9
331
22E6
  5
2FE5
331
22E7
  5
2FE6
331
22E8
  5
2FE7
331
22E9
  5
2FE8
331
2FE5
  5
32D3
331
2FE6
  5
32D4
331
2FE7
  5
32D5
331
2FE8
  5
32D6
331
32D3
  5
32D7
331
32D4
  5
32D8
331
32D5
  5
32D9
331
32D6
  5
32DA
331
32D7
  5
32DB
331
32D8
  5
32DC
331
32D9
  5
32DD
331
32DA
  5
32DE
331
32DB
  5
32DF
331
32DC
  5
32E0
331
32DD
  5
32E1
331
32DE
  5
32E2
331
32DF
  5
32E3
331
32E1
  5
32E5
331
32E2
  5
32E6
331
32E3
  5
32E7
331
32E4
  5
32E8
331
32E5
  5
32E9
331
32E6
  5
32EA
331
32E7
  5
32EB
331
32E8
  5
32EC
331
32E9
  5
32ED
331
32EA
  5
32EE
331
32EB
  5
32EF
331
32EC
  5
32F0
331
32ED
  5
32F1
331
32EE
  5
32F2
331
32EF
  5
32F3
331
32F0
  5
32F4
331
32F1
  5
32F5
331
32F2
  5
32F6
331
32F3
  5
32F7
331
32F5
  5
32F9
331
32F6
  5
32FA
331
32F7
  5
32FB
331
32F8
  5
32FC
331
32F9
  5
32FD
331
32FA
  5
32FE
331
32FB
  5
32FF
331
32FC
  5
3300
331
32FD
  5
3301
331
32FE
  5
3302
331
32FF
  5
3303
331
3300
  5
3304
331
3301
  5
3305
331
3302
  5
3306
331
3303
  5
3307
331
3304
  5
3308
331
3305
  5
3309
331
3306
  5
330A
331
3307
  5
330B
331
3309
  5
330D
331
330A
  5
330E
331
330B
  5
330F
331
330C
  5
3310
331
330D
  5
3311
331
330E
  5
3312
331
330F
  5
3313
331
3310
  5
3314
331
3311
  5
3315
331
3312
  5
3316
331
3313
  5
3317
331
3314
  5
3318
331
3315
  5
3319
331
3316
  5
331A
331
3317
  5
331B
331
3318
  5
331C
331
3319
  5
331D
331
331A
  5
331E
331
331B
  5
331F
331
331D
  5
3321
331
331E
  5
3322
331
331F
  5
3323
331
3320
  5
3807
331
3321
  5
3808
331
3322
  5
3B85
331
3323
  5
3BAB
331
3807
  5
3BAC
331
3808
  5
3BAD
331
3B85
  5
3BAE
331
3BAB
  5
3BB0
331
3BAC
  5
3BB3
331
3BAD
  5
3BB4
331
3BAE
  5
3BB5
331
3BB0
  5
3BB6
331
3BB3
  5
3BB8
331
3BB4
  5
3BBB
331
3BB5
  5
3BBC
331
3BB6
  5
3BBD
331
3BB8
  5
3BC1
331
3BBB
  5
3BC2
331
3BBC
  5
3BC3
331
3BBD
  5
3BC7
331
3BC1
  5
3BC9
331
3BC2
  5
3BCD
331
3BC7
  5
3BCE
331
3BC8
  5
3BCF
331
3BC9
  5
3BD3
331
3BCD
  5
3BD4
331
3BCE
  5
3BD5
331
3BCF
  5
3BD9
331
3BD3
  5
3BDA
331
3BD4
  5
3BDB
331
3BD5
  5
3BDF
331
3BD9
  5
3BE0
331
3BDA
  5
3BE1
331
3BDB
  5
3BE2
331
3BDF
  5
3BE3
331
3BE0
  5
3BE7
331
3BE1
  5
3BE8
331
3BE2
  5
3BE9
331
3BE3
  5
3BEA
331
3BE7
  5
3BEB
331
3BE8
  5
3BEF
331
3BE9
  5
3BF0
331
3BEA
  5
3BF1
331
3BEB
  5
3BF5
331
3BEF
  5
3BF6
331
3BF0
  5
3BF7
331
3BF1
  5
3BFB
331
3BF5
  5
3BFC
331
3BF6
  5
3BFD
331
3BF7
  5
3BFE
331
3BFB
  5
3C00
331
3BFC
  5
3C02
331
3BFD
  5
3C04
331
3BFE
  5
3C08
331
3C00
  5
3C0A
331
3C02
  5
3CD9
331
3C04
  5
3CE5
331
3C08
  5
3CE6
331
3C0A
  5
3CF1
331
3CD9
  5
3CF2
331
3CE5
  5
3CF3
331
3CE6
  5
3CF4
331
3CF1
  5
3CF5
331
3CF2
  5
3CF6
331
3CF3
  5
3CF7
331
3CF4
  5
3CF8
331
3CF5
  5
3CF9
331
3CF6
  5
3CFA
331
3CF7
  5
3CFB
331
3CF8
  5
3CFC
331
3CF9
  5
3CFD
331
3CFA
  5
3CFE
331
3CFB
  5
3CFF
331
3CFC
  5
3D00
331
3CFD
  5
3D01
331
3CFE
  5
3D02
331
3CFF
  5
3D03
331
3D00
  5
3D04
331
3D01
  5
3D05
331
3D02
  5
3D06
331
3D03
  5
3D07
331
3D04
  5
3D08
331
3D05
  5
3D09
331
3D06
  5
3D0A
331
3D07
  5
3D0B
331
3D08
  5
3D0C
331
3D09
  5
3D0D
331
3D0A
  5
3D0E
331
3D0B
  5
3D0F
331
3D0C
  5
3D10
331
3D0D
  5
3D11
331
3D0E
  5
3D12
331
3D0F
  5
3D13
331
3D10
  5
3D1B
331
3D11
  5
3D1C
331
3D19
  5
3D1D
331
3D1A
  5
3D1E
331
3D1B
  5
3D1F
331
3D1C
  5
3D20
331
3D1D
  5
3D21
331
3D1E
  5
3D22
331
3D1F
  5
3D23
331
3D20
  5
3D24
331
3D21
  5
3D25
331
3D22
  5
3D26
331
3D23
  5
3D27
331
3D24
  5
3D28
331
3D25
  5
3D29
331
3D26
  5
3D2A
331
3D27
  5
3D2B
331
3D28
  5
3D2C
331
3D29
  5
3D2D
331
3D2A
  5
3D2E
331
3D2B
  5
3D2F
331
3D2C
  5
3D30
331
3D2D
  5
3D31
331
3D2E
  5
3D32
331
3D2F
  5
3D33
331
3D30
  5
3D34
331
3D31
  5
3D35
331
3D32
  5
3D36
331
3D33
  5
3D37
331
3D34
  5
3D38
331
3D35
  5
3D39
331
3D36
  5
3D3A
331
3D37
  5
3D3B
331
3D38
  5
3D3C
331
3D39
  5
3D3D
331
3D3A
  5
3D3E
331
3D3B
  5
3D3F
331
3D3C
  5
3D40
331
3D3D
  5
3D41
331
3D3E
  5
3D42
331
3D3F
  5
3D43
331
3D40
  5
3D44
331
3D41
  5
3D45
331
3D42
  5
3D46
331
3D43
  5
3D47
331
3D44
  5
3D48
331
3D45
  5
3D49
331
3D46
  5
3D4A
331
3D47
  5
3D4B
331
3D48
  5
3D4C
331
3D49
  5
3D4D
331
3D4A
  5
3D4E
331
3D4B
  5
3D4F
331
3D4C
  5
3D50
331
3D4D
  5
3D51
331
3D4E
  5
3D52
331
3D4F
  5
3D53
331
3D50
  5
3D54
331
3D51
  5
3D55
331
3D52
  5
3D56
331
3D53
  5
3D57
331
3D54
  5
3D58
331
3D55
  5
3D59
331
3D56
  5
3D5A
331
3D57
  5
3D5B
331
3D58
  5
3D5C
331
3D59
  5
3E07
331
3D5A
  5
3E08
331
3D5B
  5
3E0B
331
3D5C
  5
4169
331
3E07
  5
43B8
331
3E08
  5
43BC
331
3E0B
  5
43BD
331
4169
  5
43EF
331
43F4
  5
4680
331
43F5
  5
4683
331
43F6
  5
46F4
331
43F7
  5
46F5
331
49DB
  5
49DE
331
49DC
  5
49DB
331
49DD
  5
49DC
331
49DE
  5
49DD
  0
ACDBDETAILVIEWSTYLE
  5
44B4
102
{ACAD_XDICTIONARY
360
4A14
102
}
102
{ACAD_REACTORS
330
44B3
330
4891
102
}
330
44B3
100
AcDbModelDocViewStyle
 70
     0
  3
Imperial24
290
     0
100
AcDbDetailViewStyle
 70
     0
 71
     0
 90
        3
 71
     1
340
449F
 62
   256
 40
0.24
340
0
 62
   256
 40
0.24
300

 40
0.36
280
     3
 71
     2
340
44A6
 90
       25
 62
   256
 71
     3
340
449F
 62
   256
 40
0.24
 90
        1
 40
0.75
 90
        1
300
%<\AcVar ViewType \f "%tc1">% %<\AcVar ViewDetailId>%\PSCALE %<\AcVar ViewScale \f "%sn">%
 71
     4
340
44A6
 90
       25
 62
   256
340
44A6
 90
       25
 62
   256
280
     0
  0
ACDBDETAILVIEWSTYLE
  5
4904
102
{ACAD_XDICTIONARY
360
4A18
102
}
102
{ACAD_REACTORS
330
4944
330
44B3
330
4960
102
}
330
44B3
100
AcDbModelDocViewStyle
 70
     0
  3
Metric50
290
     0
100
AcDbDetailViewStyle
 70
     0
 71
     0
 90
        3
 71
     1
340
449F
 62
   256
 40
5.0
340
0
 62
   256
 40
5.0
300

 40
0.0
280
     1
 71
     2
340
44A6
 90
       25
 62
   256
 71
     3
340
449F
 62
   256
 40
5.0
 90
        0
 40
15.0
 90
        1
300
%<\AcVar ViewDetailId>% (%<\AcVar ViewScale \f "%sn">%)
 71
     4
340
44A6
 90
       25
 62
   256
340
44A6
 90
       25
 62
   256
280
     0
  0
LAYOUT
  5
44BC
102
{ACAD_REACTORS
330
44AB
102
}
330
44AB
100
AcDbPlotSettings
  1

  2
産機2F_DocuPrint 4050
  4

  6

 40
0.0
 41
0.0
 42
0.0
 43
0.0
 44
0.0
 45
0.0
 46
0.0
 47
0.0
 48
0.0
 49
0.0
140
0.0
141
0.0
142
1.0
143
1.0
 70
  1712
 72
     0
 73
     0
 74
     0
  7

 75
     0
147
1.0
 76
     0
 77
     2
 78
   300
148
0.0
149
0.0
100
AcDbLayout
  1
Model
 70
     1
 71
     0
 10
0.0
 20
0.0
 11
12.0
 21
9.0
 12
0.0
 22
0.0
 32
0.0
 14
0.0
 24
0.0
 34
0.0
 15
0.0
 25
0.0
 35
0.0
146
0.0
 13
0.0
 23
0.0
 33
0.0
 16
1.0
 26
0.0
 36
0.0
 17
0.0
 27
1.0
 37
0.0
 76
     0
330
44B9
331
44BD
  0
LAYOUT
  5
44B8
102
{ACAD_REACTORS
330
44AB
102
}
330
44AB
100
AcDbPlotSettings
  1

  2
産機2F_DocuPrint 4050
  4

  6

 40
0.0
 41
0.0
 42
0.0
 43
0.0
 44
0.0
 45
0.0
 46
0.0
 47
0.0
 48
0.0
 49
0.0
140
0.0
141
0.0
142
1.0
143
1.0
 70
   688
 72
     0
 73
     0
 74
     5
  7

 75
    16
147
1.0
 76
     0
 77
     2
 78
   300
148
0.0
149
0.0
100
AcDbLayout
  1
レイアウト1
 70
     0
 71
     1
 10
0.0
 20
0.0
 11
12.0
 21
9.0
 12
0.0
 22
0.0
 32
0.0
 14
1.000000000000000E+20
 24
1.000000000000000E+20
 34
1.000000000000000E+20
 15
-1.000000000000000E+20
 25
-1.000000000000000E+20
 35
-1.000000000000000E+20
146
0.0
 13
0.0
 23
0.0
 33
0.0
 16
1.0
 26
0.0
 36
0.0
 17
0.0
 27
1.0
 37
0.0
 76
     0
330
44B5
  0
MATERIAL
  5
4463
102
{ACAD_XDICTIONARY
360
4464
102
}
102
{ACAD_REACTORS
330
445A
102
}
330
445A
100
AcDbMaterial
  1
ByBlock
 72
     0
 43
0.0208333333333333
 43
0.0
 43
0.0
 43
0.0
 43
0.0
 43
0.0208333333333333
 43
0.0
 43
0.0
 43
0.0
 43
0.0
 43
1.0
 43
0.0
 43
0.0
 43
0.0
 43
0.0
 43
1.0
 77
     0
 47
0.0208333333333333
 47
0.0
 47
0.0
 47
0.0
 47
0.0
 47
0.0208333333333333
 47
0.0
 47
0.0
 47
0.0
 47
0.0
 47
1.0
 47
0.0
 47
0.0
 47
0.0
 47
0.0
 47
1.0
171
     0
 49
0.0208333333333333
 49
0.0
 49
0.0
 49
0.0
 49
0.0
 49
0.0208333333333333
 49
0.0
 49
0.0
 49
0.0
 49
0.0
 49
1.0
 49
0.0
 49
0.0
 49
0.0
 49
0.0
 49
1.0
175
     0
142
0.0208333333333333
142
0.0
142
0.0
142
0.0
142
0.0
142
0.0208333333333333
142
0.0
142
0.0
142
0.0
142
0.0
142
1.0
142
0.0
142
0.0
142
0.0
142
0.0
142
1.0
179
     0
144
0.0208333333333333
144
0.0
144
0.0
144
0.0
144
0.0
144
0.0208333333333333
144
0.0
144
0.0
144
0.0
144
0.0
144
1.0
144
0.0
144
0.0
144
0.0
144
0.0
144
1.0
147
0.0208333333333333
147
0.0
147
0.0
147
0.0
147
0.0
147
0.0208333333333333
147
0.0
147
0.0
147
0.0
147
0.0
147
1.0
147
0.0
147
0.0
147
0.0
147
0.0
147
1.0
  0
MATERIAL
  5
445B
102
{ACAD_XDICTIONARY
360
445C
102
}
102
{ACAD_REACTORS
330
445A
102
}
330
445A
100
AcDbMaterial
  1
ByLayer
 72
     0
 43
0.0208333333333333
 43
0.0
 43
0.0
 43
0.0
 43
0.0
 43
0.0208333333333333
 43
0.0
 43
0.0
 43
0.0
 43
0.0
 43
1.0
 43
0.0
 43
0.0
 43
0.0
 43
0.0
 43
1.0
 77
     0
 47
0.0208333333333333
 47
0.0
 47
0.0
 47
0.0
 47
0.0
 47
0.0208333333333333
 47
0.0
 47
0.0
 47
0.0
 47
0.0
 47
1.0
 47
0.0
 47
0.0
 47
0.0
 47
0.0
 47
1.0
171
     0
 49
0.0208333333333333
 49
0.0
 49
0.0
 49
0.0
 49
0.0
 49
0.0208333333333333
 49
0.0
 49
0.0
 49
0.0
 49
0.0
 49
1.0
 49
0.0
 49
0.0
 49
0.0
 49
0.0
 49
1.0
175
     0
142
0.0208333333333333
142
0.0
142
0.0
142
0.0
142
0.0
142
0.0208333333333333
142
0.0
142
0.0
142
0.0
142
0.0
142
1.0
142
0.0
142
0.0
142
0.0
142
0.0
142
1.0
179
     0
144
0.0208333333333333
144
0.0
144
0.0
144
0.0
144
0.0
144
0.0208333333333333
144
0.0
144
0.0
144
0.0
144
0.0
144
1.0
144
0.0
144
0.0
144
0.0
144
0.0
144
1.0
147
0.0208333333333333
147
0.0
147
0.0
147
0.0
147
0.0
147
0.0208333333333333
147
0.0
147
0.0
147
0.0
147
0.0
147
1.0
147
0.0
147
0.0
147
0.0
147
0.0
147
1.0
  0
MATERIAL
  5
446B
102
{ACAD_XDICTIONARY
360
446C
102
}
102
{ACAD_REACTORS
330
445A
102
}
330
445A
100
AcDbMaterial
  1
Global
 72
     0
 43
0.0208333333333333
 43
0.0
 43
0.0
 43
0.0
 43
0.0
 43
0.0208333333333333
 43
0.0
 43
0.0
 43
0.0
 43
0.0
 43
1.0
 43
0.0
 43
0.0
 43
0.0
 43
0.0
 43
1.0
 77
     0
 47
0.0208333333333333
 47
0.0
 47
0.0
 47
0.0
 47
0.0
 47
0.0208333333333333
 47
0.0
 47
0.0
 47
0.0
 47
0.0
 47
1.0
 47
0.0
 47
0.0
 47
0.0
 47
0.0
 47
1.0
171
     0
 49
0.0208333333333333
 49
0.0
 49
0.0
 49
0.0
 49
0.0
 49
0.0208333333333333
 49
0.0
 49
0.0
 49
0.0
 49
0.0
 49
1.0
 49
0.0
 49
0.0
 49
0.0
 49
0.0
 49
1.0
175
     0
142
0.0208333333333333
142
0.0
142
0.0
142
0.0
142
0.0
142
0.0208333333333333
142
0.0
142
0.0
142
0.0
142
0.0
142
1.0
142
0.0
142
0.0
142
0.0
142
0.0
142
1.0
179
     0
144
0.0208333333333333
144
0.0
144
0.0
144
0.0
144
0.0
144
0.0208333333333333
144
0.0
144
0.0
144
0.0
144
0.0
144
1.0
144
0.0
144
0.0
144
0.0
144
0.0
144
1.0
147
0.0208333333333333
147
0.0
147
0.0
147
0.0
147
0.0
147
0.0208333333333333
147
0.0
147
0.0
147
0.0
147
0.0
147
1.0
147
0.0
147
0.0
147
0.0
147
0.0
147
1.0
  0
MLEADERSTYLE
  5
44B0
102
{ACAD_REACTORS
330
44AF
102
}
330
44AF
100
AcDbMLeaderStyle
170
     2
171
     1
172
     0
 90
        2
 40
0.0
 41
0.0
173
     1
 91
-1056964608
340
44A4
 92
       -2
290
     1
 42
0.09
291
     1
 43
0.36
  3
Standard
 44
0.18
300

342
449F
174
     1
178
     6
175
     1
176
     0
 93
-1056964608
 45
0.18
292
     0
297
     0
 46
0.18
 94
-1056964608
 47
1.0
 49
1.0
140
1.0
293
     1
141
0.0
294
     1
177
     0
142
1.0
295
     0
296
     0
143
0.125
1001
ACAD_MLEADERVER
1070
     2
  0
MLINESTYLE
  5
44A9
102
{ACAD_REACTORS
330
44A8
102
}
330
44A8
100
AcDbMlineStyle
  2
STANDARD
 70
     0
  3

 62
   256
 51
90.0
 52
90.0
 71
     2
 49
0.5
 62
   256
  6
BYLAYER
 49
-0.5
 62
   256
  6
BYLAYER
  0
ACDBPLACEHOLDER
  5
4459
102
{ACAD_REACTORS
330
4458
102
}
330
4458
  0
SCALE
  5
448D
102
{ACAD_REACTORS
330
448C
102
}
330
448C
100
AcDbScale
 70
     0
300
1:1
140
1.0
141
1.0
290
     1
  0
SCALE
  5
448E
102
{ACAD_REACTORS
330
448C
102
}
330
448C
100
AcDbScale
 70
     0
300
1/128" = 1'-0"
140
0.0078125
141
12.0
290
     0
  0
SCALE
  5
448F
102
{ACAD_REACTORS
330
448C
102
}
330
448C
100
AcDbScale
 70
     0
300
1/64" = 1'-0"
140
0.015625
141
12.0
290
     0
  0
SCALE
  5
4490
102
{ACAD_REACTORS
330
448C
102
}
330
448C
100
AcDbScale
 70
     0
300
1/32" = 1'-0"
140
0.03125
141
12.0
290
     0
  0
SCALE
  5
4491
102
{ACAD_REACTORS
330
448C
102
}
330
448C
100
AcDbScale
 70
     0
300
1/16" = 1'-0"
140
0.0625
141
12.0
290
     0
  0
SCALE
  5
4492
102
{ACAD_REACTORS
330
448C
102
}
330
448C
100
AcDbScale
 70
     0
300
3/32" = 1'-0"
140
0.09375
141
12.0
290
     0
  0
SCALE
  5
4493
102
{ACAD_REACTORS
330
448C
102
}
330
448C
100
AcDbScale
 70
     0
300
1/8" = 1'-0"
140
0.125
141
12.0
290
     0
  0
SCALE
  5
4494
102
{ACAD_REACTORS
330
448C
102
}
330
448C
100
AcDbScale
 70
     0
300
3/16" = 1'-0"
140
0.1875
141
12.0
290
     0
  0
SCALE
  5
4495
102
{ACAD_REACTORS
330
448C
102
}
330
448C
100
AcDbScale
 70
     0
300
1/4" = 1'-0"
140
0.25
141
12.0
290
     0
  0
SCALE
  5
4496
102
{ACAD_REACTORS
330
448C
102
}
330
448C
100
AcDbScale
 70
     0
300
3/8" = 1'-0"
140
0.375
141
12.0
290
     0
  0
SCALE
  5
4497
102
{ACAD_REACTORS
330
448C
102
}
330
448C
100
AcDbScale
 70
     0
300
1/2" = 1'-0"
140
0.5
141
12.0
290
     0
  0
SCALE
  5
4498
102
{ACAD_REACTORS
330
448C
102
}
330
448C
100
AcDbScale
 70
     0
300
3/4" = 1'-0"
140
0.75
141
12.0
290
     0
  0
SCALE
  5
4499
102
{ACAD_REACTORS
330
448C
102
}
330
448C
100
AcDbScale
 70
     0
300
1" = 1'-0"
140
1.0
141
12.0
290
     0
  0
SCALE
  5
449A
102
{ACAD_REACTORS
330
448C
102
}
330
448C
100
AcDbScale
 70
     0
300
1-1/2" = 1'-0"
140
1.5
141
12.0
290
     0
  0
SCALE
  5
449B
102
{ACAD_REACTORS
330
448C
102
}
330
448C
100
AcDbScale
 70
     0
300
3" = 1'-0"
140
3.0
141
12.0
290
     0
  0
SCALE
  5
449C
102
{ACAD_REACTORS
330
448C
102
}
330
448C
100
AcDbScale
 70
     0
300
6" = 1'-0"
140
6.0
141
12.0
290
     0
  0
SCALE
  5
449D
102
{ACAD_REACTORS
330
448C
102
}
330
448C
100
AcDbScale
 70
     0
300
1'-0" = 1'-0"
140
12.0
141
12.0
290
     0
  0
ACDBSECTIONVIEWSTYLE
  5
44B2
102
{ACAD_XDICTIONARY
360
4A12
102
}
102
{ACAD_REACTORS
330
44B1
330
4890
102
}
330
44B1
100
AcDbModelDocViewStyle
 70
     0
  3
Imperial24
290
     0
100
AcDbSectionViewStyle
 70
     0
 71
     0
 90
       78
 71
     1
340
449F
 62
   256
 40
0.24
340
0
340
0
 62
   256
 40
0.24
300
I, O, Q, S, X, Z
 40
0.48
 90
        3
 40
0.18
 90
        1
 71
     2
340
44A6
 90
       25
 62
   256
340
44A6
 90
       50
 62
   256
 40
0.24
 40
0.0
 40
0.24
 71
     3
340
449F
 62
   256
 40
0.24
 90
        1
 40
0.75
 90
        1
300
%<\AcVar ViewType \f "%tc1">% %<\AcVar ViewSectionStartId>%-%<\AcVar ViewSectionEndId>%\PSCALE %<\AcVar ViewScale \f "%sn">%
 71
     4
 62
   256
 62
   257
300
ANSI31
 40
1.0
 90
        0
290
     0
290
     0
 90
        6
 40
0.0
 40
1.570796326794896
 40
0.2617993877991494
 40
1.308996938995747
 40
-0.2617993877991494
 40
1.832595714594044
  0
ACDBSECTIONVIEWSTYLE
  5
4901
102
{ACAD_XDICTIONARY
360
4A16
102
}
102
{ACAD_REACTORS
330
4948
330
44B1
330
4962
102
}
330
44B1
100
AcDbModelDocViewStyle
 70
     0
  3
Metric50
290
     0
100
AcDbSectionViewStyle
 70
     0
 71
     0
 90
      102
 71
     1
340
449F
 62
   256
 40
5.0
340
0
340
0
 62
   256
 40
5.0
300
I, O, Q, S, X, Z
 40
10.0
 90
        0
 40
2.5
 90
        0
 71
     2
340
44A6
 90
       25
 62
   256
340
44A6
 90
       50
 62
   256
 40
5.0
 40
2.5
 40
5.0
 71
     3
340
449F
 62
   256
 40
5.0
 90
        0
 40
15.0
 90
        1
300
%<\AcVar ViewSectionStartId>%-%<\AcVar ViewSectionEndId>% (%<\AcVar ViewScale \f "%sn">%)
 71
     4
 62
   256
 62
   257
300
ANSI31
 40
1.0
 90
        0
290
     0
290
     0
 90
        6
 40
0.0
 40
1.570796326794896
 40
0.2617993877991494
 40
1.308996938995747
 40
-0.2617993877991494
 40
1.832595714594046
  0
TABLESTYLE
  5
44AE
102
{ACAD_XDICTIONARY
360
4778
102
}
102
{ACAD_REACTORS
330
44AD
102
}
330
44AD
100
AcDbTableStyle
  3
Standard
 70
     0
 71
     0
 40
0.06
 41
0.06
280
     0
281
     0
  7
STANDARD
140
0.18
170
     2
 62
     0
 63
     7
283
     0
 90
      512
 91
        0
  1

274
    -2
284
     1
 64
     0
275
    -2
285
     1
 65
     0
276
    -2
286
     1
 66
     0
277
    -2
287
     1
 67
     0
278
    -2
288
     1
 68
     0
279
    -2
289
     1
 69
     0
  7
STANDARD
140
0.25
170
     5
 62
     0
 63
     7
283
     0
 90
      512
 91
        0
  1

274
    -2
284
     1
 64
     0
275
    -2
285
     1
 65
     0
276
    -2
286
     1
 66
     0
277
    -2
287
     1
 67
     0
278
    -2
288
     1
 68
     0
279
    -2
289
     1
 69
     0
  7
STANDARD
140
0.18
170
     5
 62
     0
 63
     7
283
     0
 90
      512
 91
        0
  1

274
    -2
284
     1
 64
     0
275
    -2
285
     1
 65
     0
276
    -2
286
     1
 66
     0
277
    -2
287
     1
 67
     0
278
    -2
288
     1
 68
     0
279
    -2
289
     1
 69
     0
  0
VISUALSTYLE
  5
4479
102
{ACAD_XDICTIONARY
360
49EC
102
}
102
{ACAD_REACTORS
330
4473
102
}
330
4473
100
AcDbVisualStyle
  2

 70
     4
 71
     0
 72
     2
 73
     0
 90
        0
 40
-0.6
 41
-30.0
 62
     5
 63
     7
421
 16777215
 74
     1
 91
        4
 64
     7
 65
   257
 75
     1
175
     1
 42
1.0
 92
        0
 66
   257
 43
1.0
 76
     1
 77
     6
 78
     2
 67
     7
 79
     5
170
     0
171
     0
290
     0
174
     0
 93
        1
 44
0.0
173
     0
291
     0
 45
0.0
1001
ACAD
1000
AcDbSavedByObjectVersion
1070
     0
  0
VISUALSTYLE
  5
4478
102
{ACAD_XDICTIONARY
360
49EA
102
}
102
{ACAD_REACTORS
330
4473
102
}
330
4473
100
AcDbVisualStyle
  2

 70
     7
 71
     1
 72
     0
 73
     1
 90
        0
 40
-0.6
 41
-30.0
 62
     5
 63
     7
421
 16777215
 74
     0
 91
        4
 64
     7
 65
   257
 75
     1
175
     1
 42
1.0
 92
        8
 66
     7
 43
1.0
 76
     1
 77
     6
 78
     2
 67
     7
 79
     5
170
     0
171
     0
290
     0
174
     0
 93
        1
 44
0.0
173
     0
291
     1
 45
0.0
1001
ACAD
1000
AcDbSavedByObjectVersion
1070
     0
  0
VISUALSTYLE
  5
447F
102
{ACAD_XDICTIONARY
360
49F8
102
}
102
{ACAD_REACTORS
330
4473
102
}
330
4473
100
AcDbVisualStyle
  2

 70
    12
 71
     2
 72
     2
 73
     0
 90
        0
 40
-0.6
 41
-30.0
 62
     5
 63
     7
421
 16777215
 74
     1
 91
        4
 64
     7
 65
   257
 75
     1
175
     1
 42
1.0
 92
        8
 66
     7
 43
1.0
 76
     1
 77
     6
 78
     2
 67
     7
 79
     5
170
     0
171
     0
290
     0
174
     0
 93
        1
 44
50.0
173
     0
291
     1
 45
0.0
1001
ACAD
1000
AcDbSavedByObjectVersion
1070
     0
  0
VISUALSTYLE
  5
4483
102
{ACAD_XDICTIONARY
360
4A00
102
}
102
{ACAD_REACTORS
330
4473
102
}
330
4473
100
AcDbVisualStyle
  2

 70
    16
 71
     2
 72
     2
 73
     3
 90
        0
 40
-0.6
 41
-30.0
 62
     5
 63
     8
421
  8421504
 74
     1
 91
        4
 64
     7
 65
   257
 75
     1
175
     1
 42
1.0
 92
        8
 66
     8
424
  8421504
 43
1.0
 76
     1
 77
     6
 78
     2
 67
     7
 79
     5
170
     0
171
     0
290
     0
174
     0
 93
        1
 44
0.0
173
     0
291
     1
 45
0.0
1001
ACAD
1000
AcDbSavedByObjectVersion
1070
     0
  0
VISUALSTYLE
  5
447C
102
{ACAD_XDICTIONARY
360
49F2
102
}
102
{ACAD_REACTORS
330
4473
102
}
330
4473
100
AcDbVisualStyle
  2

 70
     9
 71
     3
 72
     2
 73
     0
 90
        0
 40
-0.6
 41
-30.0
 62
     5
 63
     7
421
 16777215
 74
     2
 91
        2
 64
     7
 65
   257
 75
     1
175
     1
 42
179.0
 92
        8
 66
     7
 43
1.0
 76
     1
 77
     6
 78
     2
 67
     7
 79
     3
170
     0
171
     0
290
     0
174
     0
 93
        1
 44
0.0
173
     0
291
     0
 45
0.0
1001
ACAD
1000
AcDbSavedByObjectVersion
1070
     0
  0
VISUALSTYLE
  5
447E
102
{ACAD_XDICTIONARY
360
49F6
102
}
102
{ACAD_REACTORS
330
4473
102
}
330
4473
100
AcDbVisualStyle
  2

 70
    11
 71
     2
 72
     2
 73
     0
 90
        0
 40
-0.6
 41
-30.0
 62
     5
 63
     7
421
 16777215
 74
     1
 91
        4
 64
     7
 65
   257
 75
     1
175
     1
 42
1.0
 92
        8
 66
     7
 43
1.0
 76
     1
 77
     6
 78
     2
 67
     7
 79
     5
170
     0
171
     0
290
     0
174
     0
 93
        1
 44
-50.0
173
     0
291
     1
 45
0.0
1001
ACAD
1000
AcDbSavedByObjectVersion
1070
     0
  0
VISUALSTYLE
  5
448B
102
{ACAD_XDICTIONARY
360
4A10
102
}
102
{ACAD_REACTORS
330
4473
102
}
330
4473
100
AcDbVisualStyle
  2

 70
    22
 71
     2
 72
     2
 73
     0
 90
        0
 40
-0.6
 41
-30.0
 62
     5
 63
     7
421
 16777215
 74
     1
 91
        4
 64
     7
 65
   257
 75
     1
175
     1
 42
1.0
 92
        8
 66
     7
 43
1.0
 76
     1
 77
     6
 78
     2
 67
     7
 79
     5
170
     0
171
     0
290
     0
174
     0
 93
        1
 44
0.0
173
     0
291
     1
 45
0.0
1001
ACAD
1000
AcDbSavedByObjectVersion
1070
     0
  0
VISUALSTYLE
  5
4482
102
{ACAD_XDICTIONARY
360
49FE
102
}
102
{ACAD_REACTORS
330
4473
102
}
330
4473
100
AcDbVisualStyle
  2

 70
    15
 71
     2
 72
     2
 73
     0
 90
        0
 40
-0.6
 41
-30.0
 62
     5
 63
     7
421
 16777215
 74
     1
 91
        4
 64
     7
 65
   257
 75
     1
175
     1
 42
1.0
 92
        8
 66
     7
 43
1.0
 76
     1
 77
     6
 78
     2
 67
     7
 79
     5
170
     0
171
     0
290
     0
174
     0
 93
        1
 44
0.0
173
     0
291
     1
 45
0.0
1001
ACAD
1000
AcDbSavedByObjectVersion
1070
     0
  0
VISUALSTYLE
  5
4474
102
{ACAD_XDICTIONARY
360
49E2
102
}
102
{ACAD_REACTORS
330
4473
102
}
330
4473
100
AcDbVisualStyle
  2

 70
     0
 71
     2
 72
     1
 73
     1
 90
        2
 40
-0.6
 41
30.0
 62
     5
 63
     7
421
 16777215
 74
     0
 91
        0
 64
     7
 65
   257
 75
     1
175
     1
 42
1.0
 92
        8
 66
     7
 43
1.0
 76
     1
 77
     6
 78
     2
 67
     7
 79
     5
170
     0
171
     0
290
     0
174
     0
 93
       13
 44
0.0
173
     0
291
     1
 45
0.0
1001
ACAD
1000
AcDbSavedByObjectVersion
1070
     0
  0
VISUALSTYLE
  5
4475
102
{ACAD_XDICTIONARY
360
49E4
102
}
102
{ACAD_REACTORS
330
4473
102
}
330
4473
100
AcDbVisualStyle
  2

 70
     1
 71
     2
 72
     1
 73
     1
 90
        2
 40
-0.6
 41
30.0
 62
     5
 63
     7
421
 16777215
 74
     1
 91
        0
 64
     7
 65
   257
 75
     1
175
     1
 42
1.0
 92
        0
 66
   257
 43
1.0
 76
     1
 77
     6
 78
     2
 67
     7
 79
     5
170
     0
171
     0
290
     0
174
     0
 93
       13
 44
0.0
173
     0
291
     1
 45
0.0
1001
ACAD
1000
AcDbSavedByObjectVersion
1070
     0
  0
VISUALSTYLE
  5
4476
102
{ACAD_XDICTIONARY
360
49E6
102
}
102
{ACAD_REACTORS
330
4473
102
}
330
4473
100
AcDbVisualStyle
  2

 70
     2
 71
     2
 72
     2
 73
     1
 90
        2
 40
-0.6
 41
30.0
 62
     5
 63
     7
421
 16777215
 74
     0
 91
        0
 64
     7
 65
   257
 75
     1
175
     1
 42
1.0
 92
        0
 66
     7
 43
1.0
 76
     1
 77
     6
 78
     2
 67
     7
 79
     5
170
     0
171
     0
290
     0
174
     0
 93
       13
 44
0.0
173
     0
291
     1
 45
0.0
1001
ACAD
1000
AcDbSavedByObjectVersion
1070
     0
  0
VISUALSTYLE
  5
4477
102
{ACAD_XDICTIONARY
360
49E8
102
}
102
{ACAD_REACTORS
330
4473
102
}
330
4473
100
AcDbVisualStyle
  2

 70
     3
 71
     2
 72
     2
 73
     1
 90
        2
 40
-0.6
 41
30.0
 62
     5
 63
     7
421
 16777215
 74
     1
 91
        0
 64
     7
 65
   257
 75
     1
175
     1
 42
1.0
 92
        0
 66
   257
 43
1.0
 76
     1
 77
     6
 78
     2
 67
     7
 79
     5
170
     0
171
     0
290
     0
174
     0
 93
       13
 44
0.0
173
     0
291
     1
 45
0.0
1001
ACAD
1000
AcDbSavedByObjectVersion
1070
     0
  0
VISUALSTYLE
  5
447B
102
{ACAD_XDICTIONARY
360
49F0
102
}
102
{ACAD_REACTORS
330
4473
102
}
330
4473
100
AcDbVisualStyle
  2

 70
     6
 71
     1
 72
     2
 73
     2
 90
        0
 40
-0.6
 41
-30.0
 62
     5
 63
     7
421
 16777215
 74
     2
 91
        2
 64
     7
 65
   257
 75
     2
175
     1
 42
40.0
 92
        0
 66
   257
 43
1.0
 76
     1
 77
     6
 78
     2
 67
     7
 79
     3
170
     0
171
     0
290
     0
174
     0
 93
        1
 44
0.0
173
     0
291
     0
 45
0.0
1001
ACAD
1000
AcDbSavedByObjectVersion
1070
     0
  0
VISUALSTYLE
  5
4489
102
{ACAD_XDICTIONARY
360
4A0C
102
}
102
{ACAD_REACTORS
330
4473
102
}
330
4473
100
AcDbVisualStyle
  2

 70
    20
 71
     2
 72
     2
 73
     0
 90
        0
 40
-0.6
 41
-30.0
 62
     5
 63
     7
421
 16777215
 74
     1
 91
        4
 64
     7
 65
   257
 75
     1
175
     1
 42
1.0
 92
       10
 66
     7
 43
1.0
 76
     1
 77
     6
 78
     2
 67
     7
 79
     5
170
     0
171
     0
290
     0
174
     0
 93
        1
 44
0.0
173
     0
291
     1
 45
0.0
1001
ACAD
1000
AcDbSavedByObjectVersion
1070
     0
  0
VISUALSTYLE
  5
4481
102
{ACAD_XDICTIONARY
360
49FC
102
}
102
{ACAD_REACTORS
330
4473
102
}
330
4473
100
AcDbVisualStyle
  2

 70
    14
 71
     2
 72
     2
 73
     0
 90
        0
 40
-0.6
 41
-30.0
 62
     5
 63
     7
421
 16777215
 74
     1
 91
        4
 64
     7
 65
   257
 75
     7
175
     7
 42
1.0
 92
        8
 66
     7
 43
1.0
 76
     1
 77
     6
 78
     2
 67
     7
 79
     5
170
     0
171
     0
290
     0
174
     0
 93
        1
 44
0.0
173
     0
291
     1
 45
0.0
1001
ACAD
1000
AcDbSavedByObjectVersion
1070
     0
  0
VISUALSTYLE
  5
448A
102
{ACAD_XDICTIONARY
360
4A0E
102
}
102
{ACAD_REACTORS
330
4473
102
}
330
4473
100
AcDbVisualStyle
  2

 70
    21
 71
     2
 72
     2
 73
     0
 90
        0
 40
-0.6
 41
-30.0
 62
     5
 63
     7
421
 16777215
 74
     1
 91
        4
 64
     7
 65
   257
 75
     1
175
     1
 42
1.0
 92
        9
 66
     7
 43
1.0
 76
     1
 77
     6
 78
     2
 67
     7
 79
     5
170
     0
171
     0
290
     0
174
     0
 93
        1
 44
0.0
173
     0
291
     1
 45
0.0
1001
ACAD
1000
AcDbSavedByObjectVersion
1070
     0
  0
VISUALSTYLE
  5
447D
102
{ACAD_XDICTIONARY
360
49F4
102
}
102
{ACAD_REACTORS
330
4473
102
}
330
4473
100
AcDbVisualStyle
  2

 70
     8
 71
     2
 72
     3
 73
     0
 90
        2
 40
-0.6
 41
30.0
 62
     5
 63
     7
421
 16777215
 74
     0
 91
        0
 64
     7
 65
   257
 75
     1
175
     1
 42
1.0
 92
        8
 66
   257
 43
1.0
 76
     1
 77
     6
 78
     2
 67
     7
 79
     3
170
     0
171
     0
290
     0
174
     0
 93
       13
 44
0.0
173
     0
291
     0
 45
0.0
1001
ACAD
1000
AcDbSavedByObjectVersion
1070
     0
  0
VISUALSTYLE
  5
4488
102
{ACAD_XDICTIONARY
360
4A0A
102
}
102
{ACAD_REACTORS
330
4473
102
}
330
4473
100
AcDbVisualStyle
  2

 70
    27
 71
     2
 72
     2
 73
     1
 90
        2
 40
-0.6
 41
30.0
 62
     5
 63
     7
421
 16777215
 74
     0
 91
        4
 64
     7
 65
   257
 75
     1
175
     1
 42
1.0
 92
        8
 66
   257
 43
1.0
 76
     1
 77
     6
 78
     2
 67
     8
425
  7895160
 79
     3
170
     0
171
     0
290
     0
174
     0
 93
        5
 44
0.0
173
     0
291
     0
 45
0.0
1001
ACAD
1000
AcDbSavedByObjectVersion
1070
     0
  0
VISUALSTYLE
  5
4487
102
{ACAD_XDICTIONARY
360
4A08
102
}
102
{ACAD_REACTORS
330
4473
102
}
330
4473
100
AcDbVisualStyle
  2

 70
    26
 71
     2
 72
     2
 73
     1
 90
        2
 40
-0.6
 41
30.0
 62
     5
 63
     7
421
 16777215
 74
     1
 91
        2
 64
     7
 65
   257
 75
     2
175
     1
 42
1.0
 92
        8
 66
   257
 43
1.0
 76
     1
 77
     6
 78
     2
 67
     7
 79
     3
170
     0
171
     0
290
     0
174
     0
 93
        5
 44
0.0
173
     0
291
     0
 45
0.0
1001
ACAD
1000
AcDbSavedByObjectVersion
1070
     0
  0
VISUALSTYLE
  5
4484
102
{ACAD_XDICTIONARY
360
4A02
102
}
102
{ACAD_REACTORS
330
4473
102
}
330
4473
100
AcDbVisualStyle
  2

 70
    23
 71
     2
 72
     2
 73
     3
 90
        0
 40
-0.6
 41
-30.0
 62
     5
 63
     7
421
 16777215
 74
     2
 91
        2
 64
     7
 65
     7
 75
     1
175
     1
 42
40.0
 92
        8
 66
     7
 43
1.0
 76
     1
 77
     6
 78
     2
 67
     7
 79
     3
170
     0
171
     0
290
     0
174
     0
 93
        1
 44
0.0
173
     0
291
     0
 45
0.0
1001
ACAD
1000
AcDbSavedByObjectVersion
1070
     0
  0
VISUALSTYLE
  5
4485
102
{ACAD_XDICTIONARY
360
4A04
102
}
102
{ACAD_REACTORS
330
4473
102
}
330
4473
100
AcDbVisualStyle
  2

 70
    24
 71
     1
 72
     2
 73
     2
 90
        0
 40
-0.6
 41
-30.0
 62
     5
 63
     7
421
 16777215
 74
     2
 91
        2
 64
     7
 65
     7
 75
     1
175
     1
 42
40.0
 92
       11
 66
     7
 43
1.0
 76
     1
 77
     6
 78
     2
 67
     7
 79
     6
170
     0
171
     0
290
     0
174
     0
 93
        1
 44
0.0
173
     0
291
     0
 45
0.0
1001
ACAD
1000
AcDbSavedByObjectVersion
1070
     0
  0
VISUALSTYLE
  5
4480
102
{ACAD_XDICTIONARY
360
49FA
102
}
102
{ACAD_REACTORS
330
4473
102
}
330
4473
100
AcDbVisualStyle
  2

 70
    13
 71
     2
 72
     2
 73
     0
 90
        0
 40
-0.6
 41
-30.0
 62
     5
 63
     7
421
 16777215
 74
     1
 91
        4
 64
     7
 65
   257
 75
     1
175
     1
 42
1.0
 92
       12
 66
     7
 43
1.0
 76
     1
 77
     6
 78
     2
 67
     7
 79
     5
170
     0
171
     0
290
     0
174
     0
 93
        1
 44
0.0
173
     0
291
     1
 45
0.0
1001
ACAD
1000
AcDbSavedByObjectVersion
1070
     0
  0
VISUALSTYLE
  5
447A
102
{ACAD_XDICTIONARY
360
49EE
102
}
102
{ACAD_REACTORS
330
4473
102
}
330
4473
100
AcDbVisualStyle
  2

 70
     5
 71
     0
 72
     2
 73
     0
 90
        0
 40
-0.6
 41
-30.0
 62
     5
 63
     7
421
 16777215
 74
     1
 91
        4
 64
     7
 65
   257
 75
     1
175
     1
 42
1.0
 92
        0
 66
   257
 43
1.0
 76
     1
 77
     6
 78
     2
 67
     7
 79
     3
170
     0
171
     0
290
     0
174
     0
 93
        1
 44
0.0
173
     0
291
     0
 45
0.0
1001
ACAD
1000
AcDbSavedByObjectVersion
1070
     0
  0
VISUALSTYLE
  5
4486
102
{ACAD_XDICTIONARY
360
4A06
102
}
102
{ACAD_REACTORS
330
4473
102
}
330
4473
100
AcDbVisualStyle
  2

 70
    25
 71
     2
 72
     2
 73
     1
 90
        1
 40
0.5
 41
-30.0
 62
     5
 63
     7
421
 16777215
 74
     1
 91
        0
 64
     7
 65
   257
 75
     1
175
     1
 42
1.0
 92
        8
 66
     7
 43
1.0
 76
     1
 77
     6
 78
     2
 67
     7
 79
     3
170
     0
171
     0
290
     0
174
     0
 93
       13
 44
0.0
173
     0
291
     0
 45
0.0
1001
ACAD
1000
AcDbSavedByObjectVersion
1070
     0
  0
DICTIONARYVAR
  5
4773
102
{ACAD_REACTORS
330
476D
102
}
330
476D
100
DictionaryVariables
280
     0
  1
1:1
  0
DICTIONARYVAR
  5
476F
102
{ACAD_REACTORS
330
476D
102
}
330
476D
100
DictionaryVariables
280
     0
  1
STANDARD
  0
DICTIONARYVAR
  5
476E
102
{ACAD_REACTORS
330
476D
102
}
330
476D
100
DictionaryVariables
280
     0
  1
STANDARD
  0
DICTIONARYVAR
  5
4770
102
{ACAD_REACTORS
330
476D
102
}
330
476D
100
DictionaryVariables
280
     0
  1
Metric50
  0
DICTIONARYVAR
  5
4771
102
{ACAD_REACTORS
330
476D
102
}
330
476D
100
DictionaryVariables
280
     0
  1
Metric50
  0
DICTIONARYVAR
  5
4775
102
{ACAD_REACTORS
330
476D
102
}
330
476D
100
DictionaryVariables
280
     0
  1
1
  0
DICTIONARYVAR
  5
4776
102
{ACAD_REACTORS
330
476D
102
}
330
476D
100
DictionaryVariables
280
     0
  1
15
  0
DICTIONARYVAR
  5
4774
102
{ACAD_REACTORS
330
476D
102
}
330
476D
100
DictionaryVariables
280
     0
  1
0
  0
DICTIONARYVAR
  5
4772
102
{ACAD_REACTORS
330
476D
102
}
330
476D
100
DictionaryVariables
280
     0
  1
0
  0
DICTIONARYVAR
  5
49DF
102
{ACAD_REACTORS
330
476D
102
}
330
476D
100
DictionaryVariables
280
     0
  1
2
  0
DICTIONARY
  5
455C
102
{ACAD_REACTORS
330
4555
102
}
330
4555
100
AcDbDictionary
281
     1
  0
DICTIONARY
  5
4A14
330
44B4
100
AcDbDictionary
280
     1
281
     1
  3
ACAD_XREC_ROUNDTRIP
360
4A15
  0
DICTIONARY
  5
4A18
330
4904
100
AcDbDictionary
280
     1
281
     1
  3
ACAD_XREC_ROUNDTRIP
360
4A19
  0
DICTIONARY
  5
4464
330
4463
100
AcDbDictionary
280
     1
281
     1
  3
BUMPTILE
360
4466
  3
DIFFUSETILE
360
4465
  3
OPACITYTILE
360
4469
  3
REFLECTIONTILE
360
4468
  3
REFRACTIONTILE
360
446A
  3
SPECULARTILE
360
4467
  0
DICTIONARY
  5
445C
330
445B
100
AcDbDictionary
280
     1
281
     1
  3
BUMPTILE
360
445E
  3
DIFFUSETILE
360
445D
  3
OPACITYTILE
360
4461
  3
REFLECTIONTILE
360
4460
  3
REFRACTIONTILE
360
4462
  3
SPECULARTILE
360
445F
  0
DICTIONARY
  5
446C
330
446B
100
AcDbDictionary
280
     1
281
     1
  3
BUMPTILE
360
446E
  3
DIFFUSETILE
360
446D
  3
OPACITYTILE
360
4471
  3
REFLECTIONTILE
360
4470
  3
REFRACTIONTILE
360
4472
  3
SPECULARTILE
360
446F
  0
DICTIONARY
  5
4A12
330
44B2
100
AcDbDictionary
280
     1
281
     1
  3
ACAD_XREC_ROUNDTRIP
360
4A13
  0
DICTIONARY
  5
4A16
330
4901
100
AcDbDictionary
280
     1
281
     1
  3
ACAD_XREC_ROUNDTRIP
360
4A17
  0
DICTIONARY
  5
4778
330
44AE
100
AcDbDictionary
280
     1
281
     1
  3
ACAD_ROUNDTRIP_2008_TABLESTYLE_CELLSTYLEMAP
360
49E0
  0
DICTIONARY
  5
49EC
330
4479
100
AcDbDictionary
280
     1
281
     1
  3
ACAD_XREC_ROUNDTRIP
360
49ED
  0
DICTIONARY
  5
49EA
330
4478
100
AcDbDictionary
280
     1
281
     1
  3
ACAD_XREC_ROUNDTRIP
360
49EB
  0
DICTIONARY
  5
49F8
330
447F
100
AcDbDictionary
280
     1
281
     1
  3
ACAD_XREC_ROUNDTRIP
360
49F9
  0
DICTIONARY
  5
4A00
330
4483
100
AcDbDictionary
280
     1
281
     1
  3
ACAD_XREC_ROUNDTRIP
360
4A01
  0
DICTIONARY
  5
49F2
330
447C
100
AcDbDictionary
280
     1
281
     1
  3
ACAD_XREC_ROUNDTRIP
360
49F3
  0
DICTIONARY
  5
49F6
330
447E
100
AcDbDictionary
280
     1
281
     1
  3
ACAD_XREC_ROUNDTRIP
360
49F7
  0
DICTIONARY
  5
4A10
330
448B
100
AcDbDictionary
280
     1
281
     1
  3
ACAD_XREC_ROUNDTRIP
360
4A11
  0
DICTIONARY
  5
49FE
330
4482
100
AcDbDictionary
280
     1
281
     1
  3
ACAD_XREC_ROUNDTRIP
360
49FF
  0
DICTIONARY
  5
49E2
330
4474
100
AcDbDictionary
280
     1
281
     1
  3
ACAD_XREC_ROUNDTRIP
360
49E3
  0
DICTIONARY
  5
49E4
330
4475
100
AcDbDictionary
280
     1
281
     1
  3
ACAD_XREC_ROUNDTRIP
360
49E5
  0
DICTIONARY
  5
49E6
330
4476
100
AcDbDictionary
280
     1
281
     1
  3
ACAD_XREC_ROUNDTRIP
360
49E7
  0
DICTIONARY
  5
49E8
330
4477
100
AcDbDictionary
280
     1
281
     1
  3
ACAD_XREC_ROUNDTRIP
360
49E9
  0
DICTIONARY
  5
49F0
330
447B
100
AcDbDictionary
280
     1
281
     1
  3
ACAD_XREC_ROUNDTRIP
360
49F1
  0
DICTIONARY
  5
4A0C
330
4489
100
AcDbDictionary
280
     1
281
     1
  3
ACAD_XREC_ROUNDTRIP
360
4A0D
  0
DICTIONARY
  5
49FC
330
4481
100
AcDbDictionary
280
     1
281
     1
  3
ACAD_XREC_ROUNDTRIP
360
49FD
  0
DICTIONARY
  5
4A0E
330
448A
100
AcDbDictionary
280
     1
281
     1
  3
ACAD_XREC_ROUNDTRIP
360
4A0F
  0
DICTIONARY
  5
49F4
330
447D
100
AcDbDictionary
280
     1
281
     1
  3
ACAD_XREC_ROUNDTRIP
360
49F5
  0
DICTIONARY
  5
4A0A
330
4488
100
AcDbDictionary
280
     1
281
     1
  3
ACAD_XREC_ROUNDTRIP
360
4A0B
  0
DICTIONARY
  5
4A08
330
4487
100
AcDbDictionary
280
     1
281
     1
  3
ACAD_XREC_ROUNDTRIP
360
4A09
  0
DICTIONARY
  5
4A02
330
4484
100
AcDbDictionary
280
     1
281
     1
  3
ACAD_XREC_ROUNDTRIP
360
4A03
  0
DICTIONARY
  5
4A04
330
4485
100
AcDbDictionary
280
     1
281
     1
  3
ACAD_XREC_ROUNDTRIP
360
4A05
  0
DICTIONARY
  5
49FA
330
4480
100
AcDbDictionary
280
     1
281
     1
  3
ACAD_XREC_ROUNDTRIP
360
49FB
  0
DICTIONARY
  5
49EE
330
447A
100
AcDbDictionary
280
     1
281
     1
  3
ACAD_XREC_ROUNDTRIP
360
49EF
  0
DICTIONARY
  5
4A06
330
4486
100
AcDbDictionary
280
     1
281
     1
  3
ACAD_XREC_ROUNDTRIP
360
4A07
  0
XRECORD
  5
4A15
102
{ACAD_REACTORS
330
4A14
102
}
330
4A14
100
AcDbXrecord
280
     1
102
DISPLAYNAME
  1
Imperial24
102
FLAGS
 90
        0
  0
XRECORD
  5
4A19
102
{ACAD_REACTORS
330
4A18
102
}
330
4A18
100
AcDbXrecord
280
     1
102
DISPLAYNAME
  1
Metric50
102
FLAGS
 90
        0
  0
XRECORD
  5
4466
102
{ACAD_REACTORS
330
4464
102
}
330
4464
100
AcDbXrecord
280
     1
270
     1
271
     1
  0
XRECORD
  5
4465
102
{ACAD_REACTORS
330
4464
102
}
330
4464
100
AcDbXrecord
280
     1
270
     1
271
     1
  0
XRECORD
  5
4469
102
{ACAD_REACTORS
330
4464
102
}
330
4464
100
AcDbXrecord
280
     1
270
     1
271
     1
  0
XRECORD
  5
4468
102
{ACAD_REACTORS
330
4464
102
}
330
4464
100
AcDbXrecord
280
     1
270
     1
271
     1
  0
XRECORD
  5
446A
102
{ACAD_REACTORS
330
4464
102
}
330
4464
100
AcDbXrecord
280
     1
270
     1
271
     1
  0
XRECORD
  5
4467
102
{ACAD_REACTORS
330
4464
102
}
330
4464
100
AcDbXrecord
280
     1
270
     1
271
     1
  0
XRECORD
  5
445E
102
{ACAD_REACTORS
330
445C
102
}
330
445C
100
AcDbXrecord
280
     1
270
     1
271
     1
  0
XRECORD
  5
445D
102
{ACAD_REACTORS
330
445C
102
}
330
445C
100
AcDbXrecord
280
     1
270
     1
271
     1
  0
XRECORD
  5
4461
102
{ACAD_REACTORS
330
445C
102
}
330
445C
100
AcDbXrecord
280
     1
270
     1
271
     1
  0
XRECORD
  5
4460
102
{ACAD_REACTORS
330
445C
102
}
330
445C
100
AcDbXrecord
280
     1
270
     1
271
     1
  0
XRECORD
  5
4462
102
{ACAD_REACTORS
330
445C
102
}
330
445C
100
AcDbXrecord
280
     1
270
     1
271
     1
  0
XRECORD
  5
445F
102
{ACAD_REACTORS
330
445C
102
}
330
445C
100
AcDbXrecord
280
     1
270
     1
271
     1
  0
XRECORD
  5
446E
102
{ACAD_REACTORS
330
446C
102
}
330
446C
100
AcDbXrecord
280
     1
270
     1
271
     1
  0
XRECORD
  5
446D
102
{ACAD_REACTORS
330
446C
102
}
330
446C
100
AcDbXrecord
280
     1
270
     1
271
     1
  0
XRECORD
  5
4471
102
{ACAD_REACTORS
330
446C
102
}
330
446C
100
AcDbXrecord
280
     1
270
     1
271
     1
  0
XRECORD
  5
4470
102
{ACAD_REACTORS
330
446C
102
}
330
446C
100
AcDbXrecord
280
     1
270
     1
271
     1
  0
XRECORD
  5
4472
102
{ACAD_REACTORS
330
446C
102
}
330
446C
100
AcDbXrecord
280
     1
270
     1
271
     1
  0
XRECORD
  5
446F
102
{ACAD_REACTORS
330
446C
102
}
330
446C
100
AcDbXrecord
280
     1
270
     1
271
     1
  0
XRECORD
  5
4A13
102
{ACAD_REACTORS
330
4A12
102
}
330
4A12
100
AcDbXrecord
280
     1
102
DISPLAYNAME
  1
Imperial24
102
FLAGS
 90
        0
  0
XRECORD
  5
4A17
102
{ACAD_REACTORS
330
4A16
102
}
330
4A16
100
AcDbXrecord
280
     1
102
DISPLAYNAME
  1
Metric50
102
FLAGS
 90
        0
  0
CELLSTYLEMAP
  5
49E0
102
{ACAD_REACTORS
330
4778
102
}
330
4778
100
AcDbCellStyleMap
 90
        3
300
CELLSTYLE
  1
TABLEFORMAT_BEGIN
 90
        5
170
     1
 91
        0
 92
    32768
 62
   257
 93
        1
300
CONTENTFORMAT
  1
CONTENTFORMAT_BEGIN
 90
        0
 91
        0
 92
      512
 93
        0
300

 40
0.0
140
1.0
 94
        5
 62
     0
340
449F
144
0.25
309
CONTENTFORMAT_END
171
     1
301
MARGIN
  1
CELLMARGIN_BEGIN
 40
0.06
 40
0.06
 40
0.06
 40
0.06
 40
0.18
 40
0.18
309
CELLMARGIN_END
 94
        6
 95
        1
302
GRIDFORMAT
  1
GRIDFORMAT_BEGIN
 90
        0
 91
        1
 62
     0
 92
       -2
340
0
 93
        0
 40
0.045
309
GRIDFORMAT_END
 95
        2
302
GRIDFORMAT
  1
GRIDFORMAT_BEGIN
 90
        0
 91
        1
 62
     0
 92
       -2
340
0
 93
        0
 40
0.045
309
GRIDFORMAT_END
 95
        4
302
GRIDFORMAT
  1
GRIDFORMAT_BEGIN
 90
        0
 91
        1
 62
     0
 92
       -2
340
0
 93
        0
 40
0.045
309
GRIDFORMAT_END
 95
        8
302
GRIDFORMAT
  1
GRIDFORMAT_BEGIN
 90
        0
 91
        1
 62
     0
 92
       -2
340
0
 93
        0
 40
0.045
309
GRIDFORMAT_END
 95
       16
302
GRIDFORMAT
  1
GRIDFORMAT_BEGIN
 90
        0
 91
        1
 62
     0
 92
       -2
340
0
 93
        0
 40
0.045
309
GRIDFORMAT_END
 95
       32
302
GRIDFORMAT
  1
GRIDFORMAT_BEGIN
 90
        0
 91
        1
 62
     0
 92
       -2
340
0
 93
        0
 40
0.045
309
GRIDFORMAT_END
309
TABLEFORMAT_END
  1
CELLSTYLE_BEGIN
 90
        1
 91
        1
300
_TITLE
309
CELLSTYLE_END
300
CELLSTYLE
  1
TABLEFORMAT_BEGIN
 90
        5
170
     1
 91
        0
 92
        0
 62
   257
 93
        1
300
CONTENTFORMAT
  1
CONTENTFORMAT_BEGIN
 90
        0
 91
        0
 92
      512
 93
        0
300

 40
0.0
140
1.0
 94
        5
 62
     0
340
449F
144
0.18
309
CONTENTFORMAT_END
171
     1
301
MARGIN
  1
CELLMARGIN_BEGIN
 40
0.06
 40
0.06
 40
0.06
 40
0.06
 40
0.18
 40
0.18
309
CELLMARGIN_END
 94
        6
 95
        1
302
GRIDFORMAT
  1
GRIDFORMAT_BEGIN
 90
        0
 91
        1
 62
     0
 92
       -2
340
0
 93
        0
 40
0.045
309
GRIDFORMAT_END
 95
        2
302
GRIDFORMAT
  1
GRIDFORMAT_BEGIN
 90
        0
 91
        1
 62
     0
 92
       -2
340
0
 93
        0
 40
0.045
309
GRIDFORMAT_END
 95
        4
302
GRIDFORMAT
  1
GRIDFORMAT_BEGIN
 90
        0
 91
        1
 62
     0
 92
       -2
340
0
 93
        0
 40
0.045
309
GRIDFORMAT_END
 95
        8
302
GRIDFORMAT
  1
GRIDFORMAT_BEGIN
 90
        0
 91
        1
 62
     0
 92
       -2
340
0
 93
        0
 40
0.045
309
GRIDFORMAT_END
 95
       16
302
GRIDFORMAT
  1
GRIDFORMAT_BEGIN
 90
        0
 91
        1
 62
     0
 92
       -2
340
0
 93
        0
 40
0.045
309
GRIDFORMAT_END
 95
       32
302
GRIDFORMAT
  1
GRIDFORMAT_BEGIN
 90
        0
 91
        1
 62
     0
 92
       -2
340
0
 93
        0
 40
0.045
309
GRIDFORMAT_END
309
TABLEFORMAT_END
  1
CELLSTYLE_BEGIN
 90
        2
 91
        1
300
_HEADER
309
CELLSTYLE_END
300
CELLSTYLE
  1
TABLEFORMAT_BEGIN
 90
        5
170
     1
 91
        0
 92
        0
 62
   257
 93
        1
300
CONTENTFORMAT
  1
CONTENTFORMAT_BEGIN
 90
        0
 91
        0
 92
      512
 93
        0
300

 40
0.0
140
1.0
 94
        2
 62
     0
340
449F
144
0.18
309
CONTENTFORMAT_END
171
     1
301
MARGIN
  1
CELLMARGIN_BEGIN
 40
0.06
 40
0.06
 40
0.06
 40
0.06
 40
0.18
 40
0.18
309
CELLMARGIN_END
 94
        6
 95
        1
302
GRIDFORMAT
  1
GRIDFORMAT_BEGIN
 90
        0
 91
        1
 62
     0
 92
       -2
340
0
 93
        0
 40
0.045
309
GRIDFORMAT_END
 95
        2
302
GRIDFORMAT
  1
GRIDFORMAT_BEGIN
 90
        0
 91
        1
 62
     0
 92
       -2
340
0
 93
        0
 40
0.045
309
GRIDFORMAT_END
 95
        4
302
GRIDFORMAT
  1
GRIDFORMAT_BEGIN
 90
        0
 91
        1
 62
     0
 92
       -2
340
0
 93
        0
 40
0.045
309
GRIDFORMAT_END
 95
        8
302
GRIDFORMAT
  1
GRIDFORMAT_BEGIN
 90
        0
 91
        1
 62
     0
 92
       -2
340
0
 93
        0
 40
0.045
309
GRIDFORMAT_END
 95
       16
302
GRIDFORMAT
  1
GRIDFORMAT_BEGIN
 90
        0
 91
        1
 62
     0
 92
       -2
340
0
 93
        0
 40
0.045
309
GRIDFORMAT_END
 95
       32
302
GRIDFORMAT
  1
GRIDFORMAT_BEGIN
 90
        0
 91
        1
 62
     0
 92
       -2
340
0
 93
        0
 40
0.045
309
GRIDFORMAT_END
309
TABLEFORMAT_END
  1
CELLSTYLE_BEGIN
 90
        3
 91
        2
300
_DATA
309
CELLSTYLE_END
  0
XRECORD
  5
49ED
102
{ACAD_REACTORS
330
49EC
102
}
330
49EC
100
AcDbXrecord
280
     1
102
RTVSPost2010Prop28
280
     1
102
RTVSPost2010PropOp28
 70
     1
102
RTVSPost2010Prop29
280
     1
102
RTVSPost2010PropOp29
 70
     1
102
RTVSPost2010Prop30
280
     0
102
RTVSPost2010PropOp30
 70
     1
102
RTVSPost2010Prop31
280
     0
102
RTVSPost2010PropOp31
 70
     1
102
RTVSPost2010Prop32
280
     0
102
RTVSPost2010PropOp32
 70
     1
102
RTVSPost2010Prop33
280
     0
102
RTVSPost2010PropOp33
 70
     1
102
RTVSPost2010Prop34
280
     0
102
RTVSPost2010PropOp34
 70
     1
102
RTVSPost2010Prop35
280
     0
102
RTVSPost2010PropOp35
 70
     1
102
RTVSPost2010Prop36
280
     0
102
RTVSPost2010PropOp36
 70
     1
102
RTVSPost2010Prop37
 90
       50
102
RTVSPost2010PropOp37
 70
     1
102
RTVSPost2010Prop38
140
0.0
102
RTVSPost2010PropOp38
 70
     1
102
RTVSPost2010Prop39
140
1.0
102
RTVSPost2010PropOp39
 70
     1
102
RTVSPost2010Prop40
 90
        0
102
RTVSPost2010PropOp40
 70
     1
102
RTVSPost2010Prop41ColorIndex
 90
       18
102
RTVSPost2010Prop41ColorRGB
 90
        0
102
RTVSPost2010PropOp41
 70
     1
102
RTVSPost2010Prop42
 90
       50
102
RTVSPost2010PropOp42
 70
     1
102
RTVSPost2010Prop43
 90
        3
102
RTVSPost2010PropOp43
 70
     1
102
RTVSPost2010Prop44ColorIndex
 90
        5
102
RTVSPost2010Prop44ColorRGB
 90
      255
102
RTVSPost2010PropOp44
 70
     1
102
RTVSPost2010Prop45
280
     0
102
RTVSPost2010PropOp45
 70
     1
102
RTVSPost2010Prop46
 90
       50
102
RTVSPost2010PropOp46
 70
     1
102
RTVSPost2010Prop47
 90
       50
102
RTVSPost2010PropOp47
 70
     1
102
RTVSPost2010Prop48
 90
       50
102
RTVSPost2010PropOp48
 70
     1
102
RTVSPost2010Prop49
280
     0
102
RTVSPost2010PropOp49
 70
     1
102
RTVSPost2010Prop50
 90
       50
102
RTVSPost2010PropOp50
 70
     1
102
RTVSPost2010Prop51ColorIndex
 90
      256
102
RTVSPost2010Prop51ColorRGB
 90
-16777216
102
RTVSPost2010PropOp51
 70
     0
102
RTVSPost2010Prop52
140
1.0
102
RTVSPost2010PropOp52
 70
     0
102
RTVSPost2010Prop53
 90
        2
102
RTVSPost2010PropOp53
 70
     1
102
RTVSPost2010Prop54
  1
strokes_ogs.tif
102
RTVSPost2010PropOp54
 70
     1
102
RTVSPost2010Prop55
280
     0
102
RTVSPost2010PropOp55
 70
     1
102
RTVSPost2010Prop56
140
1.0
102
RTVSPost2010PropOp56
 70
     1
102
RTVSPost2010Prop57
140
1.0
102
RTVSPost2010PropOp57
 70
     1
102
RTVSPropertyOp0
 70
     1
102
RTVSPropertyOp1
 70
     1
102
RTVSPropertyOp2
 70
     1
102
RTVSPropertyOp3
 70
     1
102
RTVSPropertyOp4
 70
     1
102
RTVSPropertyOp5
 70
     1
102
RTVSPropertyOp6
 70
     1
102
RTVSPropertyOp7
 70
     1
102
RTVSPropertyOp8
 70
     1
102
RTVSPropertyOp9
 70
     1
102
RTVSPropertyOp10
 70
     1
102
RTVSPropertyOp11
 70
     1
102
RTVSPropertyOp12
 70
     1
102
RTVSPropertyOp13
 70
     1
102
RTVSPropertyOp14
 70
     1
102
RTVSPropertyOp15
 70
     1
102
RTVSPropertyOp16
 70
     1
102
RTVSPropertyOp17
 70
     1
102
RTVSPropertyOp18
 70
     1
102
RTVSPropertyOp19
 70
     1
102
RTVSPropertyOp20
 70
     1
102
RTVSPropertyOp21
 70
     1
102
RTVSPropertyOp22
 70
     1
102
RTVSPropertyOp23
 70
     1
102
RTVSPropertyOp24
 70
     1
102
RTVSPropertyOp25
 70
     1
102
RTVSPropertyOp26
 70
     1
102
RTVSPropertyOp27
 70
     1
102
RTVSPropertyOp28
 70
     1
102
RTVSPropertyOp29
 70
     1
102
RTVSPropertyOp30
 70
     1
102
RTVSPropertyOp31
 70
     1
102
RTVSPropertyOp32
 70
     1
102
RTVSPropertyOp33
 70
     1
102
RTVSPropertyOp34
 70
     1
102
RTVSPropertyOp35
 70
     1
102
RTVSPropertyOp36
 70
     1
102
RTVSPropertyOp37
 70
     1
102
RTVSPropertyOp38
 70
     1
102
RTVSPropertyOp39
 70
     1
102
RTVSPropertyOp40
 70
     1
102
RTVSPropertyOp41
 70
     1
102
RTVSPropertyOp42
 70
     1
102
RTVSPropertyOp43
 70
     1
102
RTVSPropertyOp44
 70
     1
102
RTVSPropertyOp45
 70
     1
102
RTVSPropertyOp46
 70
     1
102
RTVSPropertyOp47
 70
     1
102
RTVSPropertyOp48
 70
     1
102
RTVSPropertyOp49
 70
     1
102
RTVSPropertyOp50
 70
     1
102
RTVSPropertyOp51
 70
     0
102
RTVSPropertyOp52
 70
     0
102
RTVSPropertyOp53
 70
     1
102
RTVSPropertyOp54
 70
     1
102
RTVSPropertyOp55
 70
     1
102
RTVSPropertyOp56
 70
     1
102
RTVSPropertyOp57
 70
     1
102
RTVSPropertyOp58
 70
     1
102
RTVSPropertyOp59
 70
     1
102
RTVSPropertyOp60
 70
     1
102
RTVSPropertyOp61
 70
     1
102
RTVSPropertyOp62
 70
     1
  0
XRECORD
  5
49EB
102
{ACAD_REACTORS
330
49EA
102
}
330
49EA
100
AcDbXrecord
280
     1
102
RTVSPost2010Prop28
280
     0
102
RTVSPost2010PropOp28
 70
     1
102
RTVSPost2010Prop29
280
     1
102
RTVSPost2010PropOp29
 70
     1
102
RTVSPost2010Prop30
280
     1
102
RTVSPost2010PropOp30
 70
     1
102
RTVSPost2010Prop31
280
     0
102
RTVSPost2010PropOp31
 70
     1
102
RTVSPost2010Prop32
280
     0
102
RTVSPost2010PropOp32
 70
     1
102
RTVSPost2010Prop33
280
     0
102
RTVSPost2010PropOp33
 70
     1
102
RTVSPost2010Prop34
280
     0
102
RTVSPost2010PropOp34
 70
     1
102
RTVSPost2010Prop35
280
     0
102
RTVSPost2010PropOp35
 70
     1
102
RTVSPost2010Prop36
280
     0
102
RTVSPost2010PropOp36
 70
     1
102
RTVSPost2010Prop37
 90
       50
102
RTVSPost2010PropOp37
 70
     1
102
RTVSPost2010Prop38
140
0.0
102
RTVSPost2010PropOp38
 70
     1
102
RTVSPost2010Prop39
140
1.0
102
RTVSPost2010PropOp39
 70
     1
102
RTVSPost2010Prop40
 90
        0
102
RTVSPost2010PropOp40
 70
     1
102
RTVSPost2010Prop41ColorIndex
 90
       18
102
RTVSPost2010Prop41ColorRGB
 90
        0
102
RTVSPost2010PropOp41
 70
     1
102
RTVSPost2010Prop42
 90
       50
102
RTVSPost2010PropOp42
 70
     1
102
RTVSPost2010Prop43
 90
        3
102
RTVSPost2010PropOp43
 70
     1
102
RTVSPost2010Prop44ColorIndex
 90
        5
102
RTVSPost2010Prop44ColorRGB
 90
      255
102
RTVSPost2010PropOp44
 70
     1
102
RTVSPost2010Prop45
280
     0
102
RTVSPost2010PropOp45
 70
     1
102
RTVSPost2010Prop46
 90
       50
102
RTVSPost2010PropOp46
 70
     1
102
RTVSPost2010Prop47
 90
       50
102
RTVSPost2010PropOp47
 70
     1
102
RTVSPost2010Prop48
 90
       50
102
RTVSPost2010PropOp48
 70
     1
102
RTVSPost2010Prop49
280
     0
102
RTVSPost2010PropOp49
 70
     1
102
RTVSPost2010Prop50
 90
       50
102
RTVSPost2010PropOp50
 70
     1
102
RTVSPost2010Prop51ColorIndex
 90
      256
102
RTVSPost2010Prop51ColorRGB
 90
-16777216
102
RTVSPost2010PropOp51
 70
     0
102
RTVSPost2010Prop52
140
1.0
102
RTVSPost2010PropOp52
 70
     0
102
RTVSPost2010Prop53
 90
        2
102
RTVSPost2010PropOp53
 70
     1
102
RTVSPost2010Prop54
  1
strokes_ogs.tif
102
RTVSPost2010PropOp54
 70
     1
102
RTVSPost2010Prop55
280
     0
102
RTVSPost2010PropOp55
 70
     1
102
RTVSPost2010Prop56
140
1.0
102
RTVSPost2010PropOp56
 70
     1
102
RTVSPost2010Prop57
140
1.0
102
RTVSPost2010PropOp57
 70
     1
102
RTVSPropertyOp0
 70
     1
102
RTVSPropertyOp1
 70
     1
102
RTVSPropertyOp2
 70
     1
102
RTVSPropertyOp3
 70
     1
102
RTVSPropertyOp4
 70
     1
102
RTVSPropertyOp5
 70
     1
102
RTVSPropertyOp6
 70
     1
102
RTVSPropertyOp7
 70
     1
102
RTVSPropertyOp8
 70
     1
102
RTVSPropertyOp9
 70
     1
102
RTVSPropertyOp10
 70
     1
102
RTVSPropertyOp11
 70
     1
102
RTVSPropertyOp12
 70
     1
102
RTVSPropertyOp13
 70
     1
102
RTVSPropertyOp14
 70
     1
102
RTVSPropertyOp15
 70
     1
102
RTVSPropertyOp16
 70
     1
102
RTVSPropertyOp17
 70
     1
102
RTVSPropertyOp18
 70
     1
102
RTVSPropertyOp19
 70
     1
102
RTVSPropertyOp20
 70
     1
102
RTVSPropertyOp21
 70
     1
102
RTVSPropertyOp22
 70
     1
102
RTVSPropertyOp23
 70
     1
102
RTVSPropertyOp24
 70
     1
102
RTVSPropertyOp25
 70
     1
102
RTVSPropertyOp26
 70
     1
102
RTVSPropertyOp27
 70
     1
102
RTVSPropertyOp28
 70
     1
102
RTVSPropertyOp29
 70
     1
102
RTVSPropertyOp30
 70
     1
102
RTVSPropertyOp31
 70
     1
102
RTVSPropertyOp32
 70
     1
102
RTVSPropertyOp33
 70
     1
102
RTVSPropertyOp34
 70
     1
102
RTVSPropertyOp35
 70
     1
102
RTVSPropertyOp36
 70
     1
102
RTVSPropertyOp37
 70
     1
102
RTVSPropertyOp38
 70
     1
102
RTVSPropertyOp39
 70
     1
102
RTVSPropertyOp40
 70
     1
102
RTVSPropertyOp41
 70
     1
102
RTVSPropertyOp42
 70
     1
102
RTVSPropertyOp43
 70
     1
102
RTVSPropertyOp44
 70
     1
102
RTVSPropertyOp45
 70
     1
102
RTVSPropertyOp46
 70
     1
102
RTVSPropertyOp47
 70
     1
102
RTVSPropertyOp48
 70
     1
102
RTVSPropertyOp49
 70
     1
102
RTVSPropertyOp50
 70
     1
102
RTVSPropertyOp51
 70
     0
102
RTVSPropertyOp52
 70
     0
102
RTVSPropertyOp53
 70
     1
102
RTVSPropertyOp54
 70
     1
102
RTVSPropertyOp55
 70
     1
102
RTVSPropertyOp56
 70
     1
102
RTVSPropertyOp57
 70
     1
102
RTVSPropertyOp58
 70
     1
102
RTVSPropertyOp59
 70
     1
102
RTVSPropertyOp60
 70
     1
102
RTVSPropertyOp61
 70
     1
102
RTVSPropertyOp62
 70
     1
  0
XRECORD
  5
49F9
102
{ACAD_REACTORS
330
49F8
102
}
330
49F8
100
AcDbXrecord
280
     1
102
RTVSPost2010Prop28
280
     0
102
RTVSPost2010PropOp28
 70
     1
102
RTVSPost2010Prop29
280
     1
102
RTVSPost2010PropOp29
 70
     1
102
RTVSPost2010Prop30
280
     1
102
RTVSPost2010PropOp30
 70
     1
102
RTVSPost2010Prop31
280
     0
102
RTVSPost2010PropOp31
 70
     1
102
RTVSPost2010Prop32
280
     0
102
RTVSPost2010PropOp32
 70
     1
102
RTVSPost2010Prop33
280
     0
102
RTVSPost2010PropOp33
 70
     1
102
RTVSPost2010Prop34
280
     0
102
RTVSPost2010PropOp34
 70
     1
102
RTVSPost2010Prop35
280
     0
102
RTVSPost2010PropOp35
 70
     1
102
RTVSPost2010Prop36
280
     0
102
RTVSPost2010PropOp36
 70
     1
102
RTVSPost2010Prop37
 90
       50
102
RTVSPost2010PropOp37
 70
     1
102
RTVSPost2010Prop38
140
0.0
102
RTVSPost2010PropOp38
 70
     1
102
RTVSPost2010Prop39
140
1.0
102
RTVSPost2010PropOp39
 70
     1
102
RTVSPost2010Prop40
 90
        0
102
RTVSPost2010PropOp40
 70
     1
102
RTVSPost2010Prop41ColorIndex
 90
       18
102
RTVSPost2010Prop41ColorRGB
 90
        0
102
RTVSPost2010PropOp41
 70
     1
102
RTVSPost2010Prop42
 90
       50
102
RTVSPost2010PropOp42
 70
     1
102
RTVSPost2010Prop43
 90
        3
102
RTVSPost2010PropOp43
 70
     1
102
RTVSPost2010Prop44ColorIndex
 90
        5
102
RTVSPost2010Prop44ColorRGB
 90
      255
102
RTVSPost2010PropOp44
 70
     1
102
RTVSPost2010Prop45
280
     0
102
RTVSPost2010PropOp45
 70
     1
102
RTVSPost2010Prop46
 90
       50
102
RTVSPost2010PropOp46
 70
     1
102
RTVSPost2010Prop47
 90
       50
102
RTVSPost2010PropOp47
 70
     1
102
RTVSPost2010Prop48
 90
       50
102
RTVSPost2010PropOp48
 70
     1
102
RTVSPost2010Prop49
280
     0
102
RTVSPost2010PropOp49
 70
     1
102
RTVSPost2010Prop50
 90
       50
102
RTVSPost2010PropOp50
 70
     1
102
RTVSPost2010Prop51ColorIndex
 90
      256
102
RTVSPost2010Prop51ColorRGB
 90
-16777216
102
RTVSPost2010PropOp51
 70
     0
102
RTVSPost2010Prop52
140
1.0
102
RTVSPost2010PropOp52
 70
     0
102
RTVSPost2010Prop53
 90
        2
102
RTVSPost2010PropOp53
 70
     1
102
RTVSPost2010Prop54
  1
strokes_ogs.tif
102
RTVSPost2010PropOp54
 70
     1
102
RTVSPost2010Prop55
280
     0
102
RTVSPost2010PropOp55
 70
     1
102
RTVSPost2010Prop56
140
1.0
102
RTVSPost2010PropOp56
 70
     1
102
RTVSPost2010Prop57
140
1.0
102
RTVSPost2010PropOp57
 70
     1
102
RTVSPropertyOp0
 70
     1
102
RTVSPropertyOp1
 70
     1
102
RTVSPropertyOp2
 70
     1
102
RTVSPropertyOp3
 70
     1
102
RTVSPropertyOp4
 70
     1
102
RTVSPropertyOp5
 70
     1
102
RTVSPropertyOp6
 70
     1
102
RTVSPropertyOp7
 70
     1
102
RTVSPropertyOp8
 70
     1
102
RTVSPropertyOp9
 70
     1
102
RTVSPropertyOp10
 70
     1
102
RTVSPropertyOp11
 70
     1
102
RTVSPropertyOp12
 70
     1
102
RTVSPropertyOp13
 70
     1
102
RTVSPropertyOp14
 70
     1
102
RTVSPropertyOp15
 70
     1
102
RTVSPropertyOp16
 70
     1
102
RTVSPropertyOp17
 70
     1
102
RTVSPropertyOp18
 70
     1
102
RTVSPropertyOp19
 70
     1
102
RTVSPropertyOp20
 70
     1
102
RTVSPropertyOp21
 70
     1
102
RTVSPropertyOp22
 70
     1
102
RTVSPropertyOp23
 70
     1
102
RTVSPropertyOp24
 70
     1
102
RTVSPropertyOp25
 70
     1
102
RTVSPropertyOp26
 70
     1
102
RTVSPropertyOp27
 70
     1
102
RTVSPropertyOp28
 70
     1
102
RTVSPropertyOp29
 70
     1
102
RTVSPropertyOp30
 70
     1
102
RTVSPropertyOp31
 70
     1
102
RTVSPropertyOp32
 70
     1
102
RTVSPropertyOp33
 70
     1
102
RTVSPropertyOp34
 70
     1
102
RTVSPropertyOp35
 70
     1
102
RTVSPropertyOp36
 70
     1
102
RTVSPropertyOp37
 70
     1
102
RTVSPropertyOp38
 70
     1
102
RTVSPropertyOp39
 70
     1
102
RTVSPropertyOp40
 70
     1
102
RTVSPropertyOp41
 70
     1
102
RTVSPropertyOp42
 70
     1
102
RTVSPropertyOp43
 70
     1
102
RTVSPropertyOp44
 70
     1
102
RTVSPropertyOp45
 70
     1
102
RTVSPropertyOp46
 70
     1
102
RTVSPropertyOp47
 70
     1
102
RTVSPropertyOp48
 70
     1
102
RTVSPropertyOp49
 70
     1
102
RTVSPropertyOp50
 70
     1
102
RTVSPropertyOp51
 70
     0
102
RTVSPropertyOp52
 70
     0
102
RTVSPropertyOp53
 70
     1
102
RTVSPropertyOp54
 70
     1
102
RTVSPropertyOp55
 70
     1
102
RTVSPropertyOp56
 70
     1
102
RTVSPropertyOp57
 70
     1
102
RTVSPropertyOp58
 70
     1
102
RTVSPropertyOp59
 70
     1
102
RTVSPropertyOp60
 70
     1
102
RTVSPropertyOp61
 70
     1
102
RTVSPropertyOp62
 70
     1
  0
XRECORD
  5
4A01
102
{ACAD_REACTORS
330
4A00
102
}
330
4A00
100
AcDbXrecord
280
     1
102
RTVSPost2010Prop28
280
     0
102
RTVSPost2010PropOp28
 70
     1
102
RTVSPost2010Prop29
280
     1
102
RTVSPost2010PropOp29
 70
     1
102
RTVSPost2010Prop30
280
     1
102
RTVSPost2010PropOp30
 70
     1
102
RTVSPost2010Prop31
280
     0
102
RTVSPost2010PropOp31
 70
     1
102
RTVSPost2010Prop32
280
     0
102
RTVSPost2010PropOp32
 70
     1
102
RTVSPost2010Prop33
280
     0
102
RTVSPost2010PropOp33
 70
     1
102
RTVSPost2010Prop34
280
     0
102
RTVSPost2010PropOp34
 70
     1
102
RTVSPost2010Prop35
280
     0
102
RTVSPost2010PropOp35
 70
     1
102
RTVSPost2010Prop36
280
     0
102
RTVSPost2010PropOp36
 70
     1
102
RTVSPost2010Prop37
 90
       50
102
RTVSPost2010PropOp37
 70
     1
102
RTVSPost2010Prop38
140
0.0
102
RTVSPost2010PropOp38
 70
     1
102
RTVSPost2010Prop39
140
1.0
102
RTVSPost2010PropOp39
 70
     1
102
RTVSPost2010Prop40
 90
        0
102
RTVSPost2010PropOp40
 70
     1
102
RTVSPost2010Prop41ColorIndex
 90
       18
102
RTVSPost2010Prop41ColorRGB
 90
        0
102
RTVSPost2010PropOp41
 70
     1
102
RTVSPost2010Prop42
 90
       50
102
RTVSPost2010PropOp42
 70
     1
102
RTVSPost2010Prop43
 90
        3
102
RTVSPost2010PropOp43
 70
     1
102
RTVSPost2010Prop44ColorIndex
 90
        5
102
RTVSPost2010Prop44ColorRGB
 90
      255
102
RTVSPost2010PropOp44
 70
     1
102
RTVSPost2010Prop45
280
     0
102
RTVSPost2010PropOp45
 70
     1
102
RTVSPost2010Prop46
 90
       50
102
RTVSPost2010PropOp46
 70
     1
102
RTVSPost2010Prop47
 90
       50
102
RTVSPost2010PropOp47
 70
     1
102
RTVSPost2010Prop48
 90
       50
102
RTVSPost2010PropOp48
 70
     1
102
RTVSPost2010Prop49
280
     0
102
RTVSPost2010PropOp49
 70
     1
102
RTVSPost2010Prop50
 90
       50
102
RTVSPost2010PropOp50
 70
     1
102
RTVSPost2010Prop51ColorIndex
 90
      256
102
RTVSPost2010Prop51ColorRGB
 90
-16777216
102
RTVSPost2010PropOp51
 70
     0
102
RTVSPost2010Prop52
140
1.0
102
RTVSPost2010PropOp52
 70
     0
102
RTVSPost2010Prop53
 90
        2
102
RTVSPost2010PropOp53
 70
     1
102
RTVSPost2010Prop54
  1
strokes_ogs.tif
102
RTVSPost2010PropOp54
 70
     1
102
RTVSPost2010Prop55
280
     0
102
RTVSPost2010PropOp55
 70
     1
102
RTVSPost2010Prop56
140
1.0
102
RTVSPost2010PropOp56
 70
     1
102
RTVSPost2010Prop57
140
1.0
102
RTVSPost2010PropOp57
 70
     1
102
RTVSPropertyOp0
 70
     1
102
RTVSPropertyOp1
 70
     1
102
RTVSPropertyOp2
 70
     1
102
RTVSPropertyOp3
 70
     1
102
RTVSPropertyOp4
 70
     1
102
RTVSPropertyOp5
 70
     1
102
RTVSPropertyOp6
 70
     1
102
RTVSPropertyOp7
 70
     1
102
RTVSPropertyOp8
 70
     1
102
RTVSPropertyOp9
 70
     1
102
RTVSPropertyOp10
 70
     1
102
RTVSPropertyOp11
 70
     1
102
RTVSPropertyOp12
 70
     1
102
RTVSPropertyOp13
 70
     1
102
RTVSPropertyOp14
 70
     1
102
RTVSPropertyOp15
 70
     1
102
RTVSPropertyOp16
 70
     1
102
RTVSPropertyOp17
 70
     1
102
RTVSPropertyOp18
 70
     1
102
RTVSPropertyOp19
 70
     1
102
RTVSPropertyOp20
 70
     1
102
RTVSPropertyOp21
 70
     1
102
RTVSPropertyOp22
 70
     1
102
RTVSPropertyOp23
 70
     1
102
RTVSPropertyOp24
 70
     1
102
RTVSPropertyOp25
 70
     1
102
RTVSPropertyOp26
 70
     1
102
RTVSPropertyOp27
 70
     1
102
RTVSPropertyOp28
 70
     1
102
RTVSPropertyOp29
 70
     1
102
RTVSPropertyOp30
 70
     1
102
RTVSPropertyOp31
 70
     1
102
RTVSPropertyOp32
 70
     1
102
RTVSPropertyOp33
 70
     1
102
RTVSPropertyOp34
 70
     1
102
RTVSPropertyOp35
 70
     1
102
RTVSPropertyOp36
 70
     1
102
RTVSPropertyOp37
 70
     1
102
RTVSPropertyOp38
 70
     1
102
RTVSPropertyOp39
 70
     1
102
RTVSPropertyOp40
 70
     1
102
RTVSPropertyOp41
 70
     1
102
RTVSPropertyOp42
 70
     1
102
RTVSPropertyOp43
 70
     1
102
RTVSPropertyOp44
 70
     1
102
RTVSPropertyOp45
 70
     1
102
RTVSPropertyOp46
 70
     1
102
RTVSPropertyOp47
 70
     1
102
RTVSPropertyOp48
 70
     1
102
RTVSPropertyOp49
 70
     1
102
RTVSPropertyOp50
 70
     1
102
RTVSPropertyOp51
 70
     0
102
RTVSPropertyOp52
 70
     0
102
RTVSPropertyOp53
 70
     1
102
RTVSPropertyOp54
 70
     1
102
RTVSPropertyOp55
 70
     1
102
RTVSPropertyOp56
 70
     1
102
RTVSPropertyOp57
 70
     1
102
RTVSPropertyOp58
 70
     1
102
RTVSPropertyOp59
 70
     1
102
RTVSPropertyOp60
 70
     1
102
RTVSPropertyOp61
 70
     1
102
RTVSPropertyOp62
 70
     1
  0
XRECORD
  5
49F3
102
{ACAD_REACTORS
330
49F2
102
}
330
49F2
100
AcDbXrecord
280
     1
102
RTVSPost2010Prop28
280
     0
102
RTVSPost2010PropOp28
 70
     1
102
RTVSPost2010Prop29
280
     1
102
RTVSPost2010PropOp29
 70
     1
102
RTVSPost2010Prop30
280
     1
102
RTVSPost2010PropOp30
 70
     1
102
RTVSPost2010Prop31
280
     0
102
RTVSPost2010PropOp31
 70
     1
102
RTVSPost2010Prop32
280
     0
102
RTVSPost2010PropOp32
 70
     1
102
RTVSPost2010Prop33
280
     0
102
RTVSPost2010PropOp33
 70
     1
102
RTVSPost2010Prop34
280
     0
102
RTVSPost2010PropOp34
 70
     1
102
RTVSPost2010Prop35
280
     0
102
RTVSPost2010PropOp35
 70
     1
102
RTVSPost2010Prop36
280
     0
102
RTVSPost2010PropOp36
 70
     1
102
RTVSPost2010Prop37
 90
       50
102
RTVSPost2010PropOp37
 70
     1
102
RTVSPost2010Prop38
140
0.0
102
RTVSPost2010PropOp38
 70
     1
102
RTVSPost2010Prop39
140
1.0
102
RTVSPost2010PropOp39
 70
     1
102
RTVSPost2010Prop40
 90
        0
102
RTVSPost2010PropOp40
 70
     1
102
RTVSPost2010Prop41ColorIndex
 90
       18
102
RTVSPost2010Prop41ColorRGB
 90
        0
102
RTVSPost2010PropOp41
 70
     1
102
RTVSPost2010Prop42
 90
       50
102
RTVSPost2010PropOp42
 70
     1
102
RTVSPost2010Prop43
 90
        3
102
RTVSPost2010PropOp43
 70
     1
102
RTVSPost2010Prop44ColorIndex
 90
        5
102
RTVSPost2010Prop44ColorRGB
 90
      255
102
RTVSPost2010PropOp44
 70
     1
102
RTVSPost2010Prop45
280
     0
102
RTVSPost2010PropOp45
 70
     1
102
RTVSPost2010Prop46
 90
       50
102
RTVSPost2010PropOp46
 70
     1
102
RTVSPost2010Prop47
 90
       50
102
RTVSPost2010PropOp47
 70
     1
102
RTVSPost2010Prop48
 90
       50
102
RTVSPost2010PropOp48
 70
     1
102
RTVSPost2010Prop49
280
     0
102
RTVSPost2010PropOp49
 70
     1
102
RTVSPost2010Prop50
 90
       50
102
RTVSPost2010PropOp50
 70
     1
102
RTVSPost2010Prop51ColorIndex
 90
      256
102
RTVSPost2010Prop51ColorRGB
 90
-16777216
102
RTVSPost2010PropOp51
 70
     0
102
RTVSPost2010Prop52
140
1.0
102
RTVSPost2010PropOp52
 70
     0
102
RTVSPost2010Prop53
 90
        2
102
RTVSPost2010PropOp53
 70
     1
102
RTVSPost2010Prop54
  1
strokes_ogs.tif
102
RTVSPost2010PropOp54
 70
     1
102
RTVSPost2010Prop55
280
     0
102
RTVSPost2010PropOp55
 70
     1
102
RTVSPost2010Prop56
140
1.0
102
RTVSPost2010PropOp56
 70
     1
102
RTVSPost2010Prop57
140
1.0
102
RTVSPost2010PropOp57
 70
     1
102
RTVSPropertyOp0
 70
     1
102
RTVSPropertyOp1
 70
     1
102
RTVSPropertyOp2
 70
     1
102
RTVSPropertyOp3
 70
     1
102
RTVSPropertyOp4
 70
     1
102
RTVSPropertyOp5
 70
     1
102
RTVSPropertyOp6
 70
     1
102
RTVSPropertyOp7
 70
     1
102
RTVSPropertyOp8
 70
     1
102
RTVSPropertyOp9
 70
     1
102
RTVSPropertyOp10
 70
     1
102
RTVSPropertyOp11
 70
     1
102
RTVSPropertyOp12
 70
     1
102
RTVSPropertyOp13
 70
     1
102
RTVSPropertyOp14
 70
     1
102
RTVSPropertyOp15
 70
     1
102
RTVSPropertyOp16
 70
     1
102
RTVSPropertyOp17
 70
     1
102
RTVSPropertyOp18
 70
     1
102
RTVSPropertyOp19
 70
     1
102
RTVSPropertyOp20
 70
     1
102
RTVSPropertyOp21
 70
     1
102
RTVSPropertyOp22
 70
     1
102
RTVSPropertyOp23
 70
     1
102
RTVSPropertyOp24
 70
     1
102
RTVSPropertyOp25
 70
     1
102
RTVSPropertyOp26
 70
     1
102
RTVSPropertyOp27
 70
     1
102
RTVSPropertyOp28
 70
     1
102
RTVSPropertyOp29
 70
     1
102
RTVSPropertyOp30
 70
     1
102
RTVSPropertyOp31
 70
     1
102
RTVSPropertyOp32
 70
     1
102
RTVSPropertyOp33
 70
     1
102
RTVSPropertyOp34
 70
     1
102
RTVSPropertyOp35
 70
     1
102
RTVSPropertyOp36
 70
     1
102
RTVSPropertyOp37
 70
     1
102
RTVSPropertyOp38
 70
     1
102
RTVSPropertyOp39
 70
     1
102
RTVSPropertyOp40
 70
     1
102
RTVSPropertyOp41
 70
     1
102
RTVSPropertyOp42
 70
     1
102
RTVSPropertyOp43
 70
     1
102
RTVSPropertyOp44
 70
     1
102
RTVSPropertyOp45
 70
     1
102
RTVSPropertyOp46
 70
     1
102
RTVSPropertyOp47
 70
     1
102
RTVSPropertyOp48
 70
     1
102
RTVSPropertyOp49
 70
     1
102
RTVSPropertyOp50
 70
     1
102
RTVSPropertyOp51
 70
     0
102
RTVSPropertyOp52
 70
     0
102
RTVSPropertyOp53
 70
     1
102
RTVSPropertyOp54
 70
     1
102
RTVSPropertyOp55
 70
     1
102
RTVSPropertyOp56
 70
     1
102
RTVSPropertyOp57
 70
     1
102
RTVSPropertyOp58
 70
     1
102
RTVSPropertyOp59
 70
     1
102
RTVSPropertyOp60
 70
     1
102
RTVSPropertyOp61
 70
     1
102
RTVSPropertyOp62
 70
     1
  0
XRECORD
  5
49F7
102
{ACAD_REACTORS
330
49F6
102
}
330
49F6
100
AcDbXrecord
280
     1
102
RTVSPost2010Prop28
280
     0
102
RTVSPost2010PropOp28
 70
     1
102
RTVSPost2010Prop29
280
     1
102
RTVSPost2010PropOp29
 70
     1
102
RTVSPost2010Prop30
280
     1
102
RTVSPost2010PropOp30
 70
     1
102
RTVSPost2010Prop31
280
     0
102
RTVSPost2010PropOp31
 70
     1
102
RTVSPost2010Prop32
280
     0
102
RTVSPost2010PropOp32
 70
     1
102
RTVSPost2010Prop33
280
     0
102
RTVSPost2010PropOp33
 70
     1
102
RTVSPost2010Prop34
280
     0
102
RTVSPost2010PropOp34
 70
     1
102
RTVSPost2010Prop35
280
     0
102
RTVSPost2010PropOp35
 70
     1
102
RTVSPost2010Prop36
280
     0
102
RTVSPost2010PropOp36
 70
     1
102
RTVSPost2010Prop37
 90
       50
102
RTVSPost2010PropOp37
 70
     1
102
RTVSPost2010Prop38
140
0.0
102
RTVSPost2010PropOp38
 70
     1
102
RTVSPost2010Prop39
140
1.0
102
RTVSPost2010PropOp39
 70
     1
102
RTVSPost2010Prop40
 90
        0
102
RTVSPost2010PropOp40
 70
     1
102
RTVSPost2010Prop41ColorIndex
 90
       18
102
RTVSPost2010Prop41ColorRGB
 90
        0
102
RTVSPost2010PropOp41
 70
     1
102
RTVSPost2010Prop42
 90
       50
102
RTVSPost2010PropOp42
 70
     1
102
RTVSPost2010Prop43
 90
        3
102
RTVSPost2010PropOp43
 70
     1
102
RTVSPost2010Prop44ColorIndex
 90
        5
102
RTVSPost2010Prop44ColorRGB
 90
      255
102
RTVSPost2010PropOp44
 70
     1
102
RTVSPost2010Prop45
280
     0
102
RTVSPost2010PropOp45
 70
     1
102
RTVSPost2010Prop46
 90
       50
102
RTVSPost2010PropOp46
 70
     1
102
RTVSPost2010Prop47
 90
       50
102
RTVSPost2010PropOp47
 70
     1
102
RTVSPost2010Prop48
 90
       50
102
RTVSPost2010PropOp48
 70
     1
102
RTVSPost2010Prop49
280
     0
102
RTVSPost2010PropOp49
 70
     1
102
RTVSPost2010Prop50
 90
       50
102
RTVSPost2010PropOp50
 70
     1
102
RTVSPost2010Prop51ColorIndex
 90
      256
102
RTVSPost2010Prop51ColorRGB
 90
-16777216
102
RTVSPost2010PropOp51
 70
     0
102
RTVSPost2010Prop52
140
1.0
102
RTVSPost2010PropOp52
 70
     0
102
RTVSPost2010Prop53
 90
        2
102
RTVSPost2010PropOp53
 70
     1
102
RTVSPost2010Prop54
  1
strokes_ogs.tif
102
RTVSPost2010PropOp54
 70
     1
102
RTVSPost2010Prop55
280
     0
102
RTVSPost2010PropOp55
 70
     1
102
RTVSPost2010Prop56
140
1.0
102
RTVSPost2010PropOp56
 70
     1
102
RTVSPost2010Prop57
140
1.0
102
RTVSPost2010PropOp57
 70
     1
102
RTVSPropertyOp0
 70
     1
102
RTVSPropertyOp1
 70
     1
102
RTVSPropertyOp2
 70
     1
102
RTVSPropertyOp3
 70
     1
102
RTVSPropertyOp4
 70
     1
102
RTVSPropertyOp5
 70
     1
102
RTVSPropertyOp6
 70
     1
102
RTVSPropertyOp7
 70
     1
102
RTVSPropertyOp8
 70
     1
102
RTVSPropertyOp9
 70
     1
102
RTVSPropertyOp10
 70
     1
102
RTVSPropertyOp11
 70
     1
102
RTVSPropertyOp12
 70
     1
102
RTVSPropertyOp13
 70
     1
102
RTVSPropertyOp14
 70
     1
102
RTVSPropertyOp15
 70
     1
102
RTVSPropertyOp16
 70
     1
102
RTVSPropertyOp17
 70
     1
102
RTVSPropertyOp18
 70
     1
102
RTVSPropertyOp19
 70
     1
102
RTVSPropertyOp20
 70
     1
102
RTVSPropertyOp21
 70
     1
102
RTVSPropertyOp22
 70
     1
102
RTVSPropertyOp23
 70
     1
102
RTVSPropertyOp24
 70
     1
102
RTVSPropertyOp25
 70
     1
102
RTVSPropertyOp26
 70
     1
102
RTVSPropertyOp27
 70
     1
102
RTVSPropertyOp28
 70
     1
102
RTVSPropertyOp29
 70
     1
102
RTVSPropertyOp30
 70
     1
102
RTVSPropertyOp31
 70
     1
102
RTVSPropertyOp32
 70
     1
102
RTVSPropertyOp33
 70
     1
102
RTVSPropertyOp34
 70
     1
102
RTVSPropertyOp35
 70
     1
102
RTVSPropertyOp36
 70
     1
102
RTVSPropertyOp37
 70
     1
102
RTVSPropertyOp38
 70
     1
102
RTVSPropertyOp39
 70
     1
102
RTVSPropertyOp40
 70
     1
102
RTVSPropertyOp41
 70
     1
102
RTVSPropertyOp42
 70
     1
102
RTVSPropertyOp43
 70
     1
102
RTVSPropertyOp44
 70
     1
102
RTVSPropertyOp45
 70
     1
102
RTVSPropertyOp46
 70
     1
102
RTVSPropertyOp47
 70
     1
102
RTVSPropertyOp48
 70
     1
102
RTVSPropertyOp49
 70
     1
102
RTVSPropertyOp50
 70
     1
102
RTVSPropertyOp51
 70
     0
102
RTVSPropertyOp52
 70
     0
102
RTVSPropertyOp53
 70
     1
102
RTVSPropertyOp54
 70
     1
102
RTVSPropertyOp55
 70
     1
102
RTVSPropertyOp56
 70
     1
102
RTVSPropertyOp57
 70
     1
102
RTVSPropertyOp58
 70
     1
102
RTVSPropertyOp59
 70
     1
102
RTVSPropertyOp60
 70
     1
102
RTVSPropertyOp61
 70
     1
102
RTVSPropertyOp62
 70
     1
  0
XRECORD
  5
4A11
102
{ACAD_REACTORS
330
4A10
102
}
330
4A10
100
AcDbXrecord
280
     1
102
RTVSPost2010Prop28
280
     0
102
RTVSPost2010PropOp28
 70
     1
102
RTVSPost2010Prop29
280
     1
102
RTVSPost2010PropOp29
 70
     1
102
RTVSPost2010Prop30
280
     1
102
RTVSPost2010PropOp30
 70
     1
102
RTVSPost2010Prop31
280
     0
102
RTVSPost2010PropOp31
 70
     1
102
RTVSPost2010Prop32
280
     0
102
RTVSPost2010PropOp32
 70
     1
102
RTVSPost2010Prop33
280
     0
102
RTVSPost2010PropOp33
 70
     1
102
RTVSPost2010Prop34
280
     0
102
RTVSPost2010PropOp34
 70
     1
102
RTVSPost2010Prop35
280
     0
102
RTVSPost2010PropOp35
 70
     1
102
RTVSPost2010Prop36
280
     0
102
RTVSPost2010PropOp36
 70
     1
102
RTVSPost2010Prop37
 90
       50
102
RTVSPost2010PropOp37
 70
     0
102
RTVSPost2010Prop38
140
0.0
102
RTVSPost2010PropOp38
 70
     0
102
RTVSPost2010Prop39
140
1.0
102
RTVSPost2010PropOp39
 70
     0
102
RTVSPost2010Prop40
 90
        0
102
RTVSPost2010PropOp40
 70
     0
102
RTVSPost2010Prop41ColorIndex
 90
       18
102
RTVSPost2010Prop41ColorRGB
 90
        0
102
RTVSPost2010PropOp41
 70
     0
102
RTVSPost2010Prop42
 90
       50
102
RTVSPost2010PropOp42
 70
     0
102
RTVSPost2010Prop43
 90
        3
102
RTVSPost2010PropOp43
 70
     0
102
RTVSPost2010Prop44ColorIndex
 90
        5
102
RTVSPost2010Prop44ColorRGB
 90
      255
102
RTVSPost2010PropOp44
 70
     0
102
RTVSPost2010Prop45
280
     0
102
RTVSPost2010PropOp45
 70
     1
102
RTVSPost2010Prop46
 90
       50
102
RTVSPost2010PropOp46
 70
     0
102
RTVSPost2010Prop47
 90
       50
102
RTVSPost2010PropOp47
 70
     0
102
RTVSPost2010Prop48
 90
       50
102
RTVSPost2010PropOp48
 70
     0
102
RTVSPost2010Prop49
280
     0
102
RTVSPost2010PropOp49
 70
     1
102
RTVSPost2010Prop50
 90
       50
102
RTVSPost2010PropOp50
 70
     0
102
RTVSPost2010Prop51ColorIndex
 90
      256
102
RTVSPost2010Prop51ColorRGB
 90
-16777216
102
RTVSPost2010PropOp51
 70
     0
102
RTVSPost2010Prop52
140
1.0
102
RTVSPost2010PropOp52
 70
     0
102
RTVSPost2010Prop53
 90
        2
102
RTVSPost2010PropOp53
 70
     0
102
RTVSPost2010Prop54
  1
strokes_ogs.tif
102
RTVSPost2010PropOp54
 70
     0
102
RTVSPost2010Prop55
280
     0
102
RTVSPost2010PropOp55
 70
     1
102
RTVSPost2010Prop56
140
1.0
102
RTVSPost2010PropOp56
 70
     0
102
RTVSPost2010Prop57
140
1.0
102
RTVSPost2010PropOp57
 70
     0
102
RTVSPropertyOp0
 70
     0
102
RTVSPropertyOp1
 70
     0
102
RTVSPropertyOp2
 70
     0
102
RTVSPropertyOp3
 70
     0
102
RTVSPropertyOp4
 70
     0
102
RTVSPropertyOp5
 70
     0
102
RTVSPropertyOp6
 70
     0
102
RTVSPropertyOp7
 70
     0
102
RTVSPropertyOp8
 70
     0
102
RTVSPropertyOp9
 70
     0
102
RTVSPropertyOp10
 70
     0
102
RTVSPropertyOp11
 70
     0
102
RTVSPropertyOp12
 70
     0
102
RTVSPropertyOp13
 70
     0
102
RTVSPropertyOp14
 70
     2
102
RTVSPropertyOp15
 70
     0
102
RTVSPropertyOp16
 70
     0
102
RTVSPropertyOp17
 70
     0
102
RTVSPropertyOp18
 70
     0
102
RTVSPropertyOp19
 70
     0
102
RTVSPropertyOp20
 70
     0
102
RTVSPropertyOp21
 70
     0
102
RTVSPropertyOp22
 70
     0
102
RTVSPropertyOp23
 70
     0
102
RTVSPropertyOp24
 70
     0
102
RTVSPropertyOp25
 70
     0
102
RTVSPropertyOp26
 70
     0
102
RTVSPropertyOp27
 70
     0
102
RTVSPropertyOp28
 70
     1
102
RTVSPropertyOp29
 70
     1
102
RTVSPropertyOp30
 70
     1
102
RTVSPropertyOp31
 70
     1
102
RTVSPropertyOp32
 70
     1
102
RTVSPropertyOp33
 70
     1
102
RTVSPropertyOp34
 70
     1
102
RTVSPropertyOp35
 70
     1
102
RTVSPropertyOp36
 70
     1
102
RTVSPropertyOp37
 70
     0
102
RTVSPropertyOp38
 70
     0
102
RTVSPropertyOp39
 70
     0
102
RTVSPropertyOp40
 70
     0
102
RTVSPropertyOp41
 70
     0
102
RTVSPropertyOp42
 70
     0
102
RTVSPropertyOp43
 70
     0
102
RTVSPropertyOp44
 70
     0
102
RTVSPropertyOp45
 70
     1
102
RTVSPropertyOp46
 70
     0
102
RTVSPropertyOp47
 70
     0
102
RTVSPropertyOp48
 70
     0
102
RTVSPropertyOp49
 70
     1
102
RTVSPropertyOp50
 70
     0
102
RTVSPropertyOp51
 70
     0
102
RTVSPropertyOp52
 70
     0
102
RTVSPropertyOp53
 70
     0
102
RTVSPropertyOp54
 70
     0
102
RTVSPropertyOp55
 70
     1
102
RTVSPropertyOp56
 70
     0
102
RTVSPropertyOp57
 70
     0
102
RTVSPropertyOp58
 70
     0
102
RTVSPropertyOp59
 70
     0
102
RTVSPropertyOp60
 70
     0
102
RTVSPropertyOp61
 70
     0
102
RTVSPropertyOp62
 70
     0
  0
XRECORD
  5
49FF
102
{ACAD_REACTORS
330
49FE
102
}
330
49FE
100
AcDbXrecord
280
     1
102
RTVSPost2010Prop28
280
     0
102
RTVSPost2010PropOp28
 70
     1
102
RTVSPost2010Prop29
280
     1
102
RTVSPost2010PropOp29
 70
     1
102
RTVSPost2010Prop30
280
     1
102
RTVSPost2010PropOp30
 70
     1
102
RTVSPost2010Prop31
280
     0
102
RTVSPost2010PropOp31
 70
     1
102
RTVSPost2010Prop32
280
     0
102
RTVSPost2010PropOp32
 70
     1
102
RTVSPost2010Prop33
280
     0
102
RTVSPost2010PropOp33
 70
     1
102
RTVSPost2010Prop34
280
     0
102
RTVSPost2010PropOp34
 70
     1
102
RTVSPost2010Prop35
280
     0
102
RTVSPost2010PropOp35
 70
     1
102
RTVSPost2010Prop36
280
     0
102
RTVSPost2010PropOp36
 70
     1
102
RTVSPost2010Prop37
 90
       50
102
RTVSPost2010PropOp37
 70
     1
102
RTVSPost2010Prop38
140
0.0
102
RTVSPost2010PropOp38
 70
     1
102
RTVSPost2010Prop39
140
1.0
102
RTVSPost2010PropOp39
 70
     1
102
RTVSPost2010Prop40
 90
        0
102
RTVSPost2010PropOp40
 70
     1
102
RTVSPost2010Prop41ColorIndex
 90
       18
102
RTVSPost2010Prop41ColorRGB
 90
        0
102
RTVSPost2010PropOp41
 70
     1
102
RTVSPost2010Prop42
 90
       50
102
RTVSPost2010PropOp42
 70
     1
102
RTVSPost2010Prop43
 90
        3
102
RTVSPost2010PropOp43
 70
     1
102
RTVSPost2010Prop44ColorIndex
 90
        5
102
RTVSPost2010Prop44ColorRGB
 90
      255
102
RTVSPost2010PropOp44
 70
     1
102
RTVSPost2010Prop45
280
     0
102
RTVSPost2010PropOp45
 70
     1
102
RTVSPost2010Prop46
 90
       50
102
RTVSPost2010PropOp46
 70
     1
102
RTVSPost2010Prop47
 90
       50
102
RTVSPost2010PropOp47
 70
     1
102
RTVSPost2010Prop48
 90
       50
102
RTVSPost2010PropOp48
 70
     1
102
RTVSPost2010Prop49
280
     0
102
RTVSPost2010PropOp49
 70
     1
102
RTVSPost2010Prop50
 90
       50
102
RTVSPost2010PropOp50
 70
     1
102
RTVSPost2010Prop51ColorIndex
 90
      256
102
RTVSPost2010Prop51ColorRGB
 90
-16777216
102
RTVSPost2010PropOp51
 70
     0
102
RTVSPost2010Prop52
140
1.0
102
RTVSPost2010PropOp52
 70
     0
102
RTVSPost2010Prop53
 90
        2
102
RTVSPost2010PropOp53
 70
     1
102
RTVSPost2010Prop54
  1
strokes_ogs.tif
102
RTVSPost2010PropOp54
 70
     1
102
RTVSPost2010Prop55
280
     0
102
RTVSPost2010PropOp55
 70
     1
102
RTVSPost2010Prop56
140
1.0
102
RTVSPost2010PropOp56
 70
     1
102
RTVSPost2010Prop57
140
1.0
102
RTVSPost2010PropOp57
 70
     1
102
RTVSPropertyOp0
 70
     1
102
RTVSPropertyOp1
 70
     1
102
RTVSPropertyOp2
 70
     1
102
RTVSPropertyOp3
 70
     1
102
RTVSPropertyOp4
 70
     1
102
RTVSPropertyOp5
 70
     1
102
RTVSPropertyOp6
 70
     1
102
RTVSPropertyOp7
 70
     1
102
RTVSPropertyOp8
 70
     1
102
RTVSPropertyOp9
 70
     1
102
RTVSPropertyOp10
 70
     1
102
RTVSPropertyOp11
 70
     1
102
RTVSPropertyOp12
 70
     1
102
RTVSPropertyOp13
 70
     1
102
RTVSPropertyOp14
 70
     1
102
RTVSPropertyOp15
 70
     1
102
RTVSPropertyOp16
 70
     1
102
RTVSPropertyOp17
 70
     1
102
RTVSPropertyOp18
 70
     1
102
RTVSPropertyOp19
 70
     1
102
RTVSPropertyOp20
 70
     1
102
RTVSPropertyOp21
 70
     1
102
RTVSPropertyOp22
 70
     1
102
RTVSPropertyOp23
 70
     1
102
RTVSPropertyOp24
 70
     1
102
RTVSPropertyOp25
 70
     1
102
RTVSPropertyOp26
 70
     1
102
RTVSPropertyOp27
 70
     1
102
RTVSPropertyOp28
 70
     1
102
RTVSPropertyOp29
 70
     1
102
RTVSPropertyOp30
 70
     1
102
RTVSPropertyOp31
 70
     1
102
RTVSPropertyOp32
 70
     1
102
RTVSPropertyOp33
 70
     1
102
RTVSPropertyOp34
 70
     1
102
RTVSPropertyOp35
 70
     1
102
RTVSPropertyOp36
 70
     1
102
RTVSPropertyOp37
 70
     1
102
RTVSPropertyOp38
 70
     1
102
RTVSPropertyOp39
 70
     1
102
RTVSPropertyOp40
 70
     1
102
RTVSPropertyOp41
 70
     1
102
RTVSPropertyOp42
 70
     1
102
RTVSPropertyOp43
 70
     1
102
RTVSPropertyOp44
 70
     1
102
RTVSPropertyOp45
 70
     1
102
RTVSPropertyOp46
 70
     1
102
RTVSPropertyOp47
 70
     1
102
RTVSPropertyOp48
 70
     1
102
RTVSPropertyOp49
 70
     1
102
RTVSPropertyOp50
 70
     1
102
RTVSPropertyOp51
 70
     0
102
RTVSPropertyOp52
 70
     0
102
RTVSPropertyOp53
 70
     1
102
RTVSPropertyOp54
 70
     1
102
RTVSPropertyOp55
 70
     1
102
RTVSPropertyOp56
 70
     1
102
RTVSPropertyOp57
 70
     1
102
RTVSPropertyOp58
 70
     1
102
RTVSPropertyOp59
 70
     1
102
RTVSPropertyOp60
 70
     1
102
RTVSPropertyOp61
 70
     1
102
RTVSPropertyOp62
 70
     1
  0
XRECORD
  5
49E3
102
{ACAD_REACTORS
330
49E2
102
}
330
49E2
100
AcDbXrecord
280
     1
102
RTVSPost2010Prop28
280
     0
102
RTVSPost2010PropOp28
 70
     1
102
RTVSPost2010Prop29
280
     1
102
RTVSPost2010PropOp29
 70
     1
102
RTVSPost2010Prop30
280
     1
102
RTVSPost2010PropOp30
 70
     1
102
RTVSPost2010Prop31
280
     0
102
RTVSPost2010PropOp31
 70
     1
102
RTVSPost2010Prop32
280
     0
102
RTVSPost2010PropOp32
 70
     1
102
RTVSPost2010Prop33
280
     0
102
RTVSPost2010PropOp33
 70
     1
102
RTVSPost2010Prop34
280
     0
102
RTVSPost2010PropOp34
 70
     1
102
RTVSPost2010Prop35
280
     0
102
RTVSPost2010PropOp35
 70
     1
102
RTVSPost2010Prop36
280
     0
102
RTVSPost2010PropOp36
 70
     1
102
RTVSPost2010Prop37
 90
       50
102
RTVSPost2010PropOp37
 70
     1
102
RTVSPost2010Prop38
140
0.0
102
RTVSPost2010PropOp38
 70
     1
102
RTVSPost2010Prop39
140
1.0
102
RTVSPost2010PropOp39
 70
     1
102
RTVSPost2010Prop40
 90
        0
102
RTVSPost2010PropOp40
 70
     1
102
RTVSPost2010Prop41ColorIndex
 90
       18
102
RTVSPost2010Prop41ColorRGB
 90
        0
102
RTVSPost2010PropOp41
 70
     1
102
RTVSPost2010Prop42
 90
       50
102
RTVSPost2010PropOp42
 70
     1
102
RTVSPost2010Prop43
 90
        3
102
RTVSPost2010PropOp43
 70
     1
102
RTVSPost2010Prop44ColorIndex
 90
        5
102
RTVSPost2010Prop44ColorRGB
 90
      255
102
RTVSPost2010PropOp44
 70
     1
102
RTVSPost2010Prop45
280
     0
102
RTVSPost2010PropOp45
 70
     1
102
RTVSPost2010Prop46
 90
       50
102
RTVSPost2010PropOp46
 70
     1
102
RTVSPost2010Prop47
 90
       50
102
RTVSPost2010PropOp47
 70
     1
102
RTVSPost2010Prop48
 90
       50
102
RTVSPost2010PropOp48
 70
     1
102
RTVSPost2010Prop49
280
     0
102
RTVSPost2010PropOp49
 70
     1
102
RTVSPost2010Prop50
 90
       50
102
RTVSPost2010PropOp50
 70
     1
102
RTVSPost2010Prop51ColorIndex
 90
      256
102
RTVSPost2010Prop51ColorRGB
 90
-16777216
102
RTVSPost2010PropOp51
 70
     0
102
RTVSPost2010Prop52
140
1.0
102
RTVSPost2010PropOp52
 70
     0
102
RTVSPost2010Prop53
 90
        2
102
RTVSPost2010PropOp53
 70
     1
102
RTVSPost2010Prop54
  1
strokes_ogs.tif
102
RTVSPost2010PropOp54
 70
     1
102
RTVSPost2010Prop55
280
     0
102
RTVSPost2010PropOp55
 70
     1
102
RTVSPost2010Prop56
140
1.0
102
RTVSPost2010PropOp56
 70
     1
102
RTVSPost2010Prop57
140
1.0
102
RTVSPost2010PropOp57
 70
     1
102
RTVSPropertyOp0
 70
     1
102
RTVSPropertyOp1
 70
     1
102
RTVSPropertyOp2
 70
     1
102
RTVSPropertyOp3
 70
     1
102
RTVSPropertyOp4
 70
     1
102
RTVSPropertyOp5
 70
     1
102
RTVSPropertyOp6
 70
     1
102
RTVSPropertyOp7
 70
     1
102
RTVSPropertyOp8
 70
     1
102
RTVSPropertyOp9
 70
     1
102
RTVSPropertyOp10
 70
     1
102
RTVSPropertyOp11
 70
     1
102
RTVSPropertyOp12
 70
     1
102
RTVSPropertyOp13
 70
     1
102
RTVSPropertyOp14
 70
     1
102
RTVSPropertyOp15
 70
     1
102
RTVSPropertyOp16
 70
     1
102
RTVSPropertyOp17
 70
     1
102
RTVSPropertyOp18
 70
     1
102
RTVSPropertyOp19
 70
     1
102
RTVSPropertyOp20
 70
     1
102
RTVSPropertyOp21
 70
     1
102
RTVSPropertyOp22
 70
     1
102
RTVSPropertyOp23
 70
     1
102
RTVSPropertyOp24
 70
     1
102
RTVSPropertyOp25
 70
     1
102
RTVSPropertyOp26
 70
     1
102
RTVSPropertyOp27
 70
     1
102
RTVSPropertyOp28
 70
     1
102
RTVSPropertyOp29
 70
     1
102
RTVSPropertyOp30
 70
     1
102
RTVSPropertyOp31
 70
     1
102
RTVSPropertyOp32
 70
     1
102
RTVSPropertyOp33
 70
     1
102
RTVSPropertyOp34
 70
     1
102
RTVSPropertyOp35
 70
     1
102
RTVSPropertyOp36
 70
     1
102
RTVSPropertyOp37
 70
     1
102
RTVSPropertyOp38
 70
     1
102
RTVSPropertyOp39
 70
     1
102
RTVSPropertyOp40
 70
     1
102
RTVSPropertyOp41
 70
     1
102
RTVSPropertyOp42
 70
     1
102
RTVSPropertyOp43
 70
     1
102
RTVSPropertyOp44
 70
     1
102
RTVSPropertyOp45
 70
     1
102
RTVSPropertyOp46
 70
     1
102
RTVSPropertyOp47
 70
     1
102
RTVSPropertyOp48
 70
     1
102
RTVSPropertyOp49
 70
     1
102
RTVSPropertyOp50
 70
     1
102
RTVSPropertyOp51
 70
     0
102
RTVSPropertyOp52
 70
     0
102
RTVSPropertyOp53
 70
     1
102
RTVSPropertyOp54
 70
     1
102
RTVSPropertyOp55
 70
     1
102
RTVSPropertyOp56
 70
     1
102
RTVSPropertyOp57
 70
     1
102
RTVSPropertyOp58
 70
     1
102
RTVSPropertyOp59
 70
     1
102
RTVSPropertyOp60
 70
     1
102
RTVSPropertyOp61
 70
     1
102
RTVSPropertyOp62
 70
     1
  0
XRECORD
  5
49E5
102
{ACAD_REACTORS
330
49E4
102
}
330
49E4
100
AcDbXrecord
280
     1
102
RTVSPost2010Prop28
280
     0
102
RTVSPost2010PropOp28
 70
     1
102
RTVSPost2010Prop29
280
     1
102
RTVSPost2010PropOp29
 70
     1
102
RTVSPost2010Prop30
280
     1
102
RTVSPost2010PropOp30
 70
     1
102
RTVSPost2010Prop31
280
     0
102
RTVSPost2010PropOp31
 70
     1
102
RTVSPost2010Prop32
280
     0
102
RTVSPost2010PropOp32
 70
     1
102
RTVSPost2010Prop33
280
     0
102
RTVSPost2010PropOp33
 70
     1
102
RTVSPost2010Prop34
280
     0
102
RTVSPost2010PropOp34
 70
     1
102
RTVSPost2010Prop35
280
     0
102
RTVSPost2010PropOp35
 70
     1
102
RTVSPost2010Prop36
280
     0
102
RTVSPost2010PropOp36
 70
     1
102
RTVSPost2010Prop37
 90
       50
102
RTVSPost2010PropOp37
 70
     1
102
RTVSPost2010Prop38
140
0.0
102
RTVSPost2010PropOp38
 70
     1
102
RTVSPost2010Prop39
140
1.0
102
RTVSPost2010PropOp39
 70
     1
102
RTVSPost2010Prop40
 90
        0
102
RTVSPost2010PropOp40
 70
     1
102
RTVSPost2010Prop41ColorIndex
 90
       18
102
RTVSPost2010Prop41ColorRGB
 90
        0
102
RTVSPost2010PropOp41
 70
     1
102
RTVSPost2010Prop42
 90
       50
102
RTVSPost2010PropOp42
 70
     1
102
RTVSPost2010Prop43
 90
        3
102
RTVSPost2010PropOp43
 70
     1
102
RTVSPost2010Prop44ColorIndex
 90
        5
102
RTVSPost2010Prop44ColorRGB
 90
      255
102
RTVSPost2010PropOp44
 70
     1
102
RTVSPost2010Prop45
280
     0
102
RTVSPost2010PropOp45
 70
     1
102
RTVSPost2010Prop46
 90
       50
102
RTVSPost2010PropOp46
 70
     1
102
RTVSPost2010Prop47
 90
       50
102
RTVSPost2010PropOp47
 70
     1
102
RTVSPost2010Prop48
 90
       50
102
RTVSPost2010PropOp48
 70
     1
102
RTVSPost2010Prop49
280
     0
102
RTVSPost2010PropOp49
 70
     1
102
RTVSPost2010Prop50
 90
       50
102
RTVSPost2010PropOp50
 70
     1
102
RTVSPost2010Prop51ColorIndex
 90
      256
102
RTVSPost2010Prop51ColorRGB
 90
-16777216
102
RTVSPost2010PropOp51
 70
     0
102
RTVSPost2010Prop52
140
1.0
102
RTVSPost2010PropOp52
 70
     0
102
RTVSPost2010Prop53
 90
        2
102
RTVSPost2010PropOp53
 70
     1
102
RTVSPost2010Prop54
  1
strokes_ogs.tif
102
RTVSPost2010PropOp54
 70
     1
102
RTVSPost2010Prop55
280
     0
102
RTVSPost2010PropOp55
 70
     1
102
RTVSPost2010Prop56
140
1.0
102
RTVSPost2010PropOp56
 70
     1
102
RTVSPost2010Prop57
140
1.0
102
RTVSPost2010PropOp57
 70
     1
102
RTVSPropertyOp0
 70
     1
102
RTVSPropertyOp1
 70
     1
102
RTVSPropertyOp2
 70
     1
102
RTVSPropertyOp3
 70
     1
102
RTVSPropertyOp4
 70
     1
102
RTVSPropertyOp5
 70
     1
102
RTVSPropertyOp6
 70
     1
102
RTVSPropertyOp7
 70
     1
102
RTVSPropertyOp8
 70
     1
102
RTVSPropertyOp9
 70
     1
102
RTVSPropertyOp10
 70
     1
102
RTVSPropertyOp11
 70
     1
102
RTVSPropertyOp12
 70
     1
102
RTVSPropertyOp13
 70
     1
102
RTVSPropertyOp14
 70
     1
102
RTVSPropertyOp15
 70
     1
102
RTVSPropertyOp16
 70
     1
102
RTVSPropertyOp17
 70
     1
102
RTVSPropertyOp18
 70
     1
102
RTVSPropertyOp19
 70
     1
102
RTVSPropertyOp20
 70
     1
102
RTVSPropertyOp21
 70
     1
102
RTVSPropertyOp22
 70
     1
102
RTVSPropertyOp23
 70
     1
102
RTVSPropertyOp24
 70
     1
102
RTVSPropertyOp25
 70
     1
102
RTVSPropertyOp26
 70
     1
102
RTVSPropertyOp27
 70
     1
102
RTVSPropertyOp28
 70
     1
102
RTVSPropertyOp29
 70
     1
102
RTVSPropertyOp30
 70
     1
102
RTVSPropertyOp31
 70
     1
102
RTVSPropertyOp32
 70
     1
102
RTVSPropertyOp33
 70
     1
102
RTVSPropertyOp34
 70
     1
102
RTVSPropertyOp35
 70
     1
102
RTVSPropertyOp36
 70
     1
102
RTVSPropertyOp37
 70
     1
102
RTVSPropertyOp38
 70
     1
102
RTVSPropertyOp39
 70
     1
102
RTVSPropertyOp40
 70
     1
102
RTVSPropertyOp41
 70
     1
102
RTVSPropertyOp42
 70
     1
102
RTVSPropertyOp43
 70
     1
102
RTVSPropertyOp44
 70
     1
102
RTVSPropertyOp45
 70
     1
102
RTVSPropertyOp46
 70
     1
102
RTVSPropertyOp47
 70
     1
102
RTVSPropertyOp48
 70
     1
102
RTVSPropertyOp49
 70
     1
102
RTVSPropertyOp50
 70
     1
102
RTVSPropertyOp51
 70
     0
102
RTVSPropertyOp52
 70
     0
102
RTVSPropertyOp53
 70
     1
102
RTVSPropertyOp54
 70
     1
102
RTVSPropertyOp55
 70
     1
102
RTVSPropertyOp56
 70
     1
102
RTVSPropertyOp57
 70
     1
102
RTVSPropertyOp58
 70
     1
102
RTVSPropertyOp59
 70
     1
102
RTVSPropertyOp60
 70
     1
102
RTVSPropertyOp61
 70
     1
102
RTVSPropertyOp62
 70
     1
  0
XRECORD
  5
49E7
102
{ACAD_REACTORS
330
49E6
102
}
330
49E6
100
AcDbXrecord
280
     1
102
RTVSPost2010Prop28
280
     0
102
RTVSPost2010PropOp28
 70
     1
102
RTVSPost2010Prop29
280
     1
102
RTVSPost2010PropOp29
 70
     1
102
RTVSPost2010Prop30
280
     1
102
RTVSPost2010PropOp30
 70
     1
102
RTVSPost2010Prop31
280
     0
102
RTVSPost2010PropOp31
 70
     1
102
RTVSPost2010Prop32
280
     0
102
RTVSPost2010PropOp32
 70
     1
102
RTVSPost2010Prop33
280
     0
102
RTVSPost2010PropOp33
 70
     1
102
RTVSPost2010Prop34
280
     0
102
RTVSPost2010PropOp34
 70
     1
102
RTVSPost2010Prop35
280
     0
102
RTVSPost2010PropOp35
 70
     1
102
RTVSPost2010Prop36
280
     0
102
RTVSPost2010PropOp36
 70
     1
102
RTVSPost2010Prop37
 90
       50
102
RTVSPost2010PropOp37
 70
     1
102
RTVSPost2010Prop38
140
0.0
102
RTVSPost2010PropOp38
 70
     1
102
RTVSPost2010Prop39
140
1.0
102
RTVSPost2010PropOp39
 70
     1
102
RTVSPost2010Prop40
 90
        0
102
RTVSPost2010PropOp40
 70
     1
102
RTVSPost2010Prop41ColorIndex
 90
       18
102
RTVSPost2010Prop41ColorRGB
 90
        0
102
RTVSPost2010PropOp41
 70
     1
102
RTVSPost2010Prop42
 90
       50
102
RTVSPost2010PropOp42
 70
     1
102
RTVSPost2010Prop43
 90
        3
102
RTVSPost2010PropOp43
 70
     1
102
RTVSPost2010Prop44ColorIndex
 90
        5
102
RTVSPost2010Prop44ColorRGB
 90
      255
102
RTVSPost2010PropOp44
 70
     1
102
RTVSPost2010Prop45
280
     0
102
RTVSPost2010PropOp45
 70
     1
102
RTVSPost2010Prop46
 90
       50
102
RTVSPost2010PropOp46
 70
     1
102
RTVSPost2010Prop47
 90
       50
102
RTVSPost2010PropOp47
 70
     1
102
RTVSPost2010Prop48
 90
       50
102
RTVSPost2010PropOp48
 70
     1
102
RTVSPost2010Prop49
280
     0
102
RTVSPost2010PropOp49
 70
     1
102
RTVSPost2010Prop50
 90
       50
102
RTVSPost2010PropOp50
 70
     1
102
RTVSPost2010Prop51ColorIndex
 90
      256
102
RTVSPost2010Prop51ColorRGB
 90
-16777216
102
RTVSPost2010PropOp51
 70
     0
102
RTVSPost2010Prop52
140
1.0
102
RTVSPost2010PropOp52
 70
     0
102
RTVSPost2010Prop53
 90
        2
102
RTVSPost2010PropOp53
 70
     1
102
RTVSPost2010Prop54
  1
strokes_ogs.tif
102
RTVSPost2010PropOp54
 70
     1
102
RTVSPost2010Prop55
280
     0
102
RTVSPost2010PropOp55
 70
     1
102
RTVSPost2010Prop56
140
1.0
102
RTVSPost2010PropOp56
 70
     1
102
RTVSPost2010Prop57
140
1.0
102
RTVSPost2010PropOp57
 70
     1
102
RTVSPropertyOp0
 70
     1
102
RTVSPropertyOp1
 70
     1
102
RTVSPropertyOp2
 70
     1
102
RTVSPropertyOp3
 70
     1
102
RTVSPropertyOp4
 70
     1
102
RTVSPropertyOp5
 70
     1
102
RTVSPropertyOp6
 70
     1
102
RTVSPropertyOp7
 70
     1
102
RTVSPropertyOp8
 70
     1
102
RTVSPropertyOp9
 70
     1
102
RTVSPropertyOp10
 70
     1
102
RTVSPropertyOp11
 70
     1
102
RTVSPropertyOp12
 70
     1
102
RTVSPropertyOp13
 70
     1
102
RTVSPropertyOp14
 70
     1
102
RTVSPropertyOp15
 70
     1
102
RTVSPropertyOp16
 70
     1
102
RTVSPropertyOp17
 70
     1
102
RTVSPropertyOp18
 70
     1
102
RTVSPropertyOp19
 70
     1
102
RTVSPropertyOp20
 70
     1
102
RTVSPropertyOp21
 70
     1
102
RTVSPropertyOp22
 70
     1
102
RTVSPropertyOp23
 70
     1
102
RTVSPropertyOp24
 70
     1
102
RTVSPropertyOp25
 70
     1
102
RTVSPropertyOp26
 70
     1
102
RTVSPropertyOp27
 70
     1
102
RTVSPropertyOp28
 70
     1
102
RTVSPropertyOp29
 70
     1
102
RTVSPropertyOp30
 70
     1
102
RTVSPropertyOp31
 70
     1
102
RTVSPropertyOp32
 70
     1
102
RTVSPropertyOp33
 70
     1
102
RTVSPropertyOp34
 70
     1
102
RTVSPropertyOp35
 70
     1
102
RTVSPropertyOp36
 70
     1
102
RTVSPropertyOp37
 70
     1
102
RTVSPropertyOp38
 70
     1
102
RTVSPropertyOp39
 70
     1
102
RTVSPropertyOp40
 70
     1
102
RTVSPropertyOp41
 70
     1
102
RTVSPropertyOp42
 70
     1
102
RTVSPropertyOp43
 70
     1
102
RTVSPropertyOp44
 70
     1
102
RTVSPropertyOp45
 70
     1
102
RTVSPropertyOp46
 70
     1
102
RTVSPropertyOp47
 70
     1
102
RTVSPropertyOp48
 70
     1
102
RTVSPropertyOp49
 70
     1
102
RTVSPropertyOp50
 70
     1
102
RTVSPropertyOp51
 70
     0
102
RTVSPropertyOp52
 70
     0
102
RTVSPropertyOp53
 70
     1
102
RTVSPropertyOp54
 70
     1
102
RTVSPropertyOp55
 70
     1
102
RTVSPropertyOp56
 70
     1
102
RTVSPropertyOp57
 70
     1
102
RTVSPropertyOp58
 70
     1
102
RTVSPropertyOp59
 70
     1
102
RTVSPropertyOp60
 70
     1
102
RTVSPropertyOp61
 70
     1
102
RTVSPropertyOp62
 70
     1
  0
XRECORD
  5
49E9
102
{ACAD_REACTORS
330
49E8
102
}
330
49E8
100
AcDbXrecord
280
     1
102
RTVSPost2010Prop28
280
     0
102
RTVSPost2010PropOp28
 70
     1
102
RTVSPost2010Prop29
280
     1
102
RTVSPost2010PropOp29
 70
     1
102
RTVSPost2010Prop30
280
     1
102
RTVSPost2010PropOp30
 70
     1
102
RTVSPost2010Prop31
280
     0
102
RTVSPost2010PropOp31
 70
     1
102
RTVSPost2010Prop32
280
     0
102
RTVSPost2010PropOp32
 70
     1
102
RTVSPost2010Prop33
280
     0
102
RTVSPost2010PropOp33
 70
     1
102
RTVSPost2010Prop34
280
     0
102
RTVSPost2010PropOp34
 70
     1
102
RTVSPost2010Prop35
280
     0
102
RTVSPost2010PropOp35
 70
     1
102
RTVSPost2010Prop36
280
     0
102
RTVSPost2010PropOp36
 70
     1
102
RTVSPost2010Prop37
 90
       50
102
RTVSPost2010PropOp37
 70
     1
102
RTVSPost2010Prop38
140
0.0
102
RTVSPost2010PropOp38
 70
     1
102
RTVSPost2010Prop39
140
1.0
102
RTVSPost2010PropOp39
 70
     1
102
RTVSPost2010Prop40
 90
        0
102
RTVSPost2010PropOp40
 70
     1
102
RTVSPost2010Prop41ColorIndex
 90
       18
102
RTVSPost2010Prop41ColorRGB
 90
        0
102
RTVSPost2010PropOp41
 70
     1
102
RTVSPost2010Prop42
 90
       50
102
RTVSPost2010PropOp42
 70
     1
102
RTVSPost2010Prop43
 90
        3
102
RTVSPost2010PropOp43
 70
     1
102
RTVSPost2010Prop44ColorIndex
 90
        5
102
RTVSPost2010Prop44ColorRGB
 90
      255
102
RTVSPost2010PropOp44
 70
     1
102
RTVSPost2010Prop45
280
     0
102
RTVSPost2010PropOp45
 70
     1
102
RTVSPost2010Prop46
 90
       50
102
RTVSPost2010PropOp46
 70
     1
102
RTVSPost2010Prop47
 90
       50
102
RTVSPost2010PropOp47
 70
     1
102
RTVSPost2010Prop48
 90
       50
102
RTVSPost2010PropOp48
 70
     1
102
RTVSPost2010Prop49
280
     0
102
RTVSPost2010PropOp49
 70
     1
102
RTVSPost2010Prop50
 90
       50
102
RTVSPost2010PropOp50
 70
     1
102
RTVSPost2010Prop51ColorIndex
 90
      256
102
RTVSPost2010Prop51ColorRGB
 90
-16777216
102
RTVSPost2010PropOp51
 70
     0
102
RTVSPost2010Prop52
140
1.0
102
RTVSPost2010PropOp52
 70
     0
102
RTVSPost2010Prop53
 90
        2
102
RTVSPost2010PropOp53
 70
     1
102
RTVSPost2010Prop54
  1
strokes_ogs.tif
102
RTVSPost2010PropOp54
 70
     1
102
RTVSPost2010Prop55
280
     0
102
RTVSPost2010PropOp55
 70
     1
102
RTVSPost2010Prop56
140
1.0
102
RTVSPost2010PropOp56
 70
     1
102
RTVSPost2010Prop57
140
1.0
102
RTVSPost2010PropOp57
 70
     1
102
RTVSPropertyOp0
 70
     1
102
RTVSPropertyOp1
 70
     1
102
RTVSPropertyOp2
 70
     1
102
RTVSPropertyOp3
 70
     1
102
RTVSPropertyOp4
 70
     1
102
RTVSPropertyOp5
 70
     1
102
RTVSPropertyOp6
 70
     1
102
RTVSPropertyOp7
 70
     1
102
RTVSPropertyOp8
 70
     1
102
RTVSPropertyOp9
 70
     1
102
RTVSPropertyOp10
 70
     1
102
RTVSPropertyOp11
 70
     1
102
RTVSPropertyOp12
 70
     1
102
RTVSPropertyOp13
 70
     1
102
RTVSPropertyOp14
 70
     1
102
RTVSPropertyOp15
 70
     1
102
RTVSPropertyOp16
 70
     1
102
RTVSPropertyOp17
 70
     1
102
RTVSPropertyOp18
 70
     1
102
RTVSPropertyOp19
 70
     1
102
RTVSPropertyOp20
 70
     1
102
RTVSPropertyOp21
 70
     1
102
RTVSPropertyOp22
 70
     1
102
RTVSPropertyOp23
 70
     1
102
RTVSPropertyOp24
 70
     1
102
RTVSPropertyOp25
 70
     1
102
RTVSPropertyOp26
 70
     1
102
RTVSPropertyOp27
 70
     1
102
RTVSPropertyOp28
 70
     1
102
RTVSPropertyOp29
 70
     1
102
RTVSPropertyOp30
 70
     1
102
RTVSPropertyOp31
 70
     1
102
RTVSPropertyOp32
 70
     1
102
RTVSPropertyOp33
 70
     1
102
RTVSPropertyOp34
 70
     1
102
RTVSPropertyOp35
 70
     1
102
RTVSPropertyOp36
 70
     1
102
RTVSPropertyOp37
 70
     1
102
RTVSPropertyOp38
 70
     1
102
RTVSPropertyOp39
 70
     1
102
RTVSPropertyOp40
 70
     1
102
RTVSPropertyOp41
 70
     1
102
RTVSPropertyOp42
 70
     1
102
RTVSPropertyOp43
 70
     1
102
RTVSPropertyOp44
 70
     1
102
RTVSPropertyOp45
 70
     1
102
RTVSPropertyOp46
 70
     1
102
RTVSPropertyOp47
 70
     1
102
RTVSPropertyOp48
 70
     1
102
RTVSPropertyOp49
 70
     1
102
RTVSPropertyOp50
 70
     1
102
RTVSPropertyOp51
 70
     0
102
RTVSPropertyOp52
 70
     0
102
RTVSPropertyOp53
 70
     1
102
RTVSPropertyOp54
 70
     1
102
RTVSPropertyOp55
 70
     1
102
RTVSPropertyOp56
 70
     1
102
RTVSPropertyOp57
 70
     1
102
RTVSPropertyOp58
 70
     1
102
RTVSPropertyOp59
 70
     1
102
RTVSPropertyOp60
 70
     1
102
RTVSPropertyOp61
 70
     1
102
RTVSPropertyOp62
 70
     1
  0
XRECORD
  5
49F1
102
{ACAD_REACTORS
330
49F0
102
}
330
49F0
100
AcDbXrecord
280
     1
102
RTVSPost2010Prop28
280
     0
102
RTVSPost2010PropOp28
 70
     1
102
RTVSPost2010Prop29
280
     1
102
RTVSPost2010PropOp29
 70
     1
102
RTVSPost2010Prop30
280
     1
102
RTVSPost2010PropOp30
 70
     1
102
RTVSPost2010Prop31
280
     0
102
RTVSPost2010PropOp31
 70
     1
102
RTVSPost2010Prop32
280
     0
102
RTVSPost2010PropOp32
 70
     1
102
RTVSPost2010Prop33
280
     0
102
RTVSPost2010PropOp33
 70
     1
102
RTVSPost2010Prop34
280
     0
102
RTVSPost2010PropOp34
 70
     1
102
RTVSPost2010Prop35
280
     0
102
RTVSPost2010PropOp35
 70
     1
102
RTVSPost2010Prop36
280
     0
102
RTVSPost2010PropOp36
 70
     1
102
RTVSPost2010Prop37
 90
       50
102
RTVSPost2010PropOp37
 70
     1
102
RTVSPost2010Prop38
140
0.0
102
RTVSPost2010PropOp38
 70
     1
102
RTVSPost2010Prop39
140
1.0
102
RTVSPost2010PropOp39
 70
     1
102
RTVSPost2010Prop40
 90
        0
102
RTVSPost2010PropOp40
 70
     1
102
RTVSPost2010Prop41ColorIndex
 90
       18
102
RTVSPost2010Prop41ColorRGB
 90
        0
102
RTVSPost2010PropOp41
 70
     1
102
RTVSPost2010Prop42
 90
       50
102
RTVSPost2010PropOp42
 70
     1
102
RTVSPost2010Prop43
 90
        3
102
RTVSPost2010PropOp43
 70
     1
102
RTVSPost2010Prop44ColorIndex
 90
        5
102
RTVSPost2010Prop44ColorRGB
 90
      255
102
RTVSPost2010PropOp44
 70
     1
102
RTVSPost2010Prop45
280
     0
102
RTVSPost2010PropOp45
 70
     1
102
RTVSPost2010Prop46
 90
       50
102
RTVSPost2010PropOp46
 70
     1
102
RTVSPost2010Prop47
 90
       50
102
RTVSPost2010PropOp47
 70
     1
102
RTVSPost2010Prop48
 90
       50
102
RTVSPost2010PropOp48
 70
     1
102
RTVSPost2010Prop49
280
     0
102
RTVSPost2010PropOp49
 70
     1
102
RTVSPost2010Prop50
 90
       50
102
RTVSPost2010PropOp50
 70
     1
102
RTVSPost2010Prop51ColorIndex
 90
      256
102
RTVSPost2010Prop51ColorRGB
 90
-16777216
102
RTVSPost2010PropOp51
 70
     0
102
RTVSPost2010Prop52
140
1.0
102
RTVSPost2010PropOp52
 70
     0
102
RTVSPost2010Prop53
 90
        2
102
RTVSPost2010PropOp53
 70
     1
102
RTVSPost2010Prop54
  1
strokes_ogs.tif
102
RTVSPost2010PropOp54
 70
     1
102
RTVSPost2010Prop55
280
     0
102
RTVSPost2010PropOp55
 70
     1
102
RTVSPost2010Prop56
140
1.0
102
RTVSPost2010PropOp56
 70
     1
102
RTVSPost2010Prop57
140
1.0
102
RTVSPost2010PropOp57
 70
     1
102
RTVSPropertyOp0
 70
     1
102
RTVSPropertyOp1
 70
     1
102
RTVSPropertyOp2
 70
     1
102
RTVSPropertyOp3
 70
     1
102
RTVSPropertyOp4
 70
     1
102
RTVSPropertyOp5
 70
     1
102
RTVSPropertyOp6
 70
     1
102
RTVSPropertyOp7
 70
     1
102
RTVSPropertyOp8
 70
     1
102
RTVSPropertyOp9
 70
     1
102
RTVSPropertyOp10
 70
     1
102
RTVSPropertyOp11
 70
     1
102
RTVSPropertyOp12
 70
     1
102
RTVSPropertyOp13
 70
     1
102
RTVSPropertyOp14
 70
     1
102
RTVSPropertyOp15
 70
     1
102
RTVSPropertyOp16
 70
     1
102
RTVSPropertyOp17
 70
     1
102
RTVSPropertyOp18
 70
     1
102
RTVSPropertyOp19
 70
     1
102
RTVSPropertyOp20
 70
     1
102
RTVSPropertyOp21
 70
     1
102
RTVSPropertyOp22
 70
     1
102
RTVSPropertyOp23
 70
     1
102
RTVSPropertyOp24
 70
     1
102
RTVSPropertyOp25
 70
     1
102
RTVSPropertyOp26
 70
     1
102
RTVSPropertyOp27
 70
     1
102
RTVSPropertyOp28
 70
     1
102
RTVSPropertyOp29
 70
     1
102
RTVSPropertyOp30
 70
     1
102
RTVSPropertyOp31
 70
     1
102
RTVSPropertyOp32
 70
     1
102
RTVSPropertyOp33
 70
     1
102
RTVSPropertyOp34
 70
     1
102
RTVSPropertyOp35
 70
     1
102
RTVSPropertyOp36
 70
     1
102
RTVSPropertyOp37
 70
     1
102
RTVSPropertyOp38
 70
     1
102
RTVSPropertyOp39
 70
     1
102
RTVSPropertyOp40
 70
     1
102
RTVSPropertyOp41
 70
     1
102
RTVSPropertyOp42
 70
     1
102
RTVSPropertyOp43
 70
     1
102
RTVSPropertyOp44
 70
     1
102
RTVSPropertyOp45
 70
     1
102
RTVSPropertyOp46
 70
     1
102
RTVSPropertyOp47
 70
     1
102
RTVSPropertyOp48
 70
     1
102
RTVSPropertyOp49
 70
     1
102
RTVSPropertyOp50
 70
     1
102
RTVSPropertyOp51
 70
     0
102
RTVSPropertyOp52
 70
     0
102
RTVSPropertyOp53
 70
     1
102
RTVSPropertyOp54
 70
     1
102
RTVSPropertyOp55
 70
     1
102
RTVSPropertyOp56
 70
     1
102
RTVSPropertyOp57
 70
     1
102
RTVSPropertyOp58
 70
     1
102
RTVSPropertyOp59
 70
     1
102
RTVSPropertyOp60
 70
     1
102
RTVSPropertyOp61
 70
     1
102
RTVSPropertyOp62
 70
     1
  0
XRECORD
  5
4A0D
102
{ACAD_REACTORS
330
4A0C
102
}
330
4A0C
100
AcDbXrecord
280
     1
102
RTVSPost2010Prop28
280
     0
102
RTVSPost2010PropOp28
 70
     1
102
RTVSPost2010Prop29
280
     1
102
RTVSPost2010PropOp29
 70
     1
102
RTVSPost2010Prop30
280
     1
102
RTVSPost2010PropOp30
 70
     1
102
RTVSPost2010Prop31
280
     0
102
RTVSPost2010PropOp31
 70
     1
102
RTVSPost2010Prop32
280
     0
102
RTVSPost2010PropOp32
 70
     1
102
RTVSPost2010Prop33
280
     0
102
RTVSPost2010PropOp33
 70
     1
102
RTVSPost2010Prop34
280
     0
102
RTVSPost2010PropOp34
 70
     1
102
RTVSPost2010Prop35
280
     0
102
RTVSPost2010PropOp35
 70
     1
102
RTVSPost2010Prop36
280
     0
102
RTVSPost2010PropOp36
 70
     1
102
RTVSPost2010Prop37
 90
       50
102
RTVSPost2010PropOp37
 70
     0
102
RTVSPost2010Prop38
140
0.0
102
RTVSPost2010PropOp38
 70
     0
102
RTVSPost2010Prop39
140
1.0
102
RTVSPost2010PropOp39
 70
     0
102
RTVSPost2010Prop40
 90
        0
102
RTVSPost2010PropOp40
 70
     0
102
RTVSPost2010Prop41ColorIndex
 90
       18
102
RTVSPost2010Prop41ColorRGB
 90
        0
102
RTVSPost2010PropOp41
 70
     0
102
RTVSPost2010Prop42
 90
       50
102
RTVSPost2010PropOp42
 70
     0
102
RTVSPost2010Prop43
 90
        3
102
RTVSPost2010PropOp43
 70
     0
102
RTVSPost2010Prop44ColorIndex
 90
        5
102
RTVSPost2010Prop44ColorRGB
 90
      255
102
RTVSPost2010PropOp44
 70
     0
102
RTVSPost2010Prop45
280
     0
102
RTVSPost2010PropOp45
 70
     1
102
RTVSPost2010Prop46
 90
       50
102
RTVSPost2010PropOp46
 70
     0
102
RTVSPost2010Prop47
 90
       50
102
RTVSPost2010PropOp47
 70
     0
102
RTVSPost2010Prop48
 90
       50
102
RTVSPost2010PropOp48
 70
     0
102
RTVSPost2010Prop49
280
     0
102
RTVSPost2010PropOp49
 70
     1
102
RTVSPost2010Prop50
 90
       50
102
RTVSPost2010PropOp50
 70
     0
102
RTVSPost2010Prop51ColorIndex
 90
      256
102
RTVSPost2010Prop51ColorRGB
 90
-16777216
102
RTVSPost2010PropOp51
 70
     0
102
RTVSPost2010Prop52
140
1.0
102
RTVSPost2010PropOp52
 70
     0
102
RTVSPost2010Prop53
 90
        2
102
RTVSPost2010PropOp53
 70
     0
102
RTVSPost2010Prop54
  1
strokes_ogs.tif
102
RTVSPost2010PropOp54
 70
     0
102
RTVSPost2010Prop55
280
     0
102
RTVSPost2010PropOp55
 70
     1
102
RTVSPost2010Prop56
140
1.0
102
RTVSPost2010PropOp56
 70
     0
102
RTVSPost2010Prop57
140
1.0
102
RTVSPost2010PropOp57
 70
     0
102
RTVSPropertyOp0
 70
     0
102
RTVSPropertyOp1
 70
     0
102
RTVSPropertyOp2
 70
     0
102
RTVSPropertyOp3
 70
     0
102
RTVSPropertyOp4
 70
     0
102
RTVSPropertyOp5
 70
     0
102
RTVSPropertyOp6
 70
     0
102
RTVSPropertyOp7
 70
     0
102
RTVSPropertyOp8
 70
     0
102
RTVSPropertyOp9
 70
     0
102
RTVSPropertyOp10
 70
     0
102
RTVSPropertyOp11
 70
     0
102
RTVSPropertyOp12
 70
     0
102
RTVSPropertyOp13
 70
     0
102
RTVSPropertyOp14
 70
     2
102
RTVSPropertyOp15
 70
     0
102
RTVSPropertyOp16
 70
     0
102
RTVSPropertyOp17
 70
     0
102
RTVSPropertyOp18
 70
     0
102
RTVSPropertyOp19
 70
     0
102
RTVSPropertyOp20
 70
     0
102
RTVSPropertyOp21
 70
     0
102
RTVSPropertyOp22
 70
     0
102
RTVSPropertyOp23
 70
     0
102
RTVSPropertyOp24
 70
     0
102
RTVSPropertyOp25
 70
     0
102
RTVSPropertyOp26
 70
     0
102
RTVSPropertyOp27
 70
     0
102
RTVSPropertyOp28
 70
     1
102
RTVSPropertyOp29
 70
     1
102
RTVSPropertyOp30
 70
     1
102
RTVSPropertyOp31
 70
     1
102
RTVSPropertyOp32
 70
     1
102
RTVSPropertyOp33
 70
     1
102
RTVSPropertyOp34
 70
     1
102
RTVSPropertyOp35
 70
     1
102
RTVSPropertyOp36
 70
     1
102
RTVSPropertyOp37
 70
     0
102
RTVSPropertyOp38
 70
     0
102
RTVSPropertyOp39
 70
     0
102
RTVSPropertyOp40
 70
     0
102
RTVSPropertyOp41
 70
     0
102
RTVSPropertyOp42
 70
     0
102
RTVSPropertyOp43
 70
     0
102
RTVSPropertyOp44
 70
     0
102
RTVSPropertyOp45
 70
     1
102
RTVSPropertyOp46
 70
     0
102
RTVSPropertyOp47
 70
     0
102
RTVSPropertyOp48
 70
     0
102
RTVSPropertyOp49
 70
     1
102
RTVSPropertyOp50
 70
     0
102
RTVSPropertyOp51
 70
     0
102
RTVSPropertyOp52
 70
     0
102
RTVSPropertyOp53
 70
     0
102
RTVSPropertyOp54
 70
     0
102
RTVSPropertyOp55
 70
     1
102
RTVSPropertyOp56
 70
     0
102
RTVSPropertyOp57
 70
     0
102
RTVSPropertyOp58
 70
     0
102
RTVSPropertyOp59
 70
     0
102
RTVSPropertyOp60
 70
     0
102
RTVSPropertyOp61
 70
     0
102
RTVSPropertyOp62
 70
     0
  0
XRECORD
  5
49FD
102
{ACAD_REACTORS
330
49FC
102
}
330
49FC
100
AcDbXrecord
280
     1
102
RTVSPost2010Prop28
280
     0
102
RTVSPost2010PropOp28
 70
     1
102
RTVSPost2010Prop29
280
     1
102
RTVSPost2010PropOp29
 70
     1
102
RTVSPost2010Prop30
280
     1
102
RTVSPost2010PropOp30
 70
     1
102
RTVSPost2010Prop31
280
     0
102
RTVSPost2010PropOp31
 70
     1
102
RTVSPost2010Prop32
280
     0
102
RTVSPost2010PropOp32
 70
     1
102
RTVSPost2010Prop33
280
     0
102
RTVSPost2010PropOp33
 70
     1
102
RTVSPost2010Prop34
280
     0
102
RTVSPost2010PropOp34
 70
     1
102
RTVSPost2010Prop35
280
     0
102
RTVSPost2010PropOp35
 70
     1
102
RTVSPost2010Prop36
280
     0
102
RTVSPost2010PropOp36
 70
     1
102
RTVSPost2010Prop37
 90
       50
102
RTVSPost2010PropOp37
 70
     1
102
RTVSPost2010Prop38
140
0.0
102
RTVSPost2010PropOp38
 70
     1
102
RTVSPost2010Prop39
140
1.0
102
RTVSPost2010PropOp39
 70
     1
102
RTVSPost2010Prop40
 90
        0
102
RTVSPost2010PropOp40
 70
     1
102
RTVSPost2010Prop41ColorIndex
 90
       18
102
RTVSPost2010Prop41ColorRGB
 90
        0
102
RTVSPost2010PropOp41
 70
     1
102
RTVSPost2010Prop42
 90
       50
102
RTVSPost2010PropOp42
 70
     1
102
RTVSPost2010Prop43
 90
        3
102
RTVSPost2010PropOp43
 70
     1
102
RTVSPost2010Prop44ColorIndex
 90
        5
102
RTVSPost2010Prop44ColorRGB
 90
      255
102
RTVSPost2010PropOp44
 70
     1
102
RTVSPost2010Prop45
280
     0
102
RTVSPost2010PropOp45
 70
     1
102
RTVSPost2010Prop46
 90
       50
102
RTVSPost2010PropOp46
 70
     1
102
RTVSPost2010Prop47
 90
       50
102
RTVSPost2010PropOp47
 70
     1
102
RTVSPost2010Prop48
 90
       50
102
RTVSPost2010PropOp48
 70
     1
102
RTVSPost2010Prop49
280
     0
102
RTVSPost2010PropOp49
 70
     1
102
RTVSPost2010Prop50
 90
       50
102
RTVSPost2010PropOp50
 70
     1
102
RTVSPost2010Prop51ColorIndex
 90
      256
102
RTVSPost2010Prop51ColorRGB
 90
-16777216
102
RTVSPost2010PropOp51
 70
     0
102
RTVSPost2010Prop52
140
1.0
102
RTVSPost2010PropOp52
 70
     0
102
RTVSPost2010Prop53
 90
        2
102
RTVSPost2010PropOp53
 70
     1
102
RTVSPost2010Prop54
  1
strokes_ogs.tif
102
RTVSPost2010PropOp54
 70
     1
102
RTVSPost2010Prop55
280
     0
102
RTVSPost2010PropOp55
 70
     1
102
RTVSPost2010Prop56
140
1.0
102
RTVSPost2010PropOp56
 70
     1
102
RTVSPost2010Prop57
140
1.0
102
RTVSPost2010PropOp57
 70
     1
102
RTVSPropertyOp0
 70
     1
102
RTVSPropertyOp1
 70
     1
102
RTVSPropertyOp2
 70
     1
102
RTVSPropertyOp3
 70
     1
102
RTVSPropertyOp4
 70
     1
102
RTVSPropertyOp5
 70
     1
102
RTVSPropertyOp6
 70
     1
102
RTVSPropertyOp7
 70
     1
102
RTVSPropertyOp8
 70
     1
102
RTVSPropertyOp9
 70
     1
102
RTVSPropertyOp10
 70
     1
102
RTVSPropertyOp11
 70
     1
102
RTVSPropertyOp12
 70
     1
102
RTVSPropertyOp13
 70
     1
102
RTVSPropertyOp14
 70
     1
102
RTVSPropertyOp15
 70
     1
102
RTVSPropertyOp16
 70
     1
102
RTVSPropertyOp17
 70
     1
102
RTVSPropertyOp18
 70
     1
102
RTVSPropertyOp19
 70
     1
102
RTVSPropertyOp20
 70
     1
102
RTVSPropertyOp21
 70
     1
102
RTVSPropertyOp22
 70
     1
102
RTVSPropertyOp23
 70
     1
102
RTVSPropertyOp24
 70
     1
102
RTVSPropertyOp25
 70
     1
102
RTVSPropertyOp26
 70
     1
102
RTVSPropertyOp27
 70
     1
102
RTVSPropertyOp28
 70
     1
102
RTVSPropertyOp29
 70
     1
102
RTVSPropertyOp30
 70
     1
102
RTVSPropertyOp31
 70
     1
102
RTVSPropertyOp32
 70
     1
102
RTVSPropertyOp33
 70
     1
102
RTVSPropertyOp34
 70
     1
102
RTVSPropertyOp35
 70
     1
102
RTVSPropertyOp36
 70
     1
102
RTVSPropertyOp37
 70
     1
102
RTVSPropertyOp38
 70
     1
102
RTVSPropertyOp39
 70
     1
102
RTVSPropertyOp40
 70
     1
102
RTVSPropertyOp41
 70
     1
102
RTVSPropertyOp42
 70
     1
102
RTVSPropertyOp43
 70
     1
102
RTVSPropertyOp44
 70
     1
102
RTVSPropertyOp45
 70
     1
102
RTVSPropertyOp46
 70
     1
102
RTVSPropertyOp47
 70
     1
102
RTVSPropertyOp48
 70
     1
102
RTVSPropertyOp49
 70
     1
102
RTVSPropertyOp50
 70
     1
102
RTVSPropertyOp51
 70
     0
102
RTVSPropertyOp52
 70
     0
102
RTVSPropertyOp53
 70
     1
102
RTVSPropertyOp54
 70
     1
102
RTVSPropertyOp55
 70
     1
102
RTVSPropertyOp56
 70
     1
102
RTVSPropertyOp57
 70
     1
102
RTVSPropertyOp58
 70
     1
102
RTVSPropertyOp59
 70
     1
102
RTVSPropertyOp60
 70
     1
102
RTVSPropertyOp61
 70
     1
102
RTVSPropertyOp62
 70
     1
  0
XRECORD
  5
4A0F
102
{ACAD_REACTORS
330
4A0E
102
}
330
4A0E
100
AcDbXrecord
280
     1
102
RTVSPost2010Prop28
280
     0
102
RTVSPost2010PropOp28
 70
     1
102
RTVSPost2010Prop29
280
     1
102
RTVSPost2010PropOp29
 70
     1
102
RTVSPost2010Prop30
280
     1
102
RTVSPost2010PropOp30
 70
     1
102
RTVSPost2010Prop31
280
     0
102
RTVSPost2010PropOp31
 70
     1
102
RTVSPost2010Prop32
280
     0
102
RTVSPost2010PropOp32
 70
     1
102
RTVSPost2010Prop33
280
     0
102
RTVSPost2010PropOp33
 70
     1
102
RTVSPost2010Prop34
280
     0
102
RTVSPost2010PropOp34
 70
     1
102
RTVSPost2010Prop35
280
     0
102
RTVSPost2010PropOp35
 70
     1
102
RTVSPost2010Prop36
280
     0
102
RTVSPost2010PropOp36
 70
     1
102
RTVSPost2010Prop37
 90
       50
102
RTVSPost2010PropOp37
 70
     0
102
RTVSPost2010Prop38
140
0.0
102
RTVSPost2010PropOp38
 70
     0
102
RTVSPost2010Prop39
140
1.0
102
RTVSPost2010PropOp39
 70
     0
102
RTVSPost2010Prop40
 90
        0
102
RTVSPost2010PropOp40
 70
     0
102
RTVSPost2010Prop41ColorIndex
 90
       18
102
RTVSPost2010Prop41ColorRGB
 90
        0
102
RTVSPost2010PropOp41
 70
     0
102
RTVSPost2010Prop42
 90
       50
102
RTVSPost2010PropOp42
 70
     0
102
RTVSPost2010Prop43
 90
        3
102
RTVSPost2010PropOp43
 70
     0
102
RTVSPost2010Prop44ColorIndex
 90
        5
102
RTVSPost2010Prop44ColorRGB
 90
      255
102
RTVSPost2010PropOp44
 70
     0
102
RTVSPost2010Prop45
280
     0
102
RTVSPost2010PropOp45
 70
     1
102
RTVSPost2010Prop46
 90
       50
102
RTVSPost2010PropOp46
 70
     0
102
RTVSPost2010Prop47
 90
       50
102
RTVSPost2010PropOp47
 70
     0
102
RTVSPost2010Prop48
 90
       50
102
RTVSPost2010PropOp48
 70
     0
102
RTVSPost2010Prop49
280
     0
102
RTVSPost2010PropOp49
 70
     1
102
RTVSPost2010Prop50
 90
       50
102
RTVSPost2010PropOp50
 70
     0
102
RTVSPost2010Prop51ColorIndex
 90
      256
102
RTVSPost2010Prop51ColorRGB
 90
-16777216
102
RTVSPost2010PropOp51
 70
     0
102
RTVSPost2010Prop52
140
1.0
102
RTVSPost2010PropOp52
 70
     0
102
RTVSPost2010Prop53
 90
        2
102
RTVSPost2010PropOp53
 70
     0
102
RTVSPost2010Prop54
  1
strokes_ogs.tif
102
RTVSPost2010PropOp54
 70
     0
102
RTVSPost2010Prop55
280
     0
102
RTVSPost2010PropOp55
 70
     1
102
RTVSPost2010Prop56
140
1.0
102
RTVSPost2010PropOp56
 70
     0
102
RTVSPost2010Prop57
140
1.0
102
RTVSPost2010PropOp57
 70
     0
102
RTVSPropertyOp0
 70
     0
102
RTVSPropertyOp1
 70
     0
102
RTVSPropertyOp2
 70
     0
102
RTVSPropertyOp3
 70
     0
102
RTVSPropertyOp4
 70
     0
102
RTVSPropertyOp5
 70
     0
102
RTVSPropertyOp6
 70
     0
102
RTVSPropertyOp7
 70
     0
102
RTVSPropertyOp8
 70
     0
102
RTVSPropertyOp9
 70
     0
102
RTVSPropertyOp10
 70
     0
102
RTVSPropertyOp11
 70
     0
102
RTVSPropertyOp12
 70
     0
102
RTVSPropertyOp13
 70
     0
102
RTVSPropertyOp14
 70
     2
102
RTVSPropertyOp15
 70
     0
102
RTVSPropertyOp16
 70
     0
102
RTVSPropertyOp17
 70
     0
102
RTVSPropertyOp18
 70
     0
102
RTVSPropertyOp19
 70
     0
102
RTVSPropertyOp20
 70
     0
102
RTVSPropertyOp21
 70
     0
102
RTVSPropertyOp22
 70
     0
102
RTVSPropertyOp23
 70
     0
102
RTVSPropertyOp24
 70
     0
102
RTVSPropertyOp25
 70
     0
102
RTVSPropertyOp26
 70
     0
102
RTVSPropertyOp27
 70
     0
102
RTVSPropertyOp28
 70
     1
102
RTVSPropertyOp29
 70
     1
102
RTVSPropertyOp30
 70
     1
102
RTVSPropertyOp31
 70
     1
102
RTVSPropertyOp32
 70
     1
102
RTVSPropertyOp33
 70
     1
102
RTVSPropertyOp34
 70
     1
102
RTVSPropertyOp35
 70
     1
102
RTVSPropertyOp36
 70
     1
102
RTVSPropertyOp37
 70
     0
102
RTVSPropertyOp38
 70
     0
102
RTVSPropertyOp39
 70
     0
102
RTVSPropertyOp40
 70
     0
102
RTVSPropertyOp41
 70
     0
102
RTVSPropertyOp42
 70
     0
102
RTVSPropertyOp43
 70
     0
102
RTVSPropertyOp44
 70
     0
102
RTVSPropertyOp45
 70
     1
102
RTVSPropertyOp46
 70
     0
102
RTVSPropertyOp47
 70
     0
102
RTVSPropertyOp48
 70
     0
102
RTVSPropertyOp49
 70
     1
102
RTVSPropertyOp50
 70
     0
102
RTVSPropertyOp51
 70
     0
102
RTVSPropertyOp52
 70
     0
102
RTVSPropertyOp53
 70
     0
102
RTVSPropertyOp54
 70
     0
102
RTVSPropertyOp55
 70
     1
102
RTVSPropertyOp56
 70
     0
102
RTVSPropertyOp57
 70
     0
102
RTVSPropertyOp58
 70
     0
102
RTVSPropertyOp59
 70
     0
102
RTVSPropertyOp60
 70
     0
102
RTVSPropertyOp61
 70
     0
102
RTVSPropertyOp62
 70
     0
  0
XRECORD
  5
49F5
102
{ACAD_REACTORS
330
49F4
102
}
330
49F4
100
AcDbXrecord
280
     1
102
RTVSPost2010Prop28
280
     0
102
RTVSPost2010PropOp28
 70
     1
102
RTVSPost2010Prop29
280
     1
102
RTVSPost2010PropOp29
 70
     1
102
RTVSPost2010Prop30
280
     1
102
RTVSPost2010PropOp30
 70
     1
102
RTVSPost2010Prop31
280
     0
102
RTVSPost2010PropOp31
 70
     1
102
RTVSPost2010Prop32
280
     0
102
RTVSPost2010PropOp32
 70
     1
102
RTVSPost2010Prop33
280
     0
102
RTVSPost2010PropOp33
 70
     1
102
RTVSPost2010Prop34
280
     0
102
RTVSPost2010PropOp34
 70
     1
102
RTVSPost2010Prop35
280
     0
102
RTVSPost2010PropOp35
 70
     1
102
RTVSPost2010Prop36
280
     0
102
RTVSPost2010PropOp36
 70
     1
102
RTVSPost2010Prop37
 90
       50
102
RTVSPost2010PropOp37
 70
     1
102
RTVSPost2010Prop38
140
0.0
102
RTVSPost2010PropOp38
 70
     1
102
RTVSPost2010Prop39
140
1.0
102
RTVSPost2010PropOp39
 70
     1
102
RTVSPost2010Prop40
 90
        0
102
RTVSPost2010PropOp40
 70
     1
102
RTVSPost2010Prop41ColorIndex
 90
       18
102
RTVSPost2010Prop41ColorRGB
 90
        0
102
RTVSPost2010PropOp41
 70
     1
102
RTVSPost2010Prop42
 90
       50
102
RTVSPost2010PropOp42
 70
     1
102
RTVSPost2010Prop43
 90
        3
102
RTVSPost2010PropOp43
 70
     1
102
RTVSPost2010Prop44ColorIndex
 90
        5
102
RTVSPost2010Prop44ColorRGB
 90
      255
102
RTVSPost2010PropOp44
 70
     1
102
RTVSPost2010Prop45
280
     0
102
RTVSPost2010PropOp45
 70
     1
102
RTVSPost2010Prop46
 90
       50
102
RTVSPost2010PropOp46
 70
     1
102
RTVSPost2010Prop47
 90
       50
102
RTVSPost2010PropOp47
 70
     1
102
RTVSPost2010Prop48
 90
       50
102
RTVSPost2010PropOp48
 70
     1
102
RTVSPost2010Prop49
280
     0
102
RTVSPost2010PropOp49
 70
     1
102
RTVSPost2010Prop50
 90
       50
102
RTVSPost2010PropOp50
 70
     1
102
RTVSPost2010Prop51ColorIndex
 90
      256
102
RTVSPost2010Prop51ColorRGB
 90
-16777216
102
RTVSPost2010PropOp51
 70
     0
102
RTVSPost2010Prop52
140
1.0
102
RTVSPost2010PropOp52
 70
     0
102
RTVSPost2010Prop53
 90
        2
102
RTVSPost2010PropOp53
 70
     1
102
RTVSPost2010Prop54
  1
strokes_ogs.tif
102
RTVSPost2010PropOp54
 70
     1
102
RTVSPost2010Prop55
280
     0
102
RTVSPost2010PropOp55
 70
     1
102
RTVSPost2010Prop56
140
1.0
102
RTVSPost2010PropOp56
 70
     1
102
RTVSPost2010Prop57
140
1.0
102
RTVSPost2010PropOp57
 70
     1
102
RTVSPropertyOp0
 70
     1
102
RTVSPropertyOp1
 70
     1
102
RTVSPropertyOp2
 70
     1
102
RTVSPropertyOp3
 70
     1
102
RTVSPropertyOp4
 70
     1
102
RTVSPropertyOp5
 70
     1
102
RTVSPropertyOp6
 70
     1
102
RTVSPropertyOp7
 70
     1
102
RTVSPropertyOp8
 70
     1
102
RTVSPropertyOp9
 70
     1
102
RTVSPropertyOp10
 70
     1
102
RTVSPropertyOp11
 70
     1
102
RTVSPropertyOp12
 70
     1
102
RTVSPropertyOp13
 70
     1
102
RTVSPropertyOp14
 70
     1
102
RTVSPropertyOp15
 70
     1
102
RTVSPropertyOp16
 70
     1
102
RTVSPropertyOp17
 70
     1
102
RTVSPropertyOp18
 70
     1
102
RTVSPropertyOp19
 70
     1
102
RTVSPropertyOp20
 70
     1
102
RTVSPropertyOp21
 70
     1
102
RTVSPropertyOp22
 70
     1
102
RTVSPropertyOp23
 70
     1
102
RTVSPropertyOp24
 70
     1
102
RTVSPropertyOp25
 70
     1
102
RTVSPropertyOp26
 70
     1
102
RTVSPropertyOp27
 70
     1
102
RTVSPropertyOp28
 70
     1
102
RTVSPropertyOp29
 70
     1
102
RTVSPropertyOp30
 70
     1
102
RTVSPropertyOp31
 70
     1
102
RTVSPropertyOp32
 70
     1
102
RTVSPropertyOp33
 70
     1
102
RTVSPropertyOp34
 70
     1
102
RTVSPropertyOp35
 70
     1
102
RTVSPropertyOp36
 70
     1
102
RTVSPropertyOp37
 70
     1
102
RTVSPropertyOp38
 70
     1
102
RTVSPropertyOp39
 70
     1
102
RTVSPropertyOp40
 70
     1
102
RTVSPropertyOp41
 70
     1
102
RTVSPropertyOp42
 70
     1
102
RTVSPropertyOp43
 70
     1
102
RTVSPropertyOp44
 70
     1
102
RTVSPropertyOp45
 70
     1
102
RTVSPropertyOp46
 70
     1
102
RTVSPropertyOp47
 70
     1
102
RTVSPropertyOp48
 70
     1
102
RTVSPropertyOp49
 70
     1
102
RTVSPropertyOp50
 70
     1
102
RTVSPropertyOp51
 70
     0
102
RTVSPropertyOp52
 70
     0
102
RTVSPropertyOp53
 70
     1
102
RTVSPropertyOp54
 70
     1
102
RTVSPropertyOp55
 70
     1
102
RTVSPropertyOp56
 70
     1
102
RTVSPropertyOp57
 70
     1
102
RTVSPropertyOp58
 70
     1
102
RTVSPropertyOp59
 70
     1
102
RTVSPropertyOp60
 70
     1
102
RTVSPropertyOp61
 70
     1
102
RTVSPropertyOp62
 70
     1
  0
XRECORD
  5
4A0B
102
{ACAD_REACTORS
330
4A0A
102
}
330
4A0A
100
AcDbXrecord
280
     1
102
RTVSPost2010Prop28
280
     0
102
RTVSPost2010PropOp28
 70
     1
102
RTVSPost2010Prop29
280
     1
102
RTVSPost2010PropOp29
 70
     1
102
RTVSPost2010Prop30
280
     1
102
RTVSPost2010PropOp30
 70
     1
102
RTVSPost2010Prop31
280
     0
102
RTVSPost2010PropOp31
 70
     1
102
RTVSPost2010Prop32
280
     0
102
RTVSPost2010PropOp32
 70
     1
102
RTVSPost2010Prop33
280
     0
102
RTVSPost2010PropOp33
 70
     1
102
RTVSPost2010Prop34
280
     0
102
RTVSPost2010PropOp34
 70
     1
102
RTVSPost2010Prop35
280
     0
102
RTVSPost2010PropOp35
 70
     1
102
RTVSPost2010Prop36
280
     0
102
RTVSPost2010PropOp36
 70
     1
102
RTVSPost2010Prop37
 90
       50
102
RTVSPost2010PropOp37
 70
     1
102
RTVSPost2010Prop38
140
0.0
102
RTVSPost2010PropOp38
 70
     1
102
RTVSPost2010Prop39
140
1.0
102
RTVSPost2010PropOp39
 70
     1
102
RTVSPost2010Prop40
 90
        0
102
RTVSPost2010PropOp40
 70
     1
102
RTVSPost2010Prop41ColorIndex
 90
       18
102
RTVSPost2010Prop41ColorRGB
 90
        0
102
RTVSPost2010PropOp41
 70
     1
102
RTVSPost2010Prop42
 90
       50
102
RTVSPost2010PropOp42
 70
     1
102
RTVSPost2010Prop43
 90
        3
102
RTVSPost2010PropOp43
 70
     1
102
RTVSPost2010Prop44ColorIndex
 90
        5
102
RTVSPost2010Prop44ColorRGB
 90
      255
102
RTVSPost2010PropOp44
 70
     1
102
RTVSPost2010Prop45
280
     0
102
RTVSPost2010PropOp45
 70
     1
102
RTVSPost2010Prop46
 90
       50
102
RTVSPost2010PropOp46
 70
     1
102
RTVSPost2010Prop47
 90
       50
102
RTVSPost2010PropOp47
 70
     1
102
RTVSPost2010Prop48
 90
       50
102
RTVSPost2010PropOp48
 70
     1
102
RTVSPost2010Prop49
280
     0
102
RTVSPost2010PropOp49
 70
     1
102
RTVSPost2010Prop50
 90
       50
102
RTVSPost2010PropOp50
 70
     1
102
RTVSPost2010Prop51ColorIndex
 90
      256
102
RTVSPost2010Prop51ColorRGB
 90
-16777216
102
RTVSPost2010PropOp51
 70
     0
102
RTVSPost2010Prop52
140
1.0
102
RTVSPost2010PropOp52
 70
     0
102
RTVSPost2010Prop53
 90
        2
102
RTVSPost2010PropOp53
 70
     1
102
RTVSPost2010Prop54
  1
strokes_ogs.tif
102
RTVSPost2010PropOp54
 70
     1
102
RTVSPost2010Prop55
280
     0
102
RTVSPost2010PropOp55
 70
     1
102
RTVSPost2010Prop56
140
1.0
102
RTVSPost2010PropOp56
 70
     1
102
RTVSPost2010Prop57
140
1.0
102
RTVSPost2010PropOp57
 70
     1
102
RTVSPropertyOp0
 70
     1
102
RTVSPropertyOp1
 70
     1
102
RTVSPropertyOp2
 70
     1
102
RTVSPropertyOp3
 70
     1
102
RTVSPropertyOp4
 70
     1
102
RTVSPropertyOp5
 70
     1
102
RTVSPropertyOp6
 70
     1
102
RTVSPropertyOp7
 70
     1
102
RTVSPropertyOp8
 70
     1
102
RTVSPropertyOp9
 70
     1
102
RTVSPropertyOp10
 70
     1
102
RTVSPropertyOp11
 70
     1
102
RTVSPropertyOp12
 70
     1
102
RTVSPropertyOp13
 70
     1
102
RTVSPropertyOp14
 70
     1
102
RTVSPropertyOp15
 70
     1
102
RTVSPropertyOp16
 70
     1
102
RTVSPropertyOp17
 70
     1
102
RTVSPropertyOp18
 70
     1
102
RTVSPropertyOp19
 70
     1
102
RTVSPropertyOp20
 70
     1
102
RTVSPropertyOp21
 70
     1
102
RTVSPropertyOp22
 70
     1
102
RTVSPropertyOp23
 70
     1
102
RTVSPropertyOp24
 70
     1
102
RTVSPropertyOp25
 70
     1
102
RTVSPropertyOp26
 70
     1
102
RTVSPropertyOp27
 70
     1
102
RTVSPropertyOp28
 70
     1
102
RTVSPropertyOp29
 70
     1
102
RTVSPropertyOp30
 70
     1
102
RTVSPropertyOp31
 70
     1
102
RTVSPropertyOp32
 70
     1
102
RTVSPropertyOp33
 70
     1
102
RTVSPropertyOp34
 70
     1
102
RTVSPropertyOp35
 70
     1
102
RTVSPropertyOp36
 70
     1
102
RTVSPropertyOp37
 70
     1
102
RTVSPropertyOp38
 70
     1
102
RTVSPropertyOp39
 70
     1
102
RTVSPropertyOp40
 70
     1
102
RTVSPropertyOp41
 70
     1
102
RTVSPropertyOp42
 70
     1
102
RTVSPropertyOp43
 70
     1
102
RTVSPropertyOp44
 70
     1
102
RTVSPropertyOp45
 70
     1
102
RTVSPropertyOp46
 70
     1
102
RTVSPropertyOp47
 70
     1
102
RTVSPropertyOp48
 70
     1
102
RTVSPropertyOp49
 70
     1
102
RTVSPropertyOp50
 70
     1
102
RTVSPropertyOp51
 70
     0
102
RTVSPropertyOp52
 70
     0
102
RTVSPropertyOp53
 70
     1
102
RTVSPropertyOp54
 70
     1
102
RTVSPropertyOp55
 70
     1
102
RTVSPropertyOp56
 70
     1
102
RTVSPropertyOp57
 70
     1
102
RTVSPropertyOp58
 70
     1
102
RTVSPropertyOp59
 70
     1
102
RTVSPropertyOp60
 70
     1
102
RTVSPropertyOp61
 70
     1
102
RTVSPropertyOp62
 70
     1
  0
XRECORD
  5
4A09
102
{ACAD_REACTORS
330
4A08
102
}
330
4A08
100
AcDbXrecord
280
     1
102
RTVSPost2010Prop28
280
     0
102
RTVSPost2010PropOp28
 70
     1
102
RTVSPost2010Prop29
280
     1
102
RTVSPost2010PropOp29
 70
     1
102
RTVSPost2010Prop30
280
     1
102
RTVSPost2010PropOp30
 70
     1
102
RTVSPost2010Prop31
280
     0
102
RTVSPost2010PropOp31
 70
     1
102
RTVSPost2010Prop32
280
     0
102
RTVSPost2010PropOp32
 70
     1
102
RTVSPost2010Prop33
280
     0
102
RTVSPost2010PropOp33
 70
     1
102
RTVSPost2010Prop34
280
     0
102
RTVSPost2010PropOp34
 70
     1
102
RTVSPost2010Prop35
280
     0
102
RTVSPost2010PropOp35
 70
     1
102
RTVSPost2010Prop36
280
     0
102
RTVSPost2010PropOp36
 70
     1
102
RTVSPost2010Prop37
 90
       50
102
RTVSPost2010PropOp37
 70
     1
102
RTVSPost2010Prop38
140
0.0
102
RTVSPost2010PropOp38
 70
     1
102
RTVSPost2010Prop39
140
1.0
102
RTVSPost2010PropOp39
 70
     1
102
RTVSPost2010Prop40
 90
        0
102
RTVSPost2010PropOp40
 70
     1
102
RTVSPost2010Prop41ColorIndex
 90
       18
102
RTVSPost2010Prop41ColorRGB
 90
        0
102
RTVSPost2010PropOp41
 70
     1
102
RTVSPost2010Prop42
 90
       50
102
RTVSPost2010PropOp42
 70
     1
102
RTVSPost2010Prop43
 90
        3
102
RTVSPost2010PropOp43
 70
     1
102
RTVSPost2010Prop44ColorIndex
 90
        5
102
RTVSPost2010Prop44ColorRGB
 90
      255
102
RTVSPost2010PropOp44
 70
     1
102
RTVSPost2010Prop45
280
     0
102
RTVSPost2010PropOp45
 70
     1
102
RTVSPost2010Prop46
 90
       50
102
RTVSPost2010PropOp46
 70
     1
102
RTVSPost2010Prop47
 90
       50
102
RTVSPost2010PropOp47
 70
     1
102
RTVSPost2010Prop48
 90
       50
102
RTVSPost2010PropOp48
 70
     1
102
RTVSPost2010Prop49
280
     0
102
RTVSPost2010PropOp49
 70
     1
102
RTVSPost2010Prop50
 90
       50
102
RTVSPost2010PropOp50
 70
     1
102
RTVSPost2010Prop51ColorIndex
 90
      256
102
RTVSPost2010Prop51ColorRGB
 90
-16777216
102
RTVSPost2010PropOp51
 70
     0
102
RTVSPost2010Prop52
140
1.0
102
RTVSPost2010PropOp52
 70
     0
102
RTVSPost2010Prop53
 90
        2
102
RTVSPost2010PropOp53
 70
     1
102
RTVSPost2010Prop54
  1
strokes_ogs.tif
102
RTVSPost2010PropOp54
 70
     1
102
RTVSPost2010Prop55
280
     0
102
RTVSPost2010PropOp55
 70
     1
102
RTVSPost2010Prop56
140
1.0
102
RTVSPost2010PropOp56
 70
     1
102
RTVSPost2010Prop57
140
1.0
102
RTVSPost2010PropOp57
 70
     1
102
RTVSPropertyOp0
 70
     1
102
RTVSPropertyOp1
 70
     1
102
RTVSPropertyOp2
 70
     1
102
RTVSPropertyOp3
 70
     1
102
RTVSPropertyOp4
 70
     1
102
RTVSPropertyOp5
 70
     1
102
RTVSPropertyOp6
 70
     1
102
RTVSPropertyOp7
 70
     1
102
RTVSPropertyOp8
 70
     1
102
RTVSPropertyOp9
 70
     1
102
RTVSPropertyOp10
 70
     1
102
RTVSPropertyOp11
 70
     1
102
RTVSPropertyOp12
 70
     1
102
RTVSPropertyOp13
 70
     1
102
RTVSPropertyOp14
 70
     1
102
RTVSPropertyOp15
 70
     1
102
RTVSPropertyOp16
 70
     1
102
RTVSPropertyOp17
 70
     1
102
RTVSPropertyOp18
 70
     1
102
RTVSPropertyOp19
 70
     1
102
RTVSPropertyOp20
 70
     1
102
RTVSPropertyOp21
 70
     1
102
RTVSPropertyOp22
 70
     1
102
RTVSPropertyOp23
 70
     1
102
RTVSPropertyOp24
 70
     1
102
RTVSPropertyOp25
 70
     1
102
RTVSPropertyOp26
 70
     1
102
RTVSPropertyOp27
 70
     1
102
RTVSPropertyOp28
 70
     1
102
RTVSPropertyOp29
 70
     1
102
RTVSPropertyOp30
 70
     1
102
RTVSPropertyOp31
 70
     1
102
RTVSPropertyOp32
 70
     1
102
RTVSPropertyOp33
 70
     1
102
RTVSPropertyOp34
 70
     1
102
RTVSPropertyOp35
 70
     1
102
RTVSPropertyOp36
 70
     1
102
RTVSPropertyOp37
 70
     1
102
RTVSPropertyOp38
 70
     1
102
RTVSPropertyOp39
 70
     1
102
RTVSPropertyOp40
 70
     1
102
RTVSPropertyOp41
 70
     1
102
RTVSPropertyOp42
 70
     1
102
RTVSPropertyOp43
 70
     1
102
RTVSPropertyOp44
 70
     1
102
RTVSPropertyOp45
 70
     1
102
RTVSPropertyOp46
 70
     1
102
RTVSPropertyOp47
 70
     1
102
RTVSPropertyOp48
 70
     1
102
RTVSPropertyOp49
 70
     1
102
RTVSPropertyOp50
 70
     1
102
RTVSPropertyOp51
 70
     0
102
RTVSPropertyOp52
 70
     0
102
RTVSPropertyOp53
 70
     1
102
RTVSPropertyOp54
 70
     1
102
RTVSPropertyOp55
 70
     1
102
RTVSPropertyOp56
 70
     1
102
RTVSPropertyOp57
 70
     1
102
RTVSPropertyOp58
 70
     1
102
RTVSPropertyOp59
 70
     1
102
RTVSPropertyOp60
 70
     1
102
RTVSPropertyOp61
 70
     1
102
RTVSPropertyOp62
 70
     1
  0
XRECORD
  5
4A03
102
{ACAD_REACTORS
330
4A02
102
}
330
4A02
100
AcDbXrecord
280
     1
102
RTVSPost2010Prop28
280
     0
102
RTVSPost2010PropOp28
 70
     1
102
RTVSPost2010Prop29
280
     1
102
RTVSPost2010PropOp29
 70
     1
102
RTVSPost2010Prop30
280
     1
102
RTVSPost2010PropOp30
 70
     1
102
RTVSPost2010Prop31
280
     0
102
RTVSPost2010PropOp31
 70
     1
102
RTVSPost2010Prop32
280
     0
102
RTVSPost2010PropOp32
 70
     1
102
RTVSPost2010Prop33
280
     0
102
RTVSPost2010PropOp33
 70
     1
102
RTVSPost2010Prop34
280
     0
102
RTVSPost2010PropOp34
 70
     1
102
RTVSPost2010Prop35
280
     0
102
RTVSPost2010PropOp35
 70
     1
102
RTVSPost2010Prop36
280
     0
102
RTVSPost2010PropOp36
 70
     1
102
RTVSPost2010Prop37
 90
       50
102
RTVSPost2010PropOp37
 70
     1
102
RTVSPost2010Prop38
140
0.0
102
RTVSPost2010PropOp38
 70
     1
102
RTVSPost2010Prop39
140
1.0
102
RTVSPost2010PropOp39
 70
     1
102
RTVSPost2010Prop40
 90
        0
102
RTVSPost2010PropOp40
 70
     1
102
RTVSPost2010Prop41ColorIndex
 90
       18
102
RTVSPost2010Prop41ColorRGB
 90
        0
102
RTVSPost2010PropOp41
 70
     1
102
RTVSPost2010Prop42
 90
       50
102
RTVSPost2010PropOp42
 70
     1
102
RTVSPost2010Prop43
 90
        3
102
RTVSPost2010PropOp43
 70
     1
102
RTVSPost2010Prop44ColorIndex
 90
        5
102
RTVSPost2010Prop44ColorRGB
 90
      255
102
RTVSPost2010PropOp44
 70
     1
102
RTVSPost2010Prop45
280
     0
102
RTVSPost2010PropOp45
 70
     1
102
RTVSPost2010Prop46
 90
       50
102
RTVSPost2010PropOp46
 70
     1
102
RTVSPost2010Prop47
 90
       50
102
RTVSPost2010PropOp47
 70
     1
102
RTVSPost2010Prop48
 90
       50
102
RTVSPost2010PropOp48
 70
     1
102
RTVSPost2010Prop49
280
     0
102
RTVSPost2010PropOp49
 70
     1
102
RTVSPost2010Prop50
 90
       50
102
RTVSPost2010PropOp50
 70
     1
102
RTVSPost2010Prop51ColorIndex
 90
      256
102
RTVSPost2010Prop51ColorRGB
 90
-16777216
102
RTVSPost2010PropOp51
 70
     0
102
RTVSPost2010Prop52
140
1.0
102
RTVSPost2010PropOp52
 70
     0
102
RTVSPost2010Prop53
 90
        2
102
RTVSPost2010PropOp53
 70
     1
102
RTVSPost2010Prop54
  1
strokes_ogs.tif
102
RTVSPost2010PropOp54
 70
     1
102
RTVSPost2010Prop55
280
     0
102
RTVSPost2010PropOp55
 70
     1
102
RTVSPost2010Prop56
140
1.0
102
RTVSPost2010PropOp56
 70
     1
102
RTVSPost2010Prop57
140
1.0
102
RTVSPost2010PropOp57
 70
     1
102
RTVSPropertyOp0
 70
     1
102
RTVSPropertyOp1
 70
     1
102
RTVSPropertyOp2
 70
     1
102
RTVSPropertyOp3
 70
     1
102
RTVSPropertyOp4
 70
     1
102
RTVSPropertyOp5
 70
     1
102
RTVSPropertyOp6
 70
     1
102
RTVSPropertyOp7
 70
     1
102
RTVSPropertyOp8
 70
     1
102
RTVSPropertyOp9
 70
     1
102
RTVSPropertyOp10
 70
     1
102
RTVSPropertyOp11
 70
     1
102
RTVSPropertyOp12
 70
     1
102
RTVSPropertyOp13
 70
     1
102
RTVSPropertyOp14
 70
     1
102
RTVSPropertyOp15
 70
     1
102
RTVSPropertyOp16
 70
     1
102
RTVSPropertyOp17
 70
     1
102
RTVSPropertyOp18
 70
     1
102
RTVSPropertyOp19
 70
     1
102
RTVSPropertyOp20
 70
     1
102
RTVSPropertyOp21
 70
     1
102
RTVSPropertyOp22
 70
     1
102
RTVSPropertyOp23
 70
     1
102
RTVSPropertyOp24
 70
     1
102
RTVSPropertyOp25
 70
     1
102
RTVSPropertyOp26
 70
     1
102
RTVSPropertyOp27
 70
     1
102
RTVSPropertyOp28
 70
     1
102
RTVSPropertyOp29
 70
     1
102
RTVSPropertyOp30
 70
     1
102
RTVSPropertyOp31
 70
     1
102
RTVSPropertyOp32
 70
     1
102
RTVSPropertyOp33
 70
     1
102
RTVSPropertyOp34
 70
     1
102
RTVSPropertyOp35
 70
     1
102
RTVSPropertyOp36
 70
     1
102
RTVSPropertyOp37
 70
     1
102
RTVSPropertyOp38
 70
     1
102
RTVSPropertyOp39
 70
     1
102
RTVSPropertyOp40
 70
     1
102
RTVSPropertyOp41
 70
     1
102
RTVSPropertyOp42
 70
     1
102
RTVSPropertyOp43
 70
     1
102
RTVSPropertyOp44
 70
     1
102
RTVSPropertyOp45
 70
     1
102
RTVSPropertyOp46
 70
     1
102
RTVSPropertyOp47
 70
     1
102
RTVSPropertyOp48
 70
     1
102
RTVSPropertyOp49
 70
     1
102
RTVSPropertyOp50
 70
     1
102
RTVSPropertyOp51
 70
     0
102
RTVSPropertyOp52
 70
     0
102
RTVSPropertyOp53
 70
     1
102
RTVSPropertyOp54
 70
     1
102
RTVSPropertyOp55
 70
     1
102
RTVSPropertyOp56
 70
     1
102
RTVSPropertyOp57
 70
     1
102
RTVSPropertyOp58
 70
     1
102
RTVSPropertyOp59
 70
     1
102
RTVSPropertyOp60
 70
     1
102
RTVSPropertyOp61
 70
     1
102
RTVSPropertyOp62
 70
     1
  0
XRECORD
  5
4A05
102
{ACAD_REACTORS
330
4A04
102
}
330
4A04
100
AcDbXrecord
280
     1
102
RTVSPost2010Prop28
280
     0
102
RTVSPost2010PropOp28
 70
     1
102
RTVSPost2010Prop29
280
     1
102
RTVSPost2010PropOp29
 70
     1
102
RTVSPost2010Prop30
280
     1
102
RTVSPost2010PropOp30
 70
     1
102
RTVSPost2010Prop31
280
     0
102
RTVSPost2010PropOp31
 70
     1
102
RTVSPost2010Prop32
280
     0
102
RTVSPost2010PropOp32
 70
     1
102
RTVSPost2010Prop33
280
     0
102
RTVSPost2010PropOp33
 70
     1
102
RTVSPost2010Prop34
280
     0
102
RTVSPost2010PropOp34
 70
     1
102
RTVSPost2010Prop35
280
     0
102
RTVSPost2010PropOp35
 70
     1
102
RTVSPost2010Prop36
280
     0
102
RTVSPost2010PropOp36
 70
     1
102
RTVSPost2010Prop37
 90
       50
102
RTVSPost2010PropOp37
 70
     1
102
RTVSPost2010Prop38
140
0.0
102
RTVSPost2010PropOp38
 70
     1
102
RTVSPost2010Prop39
140
1.0
102
RTVSPost2010PropOp39
 70
     1
102
RTVSPost2010Prop40
 90
        0
102
RTVSPost2010PropOp40
 70
     1
102
RTVSPost2010Prop41ColorIndex
 90
       18
102
RTVSPost2010Prop41ColorRGB
 90
        0
102
RTVSPost2010PropOp41
 70
     1
102
RTVSPost2010Prop42
 90
       50
102
RTVSPost2010PropOp42
 70
     1
102
RTVSPost2010Prop43
 90
        3
102
RTVSPost2010PropOp43
 70
     1
102
RTVSPost2010Prop44ColorIndex
 90
        5
102
RTVSPost2010Prop44ColorRGB
 90
      255
102
RTVSPost2010PropOp44
 70
     1
102
RTVSPost2010Prop45
280
     0
102
RTVSPost2010PropOp45
 70
     1
102
RTVSPost2010Prop46
 90
       50
102
RTVSPost2010PropOp46
 70
     1
102
RTVSPost2010Prop47
 90
       50
102
RTVSPost2010PropOp47
 70
     1
102
RTVSPost2010Prop48
 90
       50
102
RTVSPost2010PropOp48
 70
     1
102
RTVSPost2010Prop49
280
     0
102
RTVSPost2010PropOp49
 70
     1
102
RTVSPost2010Prop50
 90
       50
102
RTVSPost2010PropOp50
 70
     1
102
RTVSPost2010Prop51ColorIndex
 90
      256
102
RTVSPost2010Prop51ColorRGB
 90
-16777216
102
RTVSPost2010PropOp51
 70
     0
102
RTVSPost2010Prop52
140
1.0
102
RTVSPost2010PropOp52
 70
     0
102
RTVSPost2010Prop53
 90
        2
102
RTVSPost2010PropOp53
 70
     1
102
RTVSPost2010Prop54
  1
strokes_ogs.tif
102
RTVSPost2010PropOp54
 70
     1
102
RTVSPost2010Prop55
280
     0
102
RTVSPost2010PropOp55
 70
     1
102
RTVSPost2010Prop56
140
1.0
102
RTVSPost2010PropOp56
 70
     1
102
RTVSPost2010Prop57
140
1.0
102
RTVSPost2010PropOp57
 70
     1
102
RTVSPropertyOp0
 70
     1
102
RTVSPropertyOp1
 70
     1
102
RTVSPropertyOp2
 70
     1
102
RTVSPropertyOp3
 70
     1
102
RTVSPropertyOp4
 70
     1
102
RTVSPropertyOp5
 70
     1
102
RTVSPropertyOp6
 70
     1
102
RTVSPropertyOp7
 70
     1
102
RTVSPropertyOp8
 70
     1
102
RTVSPropertyOp9
 70
     1
102
RTVSPropertyOp10
 70
     1
102
RTVSPropertyOp11
 70
     1
102
RTVSPropertyOp12
 70
     1
102
RTVSPropertyOp13
 70
     1
102
RTVSPropertyOp14
 70
     1
102
RTVSPropertyOp15
 70
     1
102
RTVSPropertyOp16
 70
     1
102
RTVSPropertyOp17
 70
     1
102
RTVSPropertyOp18
 70
     1
102
RTVSPropertyOp19
 70
     1
102
RTVSPropertyOp20
 70
     1
102
RTVSPropertyOp21
 70
     1
102
RTVSPropertyOp22
 70
     1
102
RTVSPropertyOp23
 70
     1
102
RTVSPropertyOp24
 70
     1
102
RTVSPropertyOp25
 70
     1
102
RTVSPropertyOp26
 70
     1
102
RTVSPropertyOp27
 70
     1
102
RTVSPropertyOp28
 70
     1
102
RTVSPropertyOp29
 70
     1
102
RTVSPropertyOp30
 70
     1
102
RTVSPropertyOp31
 70
     1
102
RTVSPropertyOp32
 70
     1
102
RTVSPropertyOp33
 70
     1
102
RTVSPropertyOp34
 70
     1
102
RTVSPropertyOp35
 70
     1
102
RTVSPropertyOp36
 70
     1
102
RTVSPropertyOp37
 70
     1
102
RTVSPropertyOp38
 70
     1
102
RTVSPropertyOp39
 70
     1
102
RTVSPropertyOp40
 70
     1
102
RTVSPropertyOp41
 70
     1
102
RTVSPropertyOp42
 70
     1
102
RTVSPropertyOp43
 70
     1
102
RTVSPropertyOp44
 70
     1
102
RTVSPropertyOp45
 70
     1
102
RTVSPropertyOp46
 70
     1
102
RTVSPropertyOp47
 70
     1
102
RTVSPropertyOp48
 70
     1
102
RTVSPropertyOp49
 70
     1
102
RTVSPropertyOp50
 70
     1
102
RTVSPropertyOp51
 70
     0
102
RTVSPropertyOp52
 70
     0
102
RTVSPropertyOp53
 70
     1
102
RTVSPropertyOp54
 70
     1
102
RTVSPropertyOp55
 70
     1
102
RTVSPropertyOp56
 70
     1
102
RTVSPropertyOp57
 70
     1
102
RTVSPropertyOp58
 70
     1
102
RTVSPropertyOp59
 70
     1
102
RTVSPropertyOp60
 70
     1
102
RTVSPropertyOp61
 70
     1
102
RTVSPropertyOp62
 70
     1
  0
XRECORD
  5
49FB
102
{ACAD_REACTORS
330
49FA
102
}
330
49FA
100
AcDbXrecord
280
     1
102
RTVSPost2010Prop28
280
     0
102
RTVSPost2010PropOp28
 70
     1
102
RTVSPost2010Prop29
280
     1
102
RTVSPost2010PropOp29
 70
     1
102
RTVSPost2010Prop30
280
     1
102
RTVSPost2010PropOp30
 70
     1
102
RTVSPost2010Prop31
280
     0
102
RTVSPost2010PropOp31
 70
     1
102
RTVSPost2010Prop32
280
     0
102
RTVSPost2010PropOp32
 70
     1
102
RTVSPost2010Prop33
280
     0
102
RTVSPost2010PropOp33
 70
     1
102
RTVSPost2010Prop34
280
     0
102
RTVSPost2010PropOp34
 70
     1
102
RTVSPost2010Prop35
280
     0
102
RTVSPost2010PropOp35
 70
     1
102
RTVSPost2010Prop36
280
     0
102
RTVSPost2010PropOp36
 70
     1
102
RTVSPost2010Prop37
 90
       50
102
RTVSPost2010PropOp37
 70
     1
102
RTVSPost2010Prop38
140
0.0
102
RTVSPost2010PropOp38
 70
     1
102
RTVSPost2010Prop39
140
1.0
102
RTVSPost2010PropOp39
 70
     1
102
RTVSPost2010Prop40
 90
        0
102
RTVSPost2010PropOp40
 70
     1
102
RTVSPost2010Prop41ColorIndex
 90
       18
102
RTVSPost2010Prop41ColorRGB
 90
        0
102
RTVSPost2010PropOp41
 70
     1
102
RTVSPost2010Prop42
 90
       50
102
RTVSPost2010PropOp42
 70
     1
102
RTVSPost2010Prop43
 90
        3
102
RTVSPost2010PropOp43
 70
     1
102
RTVSPost2010Prop44ColorIndex
 90
        5
102
RTVSPost2010Prop44ColorRGB
 90
      255
102
RTVSPost2010PropOp44
 70
     1
102
RTVSPost2010Prop45
280
     0
102
RTVSPost2010PropOp45
 70
     1
102
RTVSPost2010Prop46
 90
       50
102
RTVSPost2010PropOp46
 70
     1
102
RTVSPost2010Prop47
 90
       50
102
RTVSPost2010PropOp47
 70
     1
102
RTVSPost2010Prop48
 90
       50
102
RTVSPost2010PropOp48
 70
     1
102
RTVSPost2010Prop49
280
     0
102
RTVSPost2010PropOp49
 70
     1
102
RTVSPost2010Prop50
 90
       50
102
RTVSPost2010PropOp50
 70
     1
102
RTVSPost2010Prop51ColorIndex
 90
      256
102
RTVSPost2010Prop51ColorRGB
 90
-16777216
102
RTVSPost2010PropOp51
 70
     0
102
RTVSPost2010Prop52
140
1.0
102
RTVSPost2010PropOp52
 70
     0
102
RTVSPost2010Prop53
 90
        2
102
RTVSPost2010PropOp53
 70
     1
102
RTVSPost2010Prop54
  1
strokes_ogs.tif
102
RTVSPost2010PropOp54
 70
     1
102
RTVSPost2010Prop55
280
     0
102
RTVSPost2010PropOp55
 70
     1
102
RTVSPost2010Prop56
140
1.0
102
RTVSPost2010PropOp56
 70
     1
102
RTVSPost2010Prop57
140
1.0
102
RTVSPost2010PropOp57
 70
     1
102
RTVSPropertyOp0
 70
     1
102
RTVSPropertyOp1
 70
     1
102
RTVSPropertyOp2
 70
     1
102
RTVSPropertyOp3
 70
     1
102
RTVSPropertyOp4
 70
     1
102
RTVSPropertyOp5
 70
     1
102
RTVSPropertyOp6
 70
     1
102
RTVSPropertyOp7
 70
     1
102
RTVSPropertyOp8
 70
     1
102
RTVSPropertyOp9
 70
     1
102
RTVSPropertyOp10
 70
     1
102
RTVSPropertyOp11
 70
     1
102
RTVSPropertyOp12
 70
     1
102
RTVSPropertyOp13
 70
     1
102
RTVSPropertyOp14
 70
     1
102
RTVSPropertyOp15
 70
     1
102
RTVSPropertyOp16
 70
     1
102
RTVSPropertyOp17
 70
     1
102
RTVSPropertyOp18
 70
     1
102
RTVSPropertyOp19
 70
     1
102
RTVSPropertyOp20
 70
     1
102
RTVSPropertyOp21
 70
     1
102
RTVSPropertyOp22
 70
     1
102
RTVSPropertyOp23
 70
     1
102
RTVSPropertyOp24
 70
     1
102
RTVSPropertyOp25
 70
     1
102
RTVSPropertyOp26
 70
     1
102
RTVSPropertyOp27
 70
     1
102
RTVSPropertyOp28
 70
     1
102
RTVSPropertyOp29
 70
     1
102
RTVSPropertyOp30
 70
     1
102
RTVSPropertyOp31
 70
     1
102
RTVSPropertyOp32
 70
     1
102
RTVSPropertyOp33
 70
     1
102
RTVSPropertyOp34
 70
     1
102
RTVSPropertyOp35
 70
     1
102
RTVSPropertyOp36
 70
     1
102
RTVSPropertyOp37
 70
     1
102
RTVSPropertyOp38
 70
     1
102
RTVSPropertyOp39
 70
     1
102
RTVSPropertyOp40
 70
     1
102
RTVSPropertyOp41
 70
     1
102
RTVSPropertyOp42
 70
     1
102
RTVSPropertyOp43
 70
     1
102
RTVSPropertyOp44
 70
     1
102
RTVSPropertyOp45
 70
     1
102
RTVSPropertyOp46
 70
     1
102
RTVSPropertyOp47
 70
     1
102
RTVSPropertyOp48
 70
     1
102
RTVSPropertyOp49
 70
     1
102
RTVSPropertyOp50
 70
     1
102
RTVSPropertyOp51
 70
     0
102
RTVSPropertyOp52
 70
     0
102
RTVSPropertyOp53
 70
     1
102
RTVSPropertyOp54
 70
     1
102
RTVSPropertyOp55
 70
     1
102
RTVSPropertyOp56
 70
     1
102
RTVSPropertyOp57
 70
     1
102
RTVSPropertyOp58
 70
     1
102
RTVSPropertyOp59
 70
     1
102
RTVSPropertyOp60
 70
     1
102
RTVSPropertyOp61
 70
     1
102
RTVSPropertyOp62
 70
     1
  0
XRECORD
  5
49EF
102
{ACAD_REACTORS
330
49EE
102
}
330
49EE
100
AcDbXrecord
280
     1
102
RTVSPost2010Prop28
280
     0
102
RTVSPost2010PropOp28
 70
     1
102
RTVSPost2010Prop29
280
     1
102
RTVSPost2010PropOp29
 70
     1
102
RTVSPost2010Prop30
280
     1
102
RTVSPost2010PropOp30
 70
     1
102
RTVSPost2010Prop31
280
     0
102
RTVSPost2010PropOp31
 70
     1
102
RTVSPost2010Prop32
280
     0
102
RTVSPost2010PropOp32
 70
     1
102
RTVSPost2010Prop33
280
     0
102
RTVSPost2010PropOp33
 70
     1
102
RTVSPost2010Prop34
280
     0
102
RTVSPost2010PropOp34
 70
     1
102
RTVSPost2010Prop35
280
     0
102
RTVSPost2010PropOp35
 70
     1
102
RTVSPost2010Prop36
280
     0
102
RTVSPost2010PropOp36
 70
     1
102
RTVSPost2010Prop37
 90
       50
102
RTVSPost2010PropOp37
 70
     1
102
RTVSPost2010Prop38
140
0.0
102
RTVSPost2010PropOp38
 70
     1
102
RTVSPost2010Prop39
140
1.0
102
RTVSPost2010PropOp39
 70
     1
102
RTVSPost2010Prop40
 90
        0
102
RTVSPost2010PropOp40
 70
     1
102
RTVSPost2010Prop41ColorIndex
 90
       18
102
RTVSPost2010Prop41ColorRGB
 90
        0
102
RTVSPost2010PropOp41
 70
     1
102
RTVSPost2010Prop42
 90
       50
102
RTVSPost2010PropOp42
 70
     1
102
RTVSPost2010Prop43
 90
        3
102
RTVSPost2010PropOp43
 70
     1
102
RTVSPost2010Prop44ColorIndex
 90
        5
102
RTVSPost2010Prop44ColorRGB
 90
      255
102
RTVSPost2010PropOp44
 70
     1
102
RTVSPost2010Prop45
280
     0
102
RTVSPost2010PropOp45
 70
     1
102
RTVSPost2010Prop46
 90
       50
102
RTVSPost2010PropOp46
 70
     1
102
RTVSPost2010Prop47
 90
       50
102
RTVSPost2010PropOp47
 70
     1
102
RTVSPost2010Prop48
 90
       50
102
RTVSPost2010PropOp48
 70
     1
102
RTVSPost2010Prop49
280
     0
102
RTVSPost2010PropOp49
 70
     1
102
RTVSPost2010Prop50
 90
       50
102
RTVSPost2010PropOp50
 70
     1
102
RTVSPost2010Prop51ColorIndex
 90
      256
102
RTVSPost2010Prop51ColorRGB
 90
-16777216
102
RTVSPost2010PropOp51
 70
     0
102
RTVSPost2010Prop52
140
1.0
102
RTVSPost2010PropOp52
 70
     0
102
RTVSPost2010Prop53
 90
        2
102
RTVSPost2010PropOp53
 70
     1
102
RTVSPost2010Prop54
  1
strokes_ogs.tif
102
RTVSPost2010PropOp54
 70
     1
102
RTVSPost2010Prop55
280
     0
102
RTVSPost2010PropOp55
 70
     1
102
RTVSPost2010Prop56
140
1.0
102
RTVSPost2010PropOp56
 70
     1
102
RTVSPost2010Prop57
140
1.0
102
RTVSPost2010PropOp57
 70
     1
102
RTVSPropertyOp0
 70
     1
102
RTVSPropertyOp1
 70
     1
102
RTVSPropertyOp2
 70
     1
102
RTVSPropertyOp3
 70
     1
102
RTVSPropertyOp4
 70
     1
102
RTVSPropertyOp5
 70
     1
102
RTVSPropertyOp6
 70
     1
102
RTVSPropertyOp7
 70
     1
102
RTVSPropertyOp8
 70
     1
102
RTVSPropertyOp9
 70
     1
102
RTVSPropertyOp10
 70
     1
102
RTVSPropertyOp11
 70
     1
102
RTVSPropertyOp12
 70
     1
102
RTVSPropertyOp13
 70
     1
102
RTVSPropertyOp14
 70
     1
102
RTVSPropertyOp15
 70
     1
102
RTVSPropertyOp16
 70
     1
102
RTVSPropertyOp17
 70
     1
102
RTVSPropertyOp18
 70
     1
102
RTVSPropertyOp19
 70
     1
102
RTVSPropertyOp20
 70
     1
102
RTVSPropertyOp21
 70
     1
102
RTVSPropertyOp22
 70
     1
102
RTVSPropertyOp23
 70
     1
102
RTVSPropertyOp24
 70
     1
102
RTVSPropertyOp25
 70
     1
102
RTVSPropertyOp26
 70
     1
102
RTVSPropertyOp27
 70
     1
102
RTVSPropertyOp28
 70
     1
102
RTVSPropertyOp29
 70
     1
102
RTVSPropertyOp30
 70
     1
102
RTVSPropertyOp31
 70
     1
102
RTVSPropertyOp32
 70
     1
102
RTVSPropertyOp33
 70
     1
102
RTVSPropertyOp34
 70
     1
102
RTVSPropertyOp35
 70
     1
102
RTVSPropertyOp36
 70
     1
102
RTVSPropertyOp37
 70
     1
102
RTVSPropertyOp38
 70
     1
102
RTVSPropertyOp39
 70
     1
102
RTVSPropertyOp40
 70
     1
102
RTVSPropertyOp41
 70
     1
102
RTVSPropertyOp42
 70
     1
102
RTVSPropertyOp43
 70
     1
102
RTVSPropertyOp44
 70
     1
102
RTVSPropertyOp45
 70
     1
102
RTVSPropertyOp46
 70
     1
102
RTVSPropertyOp47
 70
     1
102
RTVSPropertyOp48
 70
     1
102
RTVSPropertyOp49
 70
     1
102
RTVSPropertyOp50
 70
     1
102
RTVSPropertyOp51
 70
     0
102
RTVSPropertyOp52
 70
     0
102
RTVSPropertyOp53
 70
     1
102
RTVSPropertyOp54
 70
     1
102
RTVSPropertyOp55
 70
     1
102
RTVSPropertyOp56
 70
     1
102
RTVSPropertyOp57
 70
     1
102
RTVSPropertyOp58
 70
     1
102
RTVSPropertyOp59
 70
     1
102
RTVSPropertyOp60
 70
     1
102
RTVSPropertyOp61
 70
     1
102
RTVSPropertyOp62
 70
     1
  0
XRECORD
  5
4A07
102
{ACAD_REACTORS
330
4A06
102
}
330
4A06
100
AcDbXrecord
280
     1
102
RTVSPost2010Prop28
280
     0
102
RTVSPost2010PropOp28
 70
     1
102
RTVSPost2010Prop29
280
     1
102
RTVSPost2010PropOp29
 70
     1
102
RTVSPost2010Prop30
280
     1
102
RTVSPost2010PropOp30
 70
     1
102
RTVSPost2010Prop31
280
     0
102
RTVSPost2010PropOp31
 70
     1
102
RTVSPost2010Prop32
280
     0
102
RTVSPost2010PropOp32
 70
     1
102
RTVSPost2010Prop33
280
     0
102
RTVSPost2010PropOp33
 70
     1
102
RTVSPost2010Prop34
280
     0
102
RTVSPost2010PropOp34
 70
     1
102
RTVSPost2010Prop35
280
     0
102
RTVSPost2010PropOp35
 70
     1
102
RTVSPost2010Prop36
280
     0
102
RTVSPost2010PropOp36
 70
     1
102
RTVSPost2010Prop37
 90
       50
102
RTVSPost2010PropOp37
 70
     1
102
RTVSPost2010Prop38
140
0.0
102
RTVSPost2010PropOp38
 70
     1
102
RTVSPost2010Prop39
140
1.0
102
RTVSPost2010PropOp39
 70
     1
102
RTVSPost2010Prop40
 90
        0
102
RTVSPost2010PropOp40
 70
     1
102
RTVSPost2010Prop41ColorIndex
 90
       18
102
RTVSPost2010Prop41ColorRGB
 90
        0
102
RTVSPost2010PropOp41
 70
     1
102
RTVSPost2010Prop42
 90
       50
102
RTVSPost2010PropOp42
 70
     1
102
RTVSPost2010Prop43
 90
        3
102
RTVSPost2010PropOp43
 70
     1
102
RTVSPost2010Prop44ColorIndex
 90
        5
102
RTVSPost2010Prop44ColorRGB
 90
      255
102
RTVSPost2010PropOp44
 70
     1
102
RTVSPost2010Prop45
280
     0
102
RTVSPost2010PropOp45
 70
     1
102
RTVSPost2010Prop46
 90
       50
102
RTVSPost2010PropOp46
 70
     1
102
RTVSPost2010Prop47
 90
       50
102
RTVSPost2010PropOp47
 70
     1
102
RTVSPost2010Prop48
 90
       50
102
RTVSPost2010PropOp48
 70
     1
102
RTVSPost2010Prop49
280
     0
102
RTVSPost2010PropOp49
 70
     1
102
RTVSPost2010Prop50
 90
       50
102
RTVSPost2010PropOp50
 70
     1
102
RTVSPost2010Prop51ColorIndex
 90
      256
102
RTVSPost2010Prop51ColorRGB
 90
-16777216
102
RTVSPost2010PropOp51
 70
     0
102
RTVSPost2010Prop52
140
1.0
102
RTVSPost2010PropOp52
 70
     0
102
RTVSPost2010Prop53
 90
        2
102
RTVSPost2010PropOp53
 70
     1
102
RTVSPost2010Prop54
  1
strokes_ogs.tif
102
RTVSPost2010PropOp54
 70
     1
102
RTVSPost2010Prop55
280
     0
102
RTVSPost2010PropOp55
 70
     1
102
RTVSPost2010Prop56
140
1.0
102
RTVSPost2010PropOp56
 70
     1
102
RTVSPost2010Prop57
140
1.0
102
RTVSPost2010PropOp57
 70
     1
102
RTVSPropertyOp0
 70
     1
102
RTVSPropertyOp1
 70
     1
102
RTVSPropertyOp2
 70
     1
102
RTVSPropertyOp3
 70
     1
102
RTVSPropertyOp4
 70
     1
102
RTVSPropertyOp5
 70
     1
102
RTVSPropertyOp6
 70
     1
102
RTVSPropertyOp7
 70
     1
102
RTVSPropertyOp8
 70
     1
102
RTVSPropertyOp9
 70
     1
102
RTVSPropertyOp10
 70
     1
102
RTVSPropertyOp11
 70
     1
102
RTVSPropertyOp12
 70
     1
102
RTVSPropertyOp13
 70
     1
102
RTVSPropertyOp14
 70
     1
102
RTVSPropertyOp15
 70
     1
102
RTVSPropertyOp16
 70
     1
102
RTVSPropertyOp17
 70
     1
102
RTVSPropertyOp18
 70
     1
102
RTVSPropertyOp19
 70
     1
102
RTVSPropertyOp20
 70
     1
102
RTVSPropertyOp21
 70
     1
102
RTVSPropertyOp22
 70
     1
102
RTVSPropertyOp23
 70
     1
102
RTVSPropertyOp24
 70
     1
102
RTVSPropertyOp25
 70
     1
102
RTVSPropertyOp26
 70
     1
102
RTVSPropertyOp27
 70
     1
102
RTVSPropertyOp28
 70
     1
102
RTVSPropertyOp29
 70
     1
102
RTVSPropertyOp30
 70
     1
102
RTVSPropertyOp31
 70
     1
102
RTVSPropertyOp32
 70
     1
102
RTVSPropertyOp33
 70
     1
102
RTVSPropertyOp34
 70
     1
102
RTVSPropertyOp35
 70
     1
102
RTVSPropertyOp36
 70
     1
102
RTVSPropertyOp37
 70
     1
102
RTVSPropertyOp38
 70
     1
102
RTVSPropertyOp39
 70
     1
102
RTVSPropertyOp40
 70
     1
102
RTVSPropertyOp41
 70
     1
102
RTVSPropertyOp42
 70
     1
102
RTVSPropertyOp43
 70
     1
102
RTVSPropertyOp44
 70
     1
102
RTVSPropertyOp45
 70
     1
102
RTVSPropertyOp46
 70
     1
102
RTVSPropertyOp47
 70
     1
102
RTVSPropertyOp48
 70
     1
102
RTVSPropertyOp49
 70
     1
102
RTVSPropertyOp50
 70
     1
102
RTVSPropertyOp51
 70
     0
102
RTVSPropertyOp52
 70
     0
102
RTVSPropertyOp53
 70
     1
102
RTVSPropertyOp54
 70
     1
102
RTVSPropertyOp55
 70
     1
102
RTVSPropertyOp56
 70
     1
102
RTVSPropertyOp57
 70
     1
102
RTVSPropertyOp58
 70
     1
102
RTVSPropertyOp59
 70
     1
102
RTVSPropertyOp60
 70
     1
102
RTVSPropertyOp61
 70
     1
102
RTVSPropertyOp62
 70
     1
  0
ENDSEC
  0
EOF
