  0
SECTION
  2
HEADER
  9
$ACADVER
  1
AC1021
  9
$ACADMAINTVER
 70
    50
  9
$DWGCODEPAGE
  3
ANSI_932
  9
$LASTSAVEDBY
  1
mino-t
  9
$INSBASE
 10
0.0
 20
0.0
 30
0.0
  9
$EXTMIN
 10
80.0
 20
-0.000000000000453
 30
0.0
  9
$EXTMAX
 10
1880.0
 20
2808.0
 30
0.0
  9
$LIMMIN
 10
0.0
 20
0.0
  9
$LIMMAX
 10
2100.0
 20
2970.0
  9
$ORTHOMODE
 70
     1
  9
$REGENMODE
 70
     1
  9
$FILLMODE
 70
     1
  9
$QTEXTMODE
 70
     0
  9
$MIRRTEXT
 70
     0
  9
$LTSCALE
 40
2.5
  9
$ATTMODE
 70
     1
  9
$TEXTSIZE
 40
2.5
  9
$TRACEWID
 40
0.05
  9
$TEXTSTYLE
  7
STANDARD
  9
$CLAYER
  8
0
  9
$CELTYPE
  6
ByLayer
  9
$CECOLOR
 62
   256
  9
$CELTSCALE
 40
1.0
  9
$DISPSILH
 70
     0
  9
$DIMSCALE
 40
10.0
  9
$DIMASZ
 40
2.0
  9
$DIMEXO
 40
1.0
  9
$DIMDLI
 40
7.0
  9
$DIMRND
 40
0.0
  9
$DIMDLE
 40
0.0
  9
$DIMEXE
 40
1.8
  9
$DIMTP
 40
0.0
  9
$DIMTM
 40
0.000000001
  9
$DIMTXT
 40
3.0
  9
$DIMCEN
 40
1.0
  9
$DIMTSZ
 40
0.0
  9
$DIMTOL
 70
     0
  9
$DIMLIM
 70
     0
  9
$DIMTIH
 70
     0
  9
$DIMTOH
 70
     0
  9
$DIMSE1
 70
     0
  9
$DIMSE2
 70
     0
  9
$DIMTAD
 70
     3
  9
$DIMZIN
 70
     9
  9
$DIMBLK
  1
OPEN30
  9
$DIMASO
 70
     1
  9
$DIMSHO
 70
     1
  9
$DIMPOST
  1

  9
$DIMAPOST
  1
"
  9
$DIMALT
 70
     0
  9
$DIMALTD
 70
     2
  9
$DIMALTF
 40
0.0393701
  9
$DIMLFAC
 40
1.0
  9
$DIMTOFL
 70
     1
  9
$DIMTVP
 40
0.0
  9
$DIMTIX
 70
     0
  9
$DIMSOXD
 70
     0
  9
$DIMSAH
 70
     0
  9
$DIMBLK1
  1

  9
$DIMBLK2
  1

  9
$DIMSTYLE
  2
AM_JIS
  9
$DIMCLRD
 70
   256
  9
$DIMCLRE
 70
   256
  9
$DIMCLRT
 70
     4
  9
$DIMTFAC
 40
0.71
  9
$DIMGAP
 40
1.5
  9
$DIMJUST
 70
     0
  9
$DIMSD1
 70
     0
  9
$DIMSD2
 70
     0
  9
$DIMTOLJ
 70
     1
  9
$DIMTZIN
 70
     0
  9
$DIMALTZ
 70
     0
  9
$DIMALTTZ
 70
     0
  9
$DIMUPT
 70
     0
  9
$DIMDEC
 70
     4
  9
$DIMTDEC
 70
     4
  9
$DIMALTU
 70
     2
  9
$DIMALTTD
 70
     2
  9
$DIMTXSTY
  7
STANDARD
  9
$DIMAUNIT
 70
     0
  9
$DIMADEC
 70
     0
  9
$DIMALTRND
 40
0.0
  9
$DIMAZIN
 70
     0
  9
$DIMDSEP
 70
    46
  9
$DIMATFIT
 70
     3
  9
$DIMFRAC
 70
     0
  9
$DIMLDRBLK
  1
OPEN30
  9
$DIMLUNIT
 70
     2
  9
$DIMLWD
 70
    -2
  9
$DIMLWE
 70
    -2
  9
$DIMTMOVE
 70
     0
  9
$DIMFXL
 40
1.0
  9
$DIMFXLON
 70
     0
  9
$DIMJOGANG
 40
0.7853981633974483
  9
$DIMTFILL
 70
     0
  9
$DIMTFILLCLR
 70
     0
  9
$DIMARCSYM
 70
     0
  9
$DIMLTYPE
  6

  9
$DIMLTEX1
  6

  9
$DIMLTEX2
  6

  9
$LUNITS
 70
     2
  9
$LUPREC
 70
     2
  9
$SKETCHINC
 40
0.1
  9
$FILLETRAD
 40
25.0
  9
$AUNITS
 70
     0
  9
$AUPREC
 70
     2
  9
$MENU
  1
amecex
  9
$ELEVATION
 40
0.0
  9
$PELEVATION
 40
0.0
  9
$THICKNESS
 40
0.0
  9
$LIMCHECK
 70
     0
  9
$CHAMFERA
 40
25.0
  9
$CHAMFERB
 40
25.0
  9
$CHAMFERC
 40
0.0
  9
$CHAMFERD
 40
0.0
  9
$SKPOLY
 70
     0
  9
$TDCREATE
 40
2452793.377199074
  9
$TDUCREATE
 40
2452793.002199074
  9
$TDUPDATE
 40
2459529.725243056
  9
$TDUUPDATE
 40
2459529.350243056
  9
$TDINDWG
 40
0.4684260880
  9
$TDUSRTIMER
 40
0.4684260880
  9
$USRTIMER
 70
     1
  9
$ANGBASE
 50
0.0
  9
$ANGDIR
 70
     0
  9
$PDMODE
 70
     0
  9
$PDSIZE
 40
0.0
  9
$PLINEWID
 40
0.0
  9
$SPLFRAME
 70
     0
  9
$SPLINETYPE
 70
     6
  9
$SPLINESEGS
 70
     8
  9
$HANDSEED
  5
55C6
  9
$SURFTAB1
 70
     6
  9
$SURFTAB2
 70
     6
  9
$SURFTYPE
 70
     6
  9
$SURFU
 70
     6
  9
$SURFV
 70
     6
  9
$UCSBASE
  2

  9
$UCSNAME
  2

  9
$UCSORG
 10
0.0
 20
0.0
 30
0.0
  9
$UCSXDIR
 10
1.0
 20
0.0
 30
0.0
  9
$UCSYDIR
 10
0.0
 20
1.0
 30
0.0
  9
$UCSORTHOREF
  2

  9
$UCSORTHOVIEW
 70
     0
  9
$UCSORGTOP
 10
0.0
 20
0.0
 30
0.0
  9
$UCSORGBOTTOM
 10
0.0
 20
0.0
 30
0.0
  9
$UCSORGLEFT
 10
0.0
 20
0.0
 30
0.0
  9
$UCSORGRIGHT
 10
0.0
 20
0.0
 30
0.0
  9
$UCSORGFRONT
 10
0.0
 20
0.0
 30
0.0
  9
$UCSORGBACK
 10
0.0
 20
0.0
 30
0.0
  9
$PUCSBASE
  2

  9
$PUCSNAME
  2

  9
$PUCSORG
 10
0.0
 20
0.0
 30
0.0
  9
$PUCSXDIR
 10
1.0
 20
0.0
 30
0.0
  9
$PUCSYDIR
 10
0.0
 20
1.0
 30
0.0
  9
$PUCSORTHOREF
  2

  9
$PUCSORTHOVIEW
 70
     0
  9
$PUCSORGTOP
 10
0.0
 20
0.0
 30
0.0
  9
$PUCSORGBOTTOM
 10
0.0
 20
0.0
 30
0.0
  9
$PUCSORGLEFT
 10
0.0
 20
0.0
 30
0.0
  9
$PUCSORGRIGHT
 10
0.0
 20
0.0
 30
0.0
  9
$PUCSORGFRONT
 10
0.0
 20
0.0
 30
0.0
  9
$PUCSORGBACK
 10
0.0
 20
0.0
 30
0.0
  9
$USERI1
 70
     0
  9
$USERI2
 70
     0
  9
$USERI3
 70
     0
  9
$USERI4
 70
     0
  9
$USERI5
 70
     0
  9
$USERR1
 40
30.0
  9
$USERR2
 40
0.0
  9
$USERR3
 40
0.0
  9
$USERR4
 40
0.0
  9
$USERR5
 40
0.0
  9
$WORLDVIEW
 70
     1
  9
$SHADEDGE
 70
     3
  9
$SHADEDIF
 70
    70
  9
$TILEMODE
 70
     1
  9
$MAXACTVP
 70
    16
  9
$PINSBASE
 10
0.0
 20
0.0
 30
0.0
  9
$PLIMCHECK
 70
     0
  9
$PEXTMIN
 10
1.000000000000000E+20
 20
1.000000000000000E+20
 30
1.000000000000000E+20
  9
$PEXTMAX
 10
-1.000000000000000E+20
 20
-1.000000000000000E+20
 30
-1.000000000000000E+20
  9
$PLIMMIN
 10
0.0
 20
0.0
  9
$PLIMMAX
 10
12.0
 20
9.0
  9
$UNITMODE
 70
     0
  9
$VISRETAIN
 70
     0
  9
$PLINEGEN
 70
     0
  9
$PSLTSCALE
 70
     0
  9
$TREEDEPTH
 70
  3020
  9
$CMLSTYLE
  2
Standard
  9
$CMLJUST
 70
     0
  9
$CMLSCALE
 40
1.0
  9
$PROXYGRAPHICS
 70
     1
  9
$MEASUREMENT
 70
     0
  9
$CELWEIGHT
370
    -1
  9
$ENDCAPS
280
     0
  9
$JOINSTYLE
280
     0
  9
$LWDISPLAY
290
     0
  9
$INSUNITS
 70
     0
  9
$HYPERLINKBASE
  1

  9
$STYLESHEET
  1

  9
$XEDIT
290
     1
  9
$CEPSNTYPE
380
     0
  9
$PSTYLEMODE
290
     1
  9
$FINGERPRINTGUID
  2
{7A41B169-443B-444A-B7ED-9AEA3379CF2D}
  9
$VERSIONGUID
  2
{9248E3DD-7377-C545-98E3-25346CA9A8FE}
  9
$EXTNAMES
290
     1
  9
$PSVPSCALE
 40
0.0
  9
$OLESTARTUP
290
     0
  9
$SORTENTS
280
   127
  9
$INDEXCTL
280
     0
  9
$HIDETEXT
280
     0
  9
$XCLIPFRAME
290
     0
  9
$HALOGAP
280
     0
  9
$OBSCOLOR
 70
   257
  9
$OBSLTYPE
280
     0
  9
$INTERSECTIONDISPLAY
280
     0
  9
$INTERSECTIONCOLOR
 70
   257
  9
$DIMASSOC
280
     1
  9
$PROJECTNAME
  1

  9
$CAMERADISPLAY
290
     0
  9
$LENSLENGTH
 40
50.0
  9
$CAMERAHEIGHT
 40
0.0
  9
$STEPSPERSEC
 40
2.0
  9
$STEPSIZE
 40
6.0
  9
$3DDWFPREC
 40
2.0
  9
$PSOLWIDTH
 40
0.25
  9
$PSOLHEIGHT
 40
4.0
  9
$LOFTANG1
 40
1.570796326794896
  9
$LOFTANG2
 40
1.570796326794896
  9
$LOFTMAG1
 40
0.0
  9
$LOFTMAG2
 40
0.0
  9
$LOFTPARAM
 70
     7
  9
$LOFTNORMALS
280
     1
  9
$LATITUDE
 40
37.795
  9
$LONGITUDE
 40
-122.394
  9
$NORTHDIRECTION
 40
0.0
  9
$TIMEZONE
 70
 -8000
  9
$LIGHTGLYPHDISPLAY
280
     1
  9
$TILEMODELIGHTSYNCH
280
     1
  9
$CMATERIAL
347
53D3
  9
$SOLIDHIST
280
     0
  9
$SHOWHIST
280
     1
  9
$DWFFRAME
280
     2
  9
$DGNFRAME
280
     0
  9
$REALWORLDSCALE
290
     1
  9
$INTERFERECOLOR
 62
     1
  9
$INTERFEREOBJVS
345
53F5
  9
$INTERFEREVPVS
346
53F2
  9
$CSHADOW
280
     0
  9
$SHADOWPLANELOCATION
 40
0.0
  0
ENDSEC
  0
SECTION
  2
CLASSES
  0
CLASS
  1
ACDBDICTIONARYWDFLT
  2
AcDbDictionaryWithDefault
  3
ObjectDBX Classes
 90
        0
 91
        1
280
     0
281
     0
  0
CLASS
  1
MATERIAL
  2
AcDbMaterial
  3
ObjectDBX Classes
 90
     1153
 91
        3
280
     0
281
     0
  0
CLASS
  1
VISUALSTYLE
  2
AcDbVisualStyle
  3
ObjectDBX Classes
 90
     4095
 91
       24
280
     0
281
     0
  0
CLASS
  1
SCALE
  2
AcDbScale
  3
ObjectDBX Classes
 90
     1153
 91
       17
280
     0
281
     0
  0
CLASS
  1
TABLESTYLE
  2
AcDbTableStyle
  3
ObjectDBX Classes
 90
     4095
 91
        1
280
     0
281
     0
  0
CLASS
  1
MLEADERSTYLE
  2
AcDbMLeaderStyle
  3
ACDB_MLEADERSTYLE_CLASS
 90
     4095
 91
        1
280
     0
281
     0
  0
CLASS
  1
ACDBSECTIONVIEWSTYLE
  2
AcDbSectionViewStyle
  3
ObjectDBX Classes
 90
     1025
 91
        2
280
     0
281
     0
  0
CLASS
  1
ACDBDETAILVIEWSTYLE
  2
AcDbDetailViewStyle
  3
ObjectDBX Classes
 90
     1025
 91
        2
280
     0
281
     0
  0
CLASS
  1
AMGSETTINGSOBJ
  2
AmgSettingsObj
  3
"AcadM|Product Description: AutoCAD Mechanical|Company: Autodesk, Inc."
 90
     1024
 91
        2
280
     0
281
     0
  0
CLASS
  1
ACME_DOCUMENT
  2
AcMeDbDoc
  3
AcMeServices
 90
     1024
 91
        1
280
     0
281
     0
  0
CLASS
  1
ACMESCOPE
  2
AcMeScope
  3
AcMeServices
 90
     1024
 91
        1
280
     0
281
     0
  0
CLASS
  1
ACMECOMMANDHISTORY
  2
AcMeCommandHistory
  3
AcMeServices
 90
     1024
 91
        1
280
     0
281
     0
  0
CLASS
  1
ACIMSYSVARMAN
  2
AcImSysVarManager
  3
AcMeServices
 90
     1024
 91
        3
280
     0
281
     0
  0
CLASS
  1
ACIMINTSYSVAR
  2
AcImIntSysVar
  3
AcMeServices
 90
     1024
 91
        3
280
     0
281
     0
  0
CLASS
  1
ACMESTATEMGR
  2
AcMeStateMgr
  3
AcMeServices
 90
     1024
 91
        1
280
     0
281
     0
  0
CLASS
  1
ACDBENTITYCACHE
  2
AcMeEntityCache
  3
AcMeServices
 90
     1024
 91
        1
280
     0
281
     0
  0
CLASS
  1
ACGREFMASTER
  2
AcGrefMaster
  3
AcAttribServices
 90
     1024
 91
        1
280
     0
281
     0
  0
CLASS
  1
ACME_DATABASE
  2
AcMeDbDatabase
  3
AcMeServices
 90
     1024
 91
        1
280
     0
281
     0
  0
CLASS
  1
ACRFINSADJUSTERMGR
  2
AcRfInsAdjusterMgr
  3
AcMeServices
 90
     1024
 91
        1
280
     0
281
     0
  0
CLASS
  1
ACGREFACADMASTER
  2
AcGrefacadMaster
  3
AcGrefServices
 90
     1024
 91
        1
280
     0
281
     0
  0
CLASS
  1
AMIMASTER
  2
AmiMaster
  3
AmiServices
 90
     1024
 91
        1
280
     0
281
     0
  0
CLASS
  1
AMDTMENUSTATEMGR
  2
AmdtMenuStateMgr
  3
McadcomServices
 90
     1024
 91
        1
280
     0
281
     0
  0
CLASS
  1
AMDTMCOMMENUSTATE
  2
AmdtMcomMenuState
  3
McadcomServices
 90
     1024
 91
        1
280
     0
281
     0
  0
CLASS
  1
MAPIAMMOUDLE
  2
MApiAmModule
  3
MApiAmServices
 90
     1024
 91
        1
280
     0
281
     0
  0
CLASS
  1
ACIMSTRSYSVAR
  2
AcImStrSysVar
  3
AcMeServices
 90
     1024
 91
        5
280
     0
281
     0
  0
CLASS
  1
AMDTAMMENUSTATE
  2
AmdtAmMenuState
  3
DesignerAssemblies_arx
 90
     1024
 91
        1
280
     0
281
     0
  0
CLASS
  1
ACAMPROJECT
  2
AcAmProject
  3
DesignerAssemblies
 90
     1024
 91
        1
280
     0
281
     0
  0
CLASS
  1
ACAMGRCOMPDEF
  2
AcAmGrCompDef
  3
DesignerAssemblies
 90
     1024
 91
        1
280
     0
281
     0
  0
CLASS
  1
ACAMCOMPDEF
  2
AcAmCompDef
  3
DesignerAssemblies
 90
     1024
 91
        1
280
     0
281
     0
  0
CLASS
  1
ACAMCOMPDEFMGR
  2
AcAmCompDefMgr
  3
DesignerAssemblies
 90
     1024
 91
        1
280
     0
281
     0
  0
CLASS
  1
AMCONTEXTMGR
  2
AcAmContextMgr
  3
DesignerAssemblies
 90
     1024
 91
        1
280
     0
281
     0
  0
CLASS
  1
ACAMCONTEXTMODELER
  2
AcAmContextModeler
  3
DesignerAssemblies
 90
     1024
 91
        1
280
     0
281
     0
  0
CLASS
  1
ACMDATADICTIONARY
  2
AcmDataDictionary
  3
"AcmSymBB|Product Description: AutoCAD Mechanical|Company: Autodesk, Inc."
 90
     1024
 91
        1
280
     0
281
     0
  0
CLASS
  1
ACAMGRCOMPDEFSET
  2
AcAmGrCompDefSet
  3
DesignerAssemblies
 90
     1024
 91
        1
280
     0
281
     0
  0
CLASS
  1
AMDTBROWSERDBTAB
  2
AmdtBrowserDbTab
  3
McadcomServices
 90
     1024
 91
        1
280
     0
281
     0
  0
CLASS
  1
CBROWSERAPPOBJECT
  2
CBrowserAppObject
  3
McadcomServices
 90
     1024
 91
        2
280
     0
281
     0
  0
CLASS
  1
DM_PLACEHOLDER
  2
AcDmSelsetPlaceholder
  3
McadcomServices
 90
     1024
 91
        1
280
     0
281
     0
  0
CLASS
  1
ACMSTANDARDANSI
  2
AcmStandardANSI
  3
"Amdt_StdImp|Product Description: AutoCAD Mechanical|Company: Autodesk, Inc."
 90
     1024
 91
        1
280
     0
281
     0
  0
CLASS
  1
ACMSURFSTANDARDANSI
  2
AcmSurfTextStdANSI
  3
"Amdt_StdImp|Product Description: AutoCAD Mechanical|Company: Autodesk, Inc."
 90
     1024
 91
        1
280
     0
281
     0
  0
CLASS
  1
ACMFCFSTANDARDANSI
  2
AcmFCFStdANSI
  3
"Amdt_StdImp|Product Description: AutoCAD Mechanical|Company: Autodesk, Inc."
 90
     1024
 91
        1
280
     0
281
     0
  0
CLASS
  1
ACMWELDSTANDARDANSI
  2
AcmWeldingStdANSI
  3
"Amdt_StdImp|Product Description: AutoCAD Mechanical|Company: Autodesk, Inc."
 90
     1024
 91
        1
280
     0
281
     0
  0
CLASS
  1
ACMIDSTANDARDANSI
  2
AcmIdStdANSI
  3
"Amdt_StdImp|Product Description: AutoCAD Mechanical|Company: Autodesk, Inc."
 90
     1024
 91
        1
280
     0
281
     0
  0
CLASS
  1
ACMDATUMSTANDARDANSI
  2
AcmDatumStdANSI
  3
"Amdt_StdImp|Product Description: AutoCAD Mechanical|Company: Autodesk, Inc."
 90
     1024
 91
        1
280
     0
281
     0
  0
CLASS
  1
ACMBOMSTANDARDANSI
  2
AcmBOMStdANSI
  3
"Amdt_StdImp|Product Description: AutoCAD Mechanical|Company: Autodesk, Inc."
 90
     1024
 91
        1
280
     0
281
     0
  0
CLASS
  1
ACMDETAILSTANDARDANSI
  2
AmdtDetailSymStdANSI
  3
"Amdt_StdImp|Product Description: AutoCAD Mechanical|Company: Autodesk, Inc."
 90
     1024
 91
        1
280
     0
281
     0
  0
CLASS
  1
ACMSECTIONSTANDARDANSI
  2
AmdtSectionSymStdANSI
  3
"Amdt_StdImp|Product Description: AutoCAD Mechanical|Company: Autodesk, Inc."
 90
     1024
 91
        1
280
     0
281
     0
  0
CLASS
  1
ACMCENTERLINESTANDARDANSI
  2
AmdtCenterLineStdANSI
  3
"Amdt_StdImp|Product Description: AutoCAD Mechanical|Company: Autodesk, Inc."
 90
     1024
 91
        1
280
     0
281
     0
  0
CLASS
  1
ACMTHREADLINESTANDARDANSI
  2
AmdtThreadLineStdANSI
  3
"Amdt_StdImp|Product Description: AutoCAD Mechanical|Company: Autodesk, Inc."
 90
     1024
 91
        1
280
     0
281
     0
  0
CLASS
  1
ACMNOTESTANDARDANSI
  2
AmdtNoteStdANSI
  3
"Amdt_StdImp|Product Description: AutoCAD Mechanical|Company: Autodesk, Inc."
 90
     1024
 91
        1
280
     0
281
     0
  0
CLASS
  1
ACMTAPERSTANDARDANSI
  2
AcmTaperStdANSI
  3
"Amdt_StdImp|Product Description: AutoCAD Mechanical|Company: Autodesk, Inc."
 90
     1024
 91
        1
280
     0
281
     0
  0
CLASS
  1
ACMANOOTATIONVIEWSTANDARDANSI
  2
AmdtAnViewStdANSI
  3
"Amdt_StdImp|Product Description: AutoCAD Mechanical|Company: Autodesk, Inc."
 90
     1024
 91
        1
280
     0
281
     0
  0
CLASS
  1
ACAMGLAYSTD
  2
AcAmgLayStd
  3
"AmgLay|Product Description: AutoCAD Mechanical|Company: Autodesk, Inc."
 90
     1024
 91
        1
280
     0
281
     0
  0
CLASS
  1
ACAMGTITLESTD
  2
AcAmgTitleStd
  3
"AmgTitle|Product Description: AutoCAD Mechanical|Company: Autodesk, Inc."
 90
     1024
 91
        1
280
     0
281
     0
  0
CLASS
  1
ACAMGDIMSTD
  2
AcAmgDimStd
  3
"AmgDim|Product Description: AutoCAD Mechanical|Company: Autodesk, Inc."
 90
     1024
 91
        1
280
     0
281
     0
  0
CLASS
  1
ACAMGHOLECHARTSTDANSI
  2
AcAmgHoleChartStdANSI
  3
"AmgDim" "Product Description: AutoCAD Mechanical|Company: Autodesk, Inc."
 90
     1024
 91
        1
280
     0
281
     0
  0
CLASS
  1
AMGOBJPROPCFG
  2
AmgObjPropCfg
  3
"AmgLay|Product Description: AutoCAD Mechanical|Company: Autodesk, Inc."
 90
     1024
 91
        1
280
     0
281
     0
  0
CLASS
  1
ACMSECTIONSTANDARDCUSTOM
  2
AmdtSectionSymStdCustom
  3
"Amdt_StdImp|Product Description: AutoCAD Mechanical|Company: Autodesk, Inc."
 90
     1024
 91
        1
280
     0
281
     0
  0
CLASS
  1
ACMDETAILTANDARDCUSTOM
  2
AmdtDetailSymStdCustom
  3
"Amdt_StdImp|Product Description: AutoCAD Mechanical|Company: Autodesk, Inc."
 90
     1024
 91
        1
280
     0
281
     0
  0
CLASS
  1
FIELD
  2
AcDbField
  3
ObjectDBX Classes
 90
     1152
 91
        8
280
     0
281
     0
  0
CLASS
  1
FIELDLIST
  2
AcDbFieldList
  3
ObjectDBX Classes
 90
     1152
 91
        1
280
     0
281
     0
  0
CLASS
  1
AMDTNOTETEMPLATEDB
  2
AmdtNoteTemplateDB
  3
"AcmSymBB" "Product Description: AutoCAD Mechanical|Company: Autodesk, Inc."
 90
     1024
 91
        7
280
     0
281
     0
  0
CLASS
  1
ACAMGFILTERDAT
  2
AcAmgFilterDat
  3
"AcadM|Product Description: AutoCAD Mechanical|Company: Autodesk, Inc."
 90
     1024
 91
        6
280
     0
281
     0
  0
CLASS
  1
SORTENTSTABLE
  2
AcDbSortentsTable
  3
ObjectDBX Classes
 90
        0
 91
        1
280
     0
281
     0
  0
CLASS
  1
DICTIONARYVAR
  2
AcDbDictionaryVar
  3
ObjectDBX Classes
 90
        0
 91
       10
280
     0
281
     0
  0
CLASS
  1
CELLSTYLEMAP
  2
AcDbCellStyleMap
  3
ObjectDBX Classes
 90
     1152
 91
        1
280
     0
281
     0
  0
ENDSEC
  0
SECTION
  2
TABLES
  0
TABLE
  2
VPORT
  5
53CA
330
0
100
AcDbSymbolTable
 70
     1
  0
VPORT
  5
5435
330
53CA
100
AcDbSymbolTableRecord
100
AcDbViewportTableRecord
  2
*ACTIVE
 70
     0
 10
0.0
 20
0.0
 11
1.0
 21
1.0
 12
2253.499848664236
 22
1407.096002671166
 13
0.0
 23
0.0
 14
25.0
 24
25.0
 15
100.0
 25
100.0
 16
0.0
 26
0.0
 36
1.0
 17
0.0
 27
0.0
 37
0.0
 40
3244.712285445093
 41
1.887694145758661
 42
50.0
 43
0.0
 44
0.0
 50
0.0
 51
0.0
 71
     0
 72
   100
 73
     1
 74
     1
 75
     0
 76
     0
 77
     0
 78
     0
281
     0
 65
     0
110
0.0
120
0.0
130
0.0
111
1.0
121
0.0
131
0.0
112
0.0
122
1.0
132
0.0
 79
     0
146
0.0
348
53F1
 60
     3
 61
     5
292
     1
282
     0
141
0.0
142
0.0
 63
   250
421
  3355443
1001
ACAD_NAV_VCDISPLAY
1070
     3
  0
ENDTAB
  0
TABLE
  2
LTYPE
  5
53C7
330
0
100
AcDbSymbolTable
 70
    17
  0
LTYPE
  5
541C
330
53C7
100
AcDbSymbolTableRecord
100
AcDbLinetypeTableRecord
  2
ByBlock
 70
     0
  3

 72
    65
 73
     0
 40
0.0
  0
LTYPE
  5
541D
330
53C7
100
AcDbSymbolTableRecord
100
AcDbLinetypeTableRecord
  2
ByLayer
 70
     0
  3

 72
    65
 73
     0
 40
0.0
  0
LTYPE
  5
541E
330
53C7
100
AcDbSymbolTableRecord
100
AcDbLinetypeTableRecord
  2
CONTINUOUS
 70
     0
  3
実線
 72
    65
 73
     0
 40
0.0
  0
LTYPE
  5
5436
330
53C7
100
AcDbSymbolTableRecord
100
AcDbLinetypeTableRecord
  2
HIDDEN
 70
     0
  3
Hidden __ __ __ __ __ __ __ __ __ __ __ __ __ _
 72
    65
 73
     2
 40
9.524999999999998
 49
6.349999999999997
 74
     0
 49
-3.174999999999998
 74
     0
  0
LTYPE
  5
5437
330
53C7
100
AcDbSymbolTableRecord
100
AcDbLinetypeTableRecord
  2
CENTER
 70
     0
  3
Center ____ _ ____ _ ____ _ ____ _ ____ _ ____
 72
    65
 73
     4
 40
50.8
 49
31.75
 74
     0
 49
-6.349999999999997
 74
     0
 49
6.349999999999997
 74
     0
 49
-6.349999999999997
 74
     0
  0
LTYPE
  5
5438
330
53C7
100
AcDbSymbolTableRecord
100
AcDbLinetypeTableRecord
  2
PHANTOM2
 70
     0
  3
Phantom (.5x) ___ _ _ ___ _ _ ___ _ _ ___ _ _
 72
    65
 73
     6
 40
31.75
 49
15.875
 74
     0
 49
-3.174999999999998
 74
     0
 49
3.174999999999998
 74
     0
 49
-3.174999999999998
 74
     0
 49
3.174999999999998
 74
     0
 49
-3.174999999999998
 74
     0
  0
LTYPE
  5
5439
330
53C7
100
AcDbSymbolTableRecord
100
AcDbLinetypeTableRecord
  2
AMCONSTR
 70
     0
  3
_______________________
 72
    65
 73
     2
 40
9999.0
 49
9999.0
 74
     0
 49
0.0
 74
     0
  0
LTYPE
  5
543A
330
53C7
100
AcDbSymbolTableRecord
100
AcDbLinetypeTableRecord
  2
CENTER2
 70
     0
  3
Center (.5x) ___ _ ___ _ ___ _ ___ _ ___ _ ___
 72
    65
 73
     4
 40
1.125
 49
0.75
 74
     0
 49
-0.125
 74
     0
 49
0.125
 74
     0
 49
-0.125
 74
     0
  0
LTYPE
  5
543B
330
53C7
100
AcDbSymbolTableRecord
100
AcDbLinetypeTableRecord
  2
HIDDEN2
 70
     0
  3
Hidden (.5x) _ _ _ _ _ _ _ _ _ _ _ _ _ _ _ _ _
 72
    65
 73
     2
 40
0.1875
 49
0.125
 74
     0
 49
-0.0625
 74
     0
  0
LTYPE
  5
543C
330
53C7
100
AcDbSymbolTableRecord
100
AcDbLinetypeTableRecord
  2
AMZIGZAG2
 70
     0
  3
/\/-/\/-/\/-/\/-/\/-/\/
 72
    65
 73
     2
 40
0.4401
 49
0.0001
 74
     0
 49
-0.4400000000000003
 74
     0
  0
LTYPE
  5
543D
330
53C7
100
AcDbSymbolTableRecord
100
AcDbLinetypeTableRecord
  2
ACANSTGB
 70
     0
  3
__ . . __ . .
 72
    65
 73
     6
 40
0.35433070866
 49
0.15748031496
 74
     0
 49
-0.03937007874
 74
     0
 49
0.03937007874
 74
     0
 49
-0.03937007874
 74
     0
 49
0.03937007874
 74
     0
 49
-0.03937007874
 74
     0
  0
LTYPE
  5
543E
330
53C7
100
AcDbSymbolTableRecord
100
AcDbLinetypeTableRecord
  2
ACANSTGL
 70
     0
  3
_ _ _ _ _
 72
    65
 73
     2
 40
0.11811023622
 49
0.07874015748
 74
     0
 49
-0.03937007874
 74
     0
  0
ENDTAB
  0
TABLE
  2
LAYER
  5
53C4
330
0
100
AcDbSymbolTable
 70
     4
  0
LAYER
  5
5416
102
{ACAD_XDICTIONARY
360
5580
102
}
330
53C4
100
AcDbSymbolTableRecord
100
AcDbLayerTableRecord
  2
0
 70
     0
 62
     7
  6
CONTINUOUS
370
    -3
390
53D1
347
53E3
  0
LAYER
  5
5445
102
{ACAD_XDICTIONARY
360
5582
102
}
330
53C4
100
AcDbSymbolTableRecord
100
AcDbLayerTableRecord
  2
HOJYO2
 70
     0
 62
     6
  6
HIDDEN
370
    -3
390
53D1
347
53E3
  0
LAYER
  5
5446
330
53C4
100
AcDbSymbolTableRecord
100
AcDbLayerTableRecord
  2
DEFPOINTS
 70
     0
 62
     7
  6
CONTINUOUS
290
     0
370
    -3
390
53D1
347
53E3
  0
ENDTAB
  0
TABLE
  2
STYLE
  5
53C5
330
0
100
AcDbSymbolTable
 70
     6
  0
STYLE
  5
5417
330
53C5
100
AcDbSymbolTableRecord
100
AcDbTextStyleTableRecord
  2
STANDARD
 70
     0
 40
0.0
 41
1.0
 50
0.0
 71
     0
 42
2.5
  3
txt.shx
  4
extfont2.shx
  0
STYLE
  5
5447
330
53C5
100
AcDbSymbolTableRecord
100
AcDbTextStyleTableRecord
  2
MONO-SET
 70
     0
 40
0.0
 41
1.0
 50
0.0
 71
     0
 42
0.2
  3
MONOTXT
  4
BIGFONT
  0
STYLE
  5
5449
330
53C5
100
AcDbSymbolTableRecord
100
AcDbTextStyleTableRecord
  2
ACANSGDT
 70
     0
 40
0.0
 41
1.0
 50
0.0
 71
     0
 42
2.5
  3
amgdt.shx
  4

  0
ENDTAB
  0
TABLE
  2
VIEW
  5
53C8
330
0
100
AcDbSymbolTable
 70
     0
  0
ENDTAB
  0
TABLE
  2
UCS
  5
53C9
330
0
100
AcDbSymbolTable
 70
     0
  0
ENDTAB
  0
TABLE
  2
APPID
  5
53CB
330
0
100
AcDbSymbolTable
 70
    48
  0
APPID
  5
5418
330
53CB
100
AcDbSymbolTableRecord
100
AcDbRegAppTableRecord
  2
ACAD
 70
     0
  0
APPID
  5
541F
330
53CB
100
AcDbSymbolTableRecord
100
AcDbRegAppTableRecord
  2
ACADANNOTATIVE
 70
     0
  0
APPID
  5
544B
330
53CB
100
AcDbSymbolTableRecord
100
AcDbRegAppTableRecord
  2
ACE-LT__COPYRIGHT_TRIALSOFT-JPN
 70
     0
  0
APPID
  5
544C
330
53CB
100
AcDbSymbolTableRecord
100
AcDbRegAppTableRecord
  2
MCAD_NO_VIS
 70
     0
  0
APPID
  5
544D
330
53CB
100
AcDbSymbolTableRecord
100
AcDbRegAppTableRecord
  2
ACAD_TEMP_GRAPHIC
 70
     0
  0
APPID
  5
544E
330
53CB
100
AcDbSymbolTableRecord
100
AcDbRegAppTableRecord
  2
ACAD_PSEXT
 70
     0
  0
APPID
  5
544F
330
53CB
100
AcDbSymbolTableRecord
100
AcDbRegAppTableRecord
  2
ACADANNOPO
 70
     0
  0
APPID
  5
5450
330
53CB
100
AcDbSymbolTableRecord
100
AcDbRegAppTableRecord
  2
ACAD_DSTYLE_DIMJAG
 70
     0
  0
APPID
  5
5451
330
53CB
100
AcDbSymbolTableRecord
100
AcDbRegAppTableRecord
  2
ACAD_DSTYLE_DIMTALN
 70
     0
  0
APPID
  5
5452
330
53CB
100
AcDbSymbolTableRecord
100
AcDbRegAppTableRecord
  2
ACAD_MLEADERVER
 70
     0
  0
APPID
  5
5453
330
53CB
100
AcDbSymbolTableRecord
100
AcDbRegAppTableRecord
  2
ACAD_NAV_VCDISPLAY
 70
     0
  0
APPID
  5
5454
330
53CB
100
AcDbSymbolTableRecord
100
AcDbRegAppTableRecord
  2
ACATTRIBSERVICES
 70
     0
  0
APPID
  5
5455
330
53CB
100
AcDbSymbolTableRecord
100
AcDbRegAppTableRecord
  2
DESIGNERASSEMBLIES
 70
     0
  0
APPID
  5
5456
330
53CB
100
AcDbSymbolTableRecord
100
AcDbRegAppTableRecord
  2
ACAD_DSTYLE_DIMBREAK
 70
     0
  0
APPID
  5
5457
330
53CB
100
AcDbSymbolTableRecord
100
AcDbRegAppTableRecord
  2
ACAECLAYERSTANDARD
 70
     0
  0
APPID
  5
5458
330
53CB
100
AcDbSymbolTableRecord
100
AcDbRegAppTableRecord
  2
AD_DRAW
 70
     0
  0
APPID
  5
5459
330
53CB
100
AcDbSymbolTableRecord
100
AcDbRegAppTableRecord
  2
ACADM_DIM_EDIT
 70
     0
  0
APPID
  5
545A
330
53CB
100
AcDbSymbolTableRecord
100
AcDbRegAppTableRecord
  2
AMDT_DM_ADJ
 70
     0
  0
APPID
  5
545B
330
53CB
100
AcDbSymbolTableRecord
100
AcDbRegAppTableRecord
  2
ACAD_DSTYLE_DIMARC_LENGTH_
 70
     0
  0
APPID
  5
545C
330
53CB
100
AcDbSymbolTableRecord
100
AcDbRegAppTableRecord
  2
ACAD_DSTYLE_DIMJOGGED_JOGA
 70
     0
  0
APPID
  5
545D
330
53CB
100
AcDbSymbolTableRecord
100
AcDbRegAppTableRecord
  2
ACAD_EXEMPT_FROM_CAD_STANDARDS
 70
     0
  0
APPID
  5
545E
330
53CB
100
AcDbSymbolTableRecord
100
AcDbRegAppTableRecord
  2
GENIUS_GENREC_14
 70
     0
  0
APPID
  5
545F
330
53CB
100
AcDbSymbolTableRecord
100
AcDbRegAppTableRecord
  2
GENIUS_GENODEF_13
 70
     0
  0
APPID
  5
5460
330
53CB
100
AcDbSymbolTableRecord
100
AcDbRegAppTableRecord
  2
GENIUS_GENOBJ-N-REC_13
 70
     0
  0
APPID
  5
5461
330
53CB
100
AcDbSymbolTableRecord
100
AcDbRegAppTableRecord
  2
GEVID1362489746
 70
     0
  0
APPID
  5
5462
330
53CB
100
AcDbSymbolTableRecord
100
AcDbRegAppTableRecord
  2
GENIUS_GENBH_13
 70
     0
  0
APPID
  5
5463
330
53CB
100
AcDbSymbolTableRecord
100
AcDbRegAppTableRecord
  2
GENIUS_GENOENT_13
 70
     0
  0
APPID
  5
5464
330
53CB
100
AcDbSymbolTableRecord
100
AcDbRegAppTableRecord
  2
GENIUS_GENOLIS_13
 70
     0
  0
APPID
  5
5465
330
53CB
100
AcDbSymbolTableRecord
100
AcDbRegAppTableRecord
  2
GENIUS_GENOBJ-NBEHI-BHF_13
 70
     0
  0
APPID
  5
5466
330
53CB
100
AcDbSymbolTableRecord
100
AcDbRegAppTableRecord
  2
GENIUS_GENOREF_13
 70
     0
  0
APPID
  5
5467
330
53CB
100
AcDbSymbolTableRecord
100
AcDbRegAppTableRecord
  2
GENIUS_GENOBJ-NBEHI-BHB_13
 70
     0
  0
APPID
  5
5468
330
53CB
100
AcDbSymbolTableRecord
100
AcDbRegAppTableRecord
  2
GEVID1362489747
 70
     0
  0
APPID
  5
5469
330
53CB
100
AcDbSymbolTableRecord
100
AcDbRegAppTableRecord
  2
ACM_PP_DIM_CONSTRAINT
 70
     0
  0
APPID
  5
546A
330
53CB
100
AcDbSymbolTableRecord
100
AcDbRegAppTableRecord
  2
ACM_PP_ASSOCVAR
 70
     0
  0
APPID
  5
546B
330
53CB
100
AcDbSymbolTableRecord
100
AcDbRegAppTableRecord
  2
ACM_PP_DIM_ACTION_MACRO
 70
     0
  0
APPID
  5
546C
330
53CB
100
AcDbSymbolTableRecord
100
AcDbRegAppTableRecord
  2
ACM_PP_DIM_CONSTRAINT_DRAG_GRIP
 70
     0
  0
APPID
  5
546D
330
53CB
100
AcDbSymbolTableRecord
100
AcDbRegAppTableRecord
  2
GEVID1362489748
 70
     0
  0
APPID
  5
546E
330
53CB
100
AcDbSymbolTableRecord
100
AcDbRegAppTableRecord
  2
GENIUS_GENDTOL_13
 70
     0
  0
APPID
  5
546F
330
53CB
100
AcDbSymbolTableRecord
100
AcDbRegAppTableRecord
  2
ACAD_DSTYLE_DIMINSPECT
 70
     0
  0
APPID
  5
5470
330
53CB
100
AcDbSymbolTableRecord
100
AcDbRegAppTableRecord
  2
ACADANNOMONITORALERTICONDI
 70
     0
  0
APPID
  5
5471
330
53CB
100
AcDbSymbolTableRecord
100
AcDbRegAppTableRecord
  2
ACAUTHENVIRON
 70
     0
  0
APPID
  5
5472
330
53CB
100
AcDbSymbolTableRecord
100
AcDbRegAppTableRecord
  2
ACDBDYNAMICBLOCKTRUENAME
 70
     0
  0
APPID
  5
5473
330
53CB
100
AcDbSymbolTableRecord
100
AcDbRegAppTableRecord
  2
ACDBDYNAMICBLOCKGUID
 70
     0
  0
APPID
  5
5474
330
53CB
100
AcDbSymbolTableRecord
100
AcDbRegAppTableRecord
  2
GENIUS_GENTRA_14
 70
     0
  0
APPID
  5
5475
330
53CB
100
AcDbSymbolTableRecord
100
AcDbRegAppTableRecord
  2
GENIUS_GENOBJ-N-LIB_13
 70
     0
  0
APPID
  5
5476
330
53CB
100
AcDbSymbolTableRecord
100
AcDbRegAppTableRecord
  2
GENIUS_GENOBJ-N-RSBK_13
 70
     0
  0
APPID
  5
5477
330
53CB
100
AcDbSymbolTableRecord
100
AcDbRegAppTableRecord
  2
GENIUS_GENSCALE_13
 70
     0
  0
APPID
  5
551F
330
53CB
100
AcDbSymbolTableRecord
100
AcDbRegAppTableRecord
  2
AcadAnnoMonitorAlertIconDisabled
 70
     0
  0
ENDTAB
  0
TABLE
  2
DIMSTYLE
  5
53CC
330
0
100
AcDbSymbolTable
 70
    10
100
AcDbDimStyleTable
 71
     1
340
5478
  0
DIMSTYLE
105
5419
330
53CC
100
AcDbSymbolTableRecord
100
AcDbDimStyleTableRecord
  2
STANDARD
 70
     0
271
     2
272
     2
279
     2
284
     9
285
     9
286
     9
340
5417
  0
DIMSTYLE
105
5478
330
53CC
100
AcDbSymbolTableRecord
100
AcDbDimStyleTableRecord
  2
AM_JIS
 70
     0
  4
"
 40
10.0
 41
2.0
 42
1.0
 43
7.0
 44
1.8
 48
0.000000001
 73
     0
 74
     0
 77
     3
 78
     9
140
3.0
141
1.0
143
0.0393701
146
0.71
147
1.5
172
     1
176
   256
177
   256
178
     4
271
     2
272
     2
279
     2
284
     9
285
     9
286
     9
340
5417
  0
DIMSTYLE
105
5479
102
{ACAD_REACTORS
330
54BF
102
}
330
53CC
100
AcDbSymbolTableRecord
100
AcDbDimStyleTableRecord
  2
AM_ANSI
 70
     0
  4
mm
 41
0.12
 42
0.05
 43
0.5
 44
0.1
 47
0.1
 48
0.1
 78
     7
140
0.12
141
0.0
146
0.71
147
0.06
176
   256
177
   256
178
     2
271
     2
272
     2
279
     2
284
     9
285
     9
286
     9
340
5417
  0
DIMSTYLE
105
547A
330
53CC
100
AcDbSymbolTableRecord
100
AcDbDimStyleTableRecord
  2
AM_ANSI$3
 70
     0
  4
mm
 41
0.12
 42
0.05
 43
0.5
 44
0.1
 47
0.1
 48
0.1
 78
     7
140
0.12
141
0.0
146
0.71
147
0.06
176
   256
177
   256
178
     2
271
     2
272
     2
279
     2
284
     9
285
     9
286
     9
340
5417
  0
DIMSTYLE
105
547B
330
53CC
100
AcDbSymbolTableRecord
100
AcDbDimStyleTableRecord
  2
AM_ANSI$4
 70
     0
  4
mm
 41
0.12
 42
0.05
 43
0.5
 44
0.1
 47
0.1
 48
0.1
 78
     7
140
0.12
141
0.0
146
0.71
147
0.06
176
   256
177
   256
178
     2
271
     2
272
     2
279
     2
284
     9
285
     9
286
     9
340
5417
  0
DIMSTYLE
105
547C
330
53CC
100
AcDbSymbolTableRecord
100
AcDbDimStyleTableRecord
  2
AM_ANSI$7
 70
     0
  4
mm
 41
0.12
 42
0.05
 43
0.5
 44
0.1
 47
0.1
 48
0.1
 78
     7
140
0.12
141
0.0
146
0.71
147
0.06
176
   256
177
   256
178
     2
271
     2
272
     2
279
     2
284
     9
285
     9
286
     9
340
5417
  0
DIMSTYLE
105
547D
330
53CC
100
AcDbSymbolTableRecord
100
AcDbDimStyleTableRecord
  2
AM_ANSI$SF
 70
     0
  4
mm
 41
0.12
 42
0.05
 43
0.5
 44
0.1
 47
0.1
 48
0.1
 75
     1
 76
     1
 78
     7
140
0.12
141
0.0
146
0.71
147
0.06
176
   256
177
   256
178
     2
271
     2
272
     2
279
     2
284
     9
285
     9
286
     9
340
5417
  0
DIMSTYLE
105
547E
330
53CC
100
AcDbSymbolTableRecord
100
AcDbDimStyleTableRecord
  2
AM_ANSI$SH
 70
     0
  4
mm
 41
0.12
 42
0.05
 43
0.5
 44
0.1
 47
0.1
 48
0.1
 75
     1
 76
     1
 78
     7
140
0.12
141
0.0
146
0.71
147
0.06
173
     1
176
   256
177
   256
178
     2
271
     2
272
     2
279
     2
284
     9
285
     9
286
     9
340
5417
  0
ENDTAB
  0
TABLE
  2
BLOCK_RECORD
  5
53C3
330
0
100
AcDbSymbolTable
 70
     8
  0
BLOCK_RECORD
  5
5431
102
{ACAD_XDICTIONARY
360
5564
102
}
330
53C3
100
AcDbSymbolTableRecord
100
AcDbBlockTableRecord
  2
*Model_Space
340
5434
 70
     0
280
     1
281
     0
  0
BLOCK_RECORD
  5
542D
330
53C3
100
AcDbSymbolTableRecord
100
AcDbBlockTableRecord
  2
*Paper_Space
340
5430
 70
     0
280
     1
281
     0
  0
BLOCK_RECORD
  5
548A
330
53C3
100
AcDbSymbolTableRecord
100
AcDbBlockTableRecord
  2
_OPEN30
340
0
 70
     0
280
     1
281
     0
  0
BLOCK_RECORD
  5
548E
330
53C3
100
AcDbSymbolTableRecord
100
AcDbBlockTableRecord
  2
_ACMFILLEDHALF
340
0
 70
     0
280
     1
281
     0
  0
ENDTAB
  0
ENDSEC
  0
SECTION
  2
BLOCKS
  0
BLOCK
  5
5432
330
5431
100
AcDbEntity
  8
0
100
AcDbBlockBegin
  2
*Model_Space
 70
     0
 10
0.0
 20
0.0
 30
0.0
  3
*Model_Space
  1

  0
ENDBLK
  5
5433
330
5431
100
AcDbEntity
  8
0
100
AcDbBlockEnd
  0
BLOCK
  5
542E
330
542D
100
AcDbEntity
 67
     1
  8
0
100
AcDbBlockBegin
  2
*Paper_Space
 70
     0
 10
0.0
 20
0.0
 30
0.0
  3
*Paper_Space
  1

  0
ENDBLK
  5
542F
330
542D
100
AcDbEntity
 67
     1
  8
0
100
AcDbBlockEnd
  0
BLOCK
  5
548B
330
548A
100
AcDbEntity
  8
0
100
AcDbBlockBegin
  2
_OPEN30
 70
     0
 10
0.0
 20
0.0
 30
0.0
  3
_OPEN30
  1

  0
LINE
  5
3C3E
330
548A
100
AcDbEntity
  8
0
  6
ByBlock
 62
     0
100
AcDbLine
 10
-1.0
 20
0.26794919
 30
0.0
 11
0.0
 21
0.0
 31
0.0
  0
LINE
  5
3C3F
330
548A
100
AcDbEntity
  8
0
  6
ByBlock
 62
     0
100
AcDbLine
 10
0.0
 20
0.0
 30
0.0
 11
-1.0
 21
-0.26794919
 31
0.0
  0
LINE
  5
3C40
330
548A
100
AcDbEntity
  8
0
  6
ByBlock
 62
     0
100
AcDbLine
 10
0.0
 20
0.0
 30
0.0
 11
-1.0
 21
0.0
 31
0.0
  0
ENDBLK
  5
3C41
330
548A
100
AcDbEntity
  8
0
100
AcDbBlockEnd
  0
BLOCK
  5
548F
330
548E
100
AcDbEntity
  8
0
100
AcDbBlockBegin
  2
_ACMFILLEDHALF
 70
     0
 10
0.0
 20
0.0
 30
0.0
  3
_ACMFILLEDHALF
  1

  0
TRACE
  5
5117
330
548E
100
AcDbEntity
  8
HOJYO2
 62
     0
100
AcDbTrace
 10
-0.8
 20
0.0
 30
0.0
 11
-1.0
 21
0.166666666
 31
0.0
 12
0.0
 22
0.0
 32
0.0
 13
0.0
 23
0.0
 33
0.0
  0
LINE
  5
5118
330
548E
100
AcDbEntity
  8
HOJYO2
 62
     0
100
AcDbLine
 10
-1.0
 20
0.0
 30
0.0
 11
-0.8
 21
0.0
 31
0.0
  0
ENDBLK
  5
5116
330
548E
100
AcDbEntity
  8
0
100
AcDbBlockEnd
  0
ENDSEC
  0
SECTION
  2
ENTITIES
  0
TEXT
  5
86E
330
5431
100
AcDbEntity
  8
0
100
AcDbText
 10
926.9153104867148
 20
115.0
 30
0.0
 40
35.0
  1
エアコン防振台
  7
MONO-SET
100
AcDbText
  0
TEXT
  5
86F
330
5431
100
AcDbEntity
  8
0
100
AcDbText
 10
950.0
 20
20.0
 30
0.0
 40
35.0
  1
ABM-225E
  7
MONO-SET
100
AcDbText
  0
TEXT
  5
87D
330
5431
100
AcDbEntity
  8
0
100
AcDbText
 10
90.00000000000019
 20
1237.09868894427
 30
0.0
 40
30.0
  1
＜基礎ボルト位置＞
100
AcDbText
  0
TEXT
  5
89A
330
5431
100
AcDbEntity
  8
0
100
AcDbText
 10
825.5583139317883
 20
601.5722019286949
 30
0.0
 40
25.0
  1
＜基礎ボルト穴＞
100
AcDbText
  0
LINE
  5
89B
330
5431
100
AcDbEntity
  8
0
100
AcDbLine
 10
650.858002023509
 20
596.9435832492495
 30
0.0
 11
1120.035272722321
 21
596.9435832492495
 31
0.0
  0
TEXT
  5
8FF
330
5431
100
AcDbEntity
  8
0
100
AcDbText
 10
90.00000000000019
 20
2680.0
 30
0.0
 40
30.0
  1
＜外形寸法図＞
100
AcDbText
  0
LINE
  5
901
330
5431
100
AcDbEntity
  8
0
100
AcDbLine
 10
702.520598573816
 20
2473.455973998448
 30
0.0
 11
1051.351878182455
 21
2473.455973998451
 31
0.0
  0
TEXT
  5
902
330
5431
100
AcDbEntity
  8
0
100
AcDbText
 10
716.335791566215
 20
2482.834324638054
 30
0.0
 40
25.0
  1
4-φ16＜機器取付穴＞
100
AcDbText
  0
LINE
  5
11A3
330
5431
100
AcDbEntity
  8
0
100
AcDbLine
 10
779.9999672747494
 20
1654.0
 30
0.0
 11
1019.999967274749
 21
1654.0
 31
0.0
  0
LINE
  5
11A4
330
5431
100
AcDbEntity
  8
0
100
AcDbLine
 10
779.9999672747494
 20
1674.0
 30
0.0
 11
1019.999967274749
 21
1674.0
 31
0.0
  0
LINE
  5
11A5
330
5431
100
AcDbEntity
  8
0
100
AcDbLine
 10
779.9999672747494
 20
1674.0
 30
0.0
 11
779.9999672747494
 21
1654.0
 31
0.0
  0
LINE
  5
11A6
330
5431
100
AcDbEntity
  8
0
100
AcDbLine
 10
1019.999967274749
 20
1674.0
 30
0.0
 11
1019.999967274749
 21
1654.0
 31
0.0
  0
LINE
  5
1371
330
5431
100
AcDbEntity
  8
0
100
AcDbLine
 10
1382.99997629755
 20
2313.455949101946
 30
0.0
 11
417.0000000000004
 21
2313.456037743568
 31
0.0
  0
LINE
  5
1372
330
5431
100
AcDbEntity
  8
0
100
AcDbLine
 10
1382.99997629755
 20
2373.455949101935
 30
0.0
 11
417.0000000000007
 21
2373.456037743559
 31
0.0
  0
LINE
  5
1373
330
5431
100
AcDbEntity
  8
0
100
AcDbLine
 10
1382.99997629755
 20
1963.456037654333
 30
0.0
 11
417.0000000000004
 21
1963.45594901271
 31
0.0
  0
LINE
  5
1374
330
5431
100
AcDbEntity
  8
0
100
AcDbLine
 10
1382.99997629755
 20
1903.456037654344
 30
0.0
 11
417.0000000000007
 21
1903.45594901272
 31
0.0
  0
LINE
  5
1375
330
5431
100
AcDbEntity
  8
0
100
AcDbLine
 10
349.9999554235244
 20
1970.456031738608
 30
0.0
 11
349.9999554235244
 21
2306.45595501767
 31
0.0
  0
LINE
  5
1376
330
5431
100
AcDbEntity
  8
0
100
AcDbLine
 10
380.9999554235244
 20
1970.456031738608
 30
0.0
 11
380.9999554235244
 21
2306.45595501767
 31
0.0
  0
LINE
  5
1377
330
5431
100
AcDbEntity
  8
0
100
AcDbLine
 10
412.5
 20
1965.956120380231
 30
0.0
 11
412.5000000000007
 21
1903.456126295967
 31
0.0
  0
LINE
  5
1378
330
5431
100
AcDbEntity
  8
0
100
AcDbLine
 10
417.0
 20
1970.45612038023
 30
0.0
 11
417.0000000000007
 21
1903.456126295967
 31
0.0
  0
ARC
  5
1379
330
5431
100
AcDbEntity
  8
0
100
AcDbCircle
 10
374.0000000000001
 20
1927.456164039513
 30
0.0
 40
24.0
100
AcDbArc
 50
180.0
 51
269.9999502863144
  0
CIRCLE
  5
137A
330
5431
100
AcDbEntity
  8
0
100
AcDbCircle
 10
382.0000000000001
 20
1935.456122475622
 30
0.0
 40
21.0
  0
LINE
  5
137B
330
5431
100
AcDbEntity
  8
0
100
AcDbLine
 10
382.0000000000001
 20
1906.430248457
 30
0.0
 11
382.0000000000001
 21
1964.481996494244
 31
0.0
  0
LINE
  5
137C
330
5431
100
AcDbEntity
  8
0
100
AcDbLine
 10
373.4999791759794
 20
1903.456164039523
 30
0.0
 11
417.0000000000007
 21
1903.456126295967
 31
0.0
  0
LINE
  5
137D
330
5431
100
AcDbEntity
  8
0
100
AcDbLine
 10
350.0000000000003
 20
1970.45612038023
 30
0.0
 11
417.0
 21
1970.45612038023
 31
0.0
  0
LINE
  5
137E
330
5431
100
AcDbEntity
  8
0
100
AcDbLine
 10
350.0000000000003
 20
1965.956120380231
 30
0.0
 11
417.0
 21
1965.956120380231
 31
0.0
  0
LINE
  5
137F
330
5431
100
AcDbEntity
  8
0
100
AcDbLine
 10
350.0000000000003
 20
1926.956164039513
 30
0.0
 11
350.0000000000003
 21
1970.45612038023
 31
0.0
  0
LINE
  5
1380
330
5431
100
AcDbEntity
  8
0
100
AcDbLine
 10
411.0258740186224
 20
1935.456122475622
 30
0.0
 11
352.9741259813785
 21
1935.456122475622
 31
0.0
  0
LINE
  5
1383
330
5431
100
AcDbEntity
  8
0
100
AcDbLine
 10
614.9999554235241
 20
1950.391738292823
 30
0.0
 11
614.9999554235241
 21
1906.520182429775
 31
0.0
  0
LINE
  5
1384
330
5431
100
AcDbEntity
  8
0
100
AcDbLine
 10
593.0641774920005
 20
1928.455960361299
 30
0.0
 11
636.9357333550478
 21
1928.455960361299
 31
0.0
  0
LINE
  5
1387
330
5431
100
AcDbEntity
  8
0
100
AcDbLine
 10
417.0
 20
2306.456043659293
 30
0.0
 11
417.0000000000007
 21
2373.456037743559
 31
0.0
  0
LINE
  5
1388
330
5431
100
AcDbEntity
  8
0
100
AcDbLine
 10
412.5
 20
2310.956043659293
 30
0.0
 11
412.5000000000007
 21
2373.456037743559
 31
0.0
  0
LINE
  5
1389
330
5431
100
AcDbEntity
  8
0
100
AcDbLine
 10
382.0000000000001
 20
2370.481915582525
 30
0.0
 11
382.0000000000001
 21
2312.43016754528
 31
0.0
  0
ARC
  5
138A
330
5431
100
AcDbEntity
  8
0
100
AcDbCircle
 10
374.0000000000001
 20
2349.45600000001
 30
0.0
 40
24.0
100
AcDbArc
 50
90.00004971368545
 51
180.0
  0
LINE
  5
138B
330
5431
100
AcDbEntity
  8
0
100
AcDbLine
 10
350.0000000000003
 20
2310.956043659293
 30
0.0
 11
417.0
 21
2310.956043659293
 31
0.0
  0
LINE
  5
138C
330
5431
100
AcDbEntity
  8
0
100
AcDbLine
 10
350.0000000000003
 20
2306.456043659293
 30
0.0
 11
417.0
 21
2306.456043659293
 31
0.0
  0
LINE
  5
138D
330
5431
100
AcDbEntity
  8
0
100
AcDbLine
 10
350.0000000000003
 20
2349.95600000001
 30
0.0
 11
350.0000000000003
 21
2306.456043659293
 31
0.0
  0
CIRCLE
  5
138E
330
5431
100
AcDbEntity
  8
0
100
AcDbCircle
 10
382.0000000000001
 20
2341.456041563903
 30
0.0
 40
21.0
  0
LINE
  5
1390
330
5431
100
AcDbEntity
  8
0
100
AcDbLine
 10
411.0258740186224
 20
2341.456041563903
 30
0.0
 11
352.9741259813785
 21
2341.456041563903
 31
0.0
  0
LINE
  5
1391
330
5431
100
AcDbEntity
  8
0
100
AcDbLine
 10
373.4999791759794
 20
2373.456
 30
0.0
 11
417.0000000000007
 21
2373.456037743559
 31
0.0
  0
LINE
  5
1393
330
5431
100
AcDbEntity
  8
0
100
AcDbLine
 10
614.9999554235241
 20
2326.520248463456
 30
0.0
 11
614.9999554235241
 21
2370.391804326503
 31
0.0
  0
LINE
  5
1395
330
5431
100
AcDbEntity
  8
0
100
AcDbLine
 10
593.0641774920005
 20
2348.456026394979
 30
0.0
 11
636.9357333550478
 21
2348.456026394979
 31
0.0
  0
LINE
  5
1398
330
5431
100
AcDbEntity
  8
0
100
AcDbLine
 10
1418.999955423524
 20
1970.456031738608
 30
0.0
 11
1418.999955423524
 21
2306.45595501767
 31
0.0
  0
LINE
  5
1399
330
5431
100
AcDbEntity
  8
0
100
AcDbLine
 10
1449.999955423524
 20
1970.456031738608
 30
0.0
 11
1449.999955423524
 21
2306.45595501767
 31
0.0
  0
LINE
  5
139E
330
5431
100
AcDbEntity
  8
0
100
AcDbLine
 10
1184.999955423524
 20
1950.391804237284
 30
0.0
 11
1184.999955423524
 21
1906.520248374237
 31
0.0
  0
LINE
  5
139F
330
5431
100
AcDbEntity
  8
0
100
AcDbLine
 10
1163.064177492
 20
1928.456026305761
 30
0.0
 11
1206.935733355048
 21
1928.456026305761
 31
0.0
  0
LINE
  5
13A2
330
5431
100
AcDbEntity
  8
0
100
AcDbLine
 10
1387.49997629755
 20
1965.956031738608
 30
0.0
 11
1387.49997629755
 21
1903.456037654344
 31
0.0
  0
LINE
  5
13A3
330
5431
100
AcDbEntity
  8
0
100
AcDbLine
 10
1382.99997629755
 20
1970.456031738608
 30
0.0
 11
1382.99997629755
 21
1903.456037654344
 31
0.0
  0
LINE
  5
13A4
330
5431
100
AcDbEntity
  8
0
100
AcDbLine
 10
1417.99997629755
 20
1906.430159815376
 30
0.0
 11
1417.99997629755
 21
1964.48190785262
 31
0.0
  0
CIRCLE
  5
13A5
330
5431
100
AcDbEntity
  8
0
100
AcDbCircle
 10
1417.99997629755
 20
1935.456033834
 30
0.0
 40
21.0
  0
ARC
  5
13A6
330
5431
100
AcDbEntity
  8
0
100
AcDbCircle
 10
1425.99997629755
 20
1927.456075397891
 30
0.0
 40
24.0
100
AcDbArc
 50
270.0000497136854
 51
0.0
  0
LINE
  5
13A7
330
5431
100
AcDbEntity
  8
0
100
AcDbLine
 10
1426.499997121571
 20
1903.4560753979
 30
0.0
 11
1382.99997629755
 21
1903.456037654344
 31
0.0
  0
LINE
  5
13A8
330
5431
100
AcDbEntity
  8
0
100
AcDbLine
 10
1388.974102278928
 20
1935.456033834
 30
0.0
 11
1447.025850316172
 21
1935.456033834
 31
0.0
  0
LINE
  5
13A9
330
5431
100
AcDbEntity
  8
0
100
AcDbLine
 10
1449.99997629755
 20
1970.456031738608
 30
0.0
 11
1382.99997629755
 21
1970.456031738608
 31
0.0
  0
LINE
  5
13AA
330
5431
100
AcDbEntity
  8
0
100
AcDbLine
 10
1449.99997629755
 20
1965.956031738608
 30
0.0
 11
1382.99997629755
 21
1965.956031738608
 31
0.0
  0
LINE
  5
13AD
330
5431
100
AcDbEntity
  8
0
100
AcDbLine
 10
1449.99997629755
 20
1926.956075397891
 30
0.0
 11
1449.99997629755
 21
1970.456031738608
 31
0.0
  0
LINE
  5
13B2
330
5431
100
AcDbEntity
  8
0
100
AcDbLine
 10
1184.999955423524
 20
2326.520182518994
 30
0.0
 11
1184.999955423524
 21
2370.391738382042
 31
0.0
  0
LINE
  5
13B3
330
5431
100
AcDbEntity
  8
0
100
AcDbLine
 10
1163.064177492
 20
2348.455960450519
 30
0.0
 11
1206.935733355048
 21
2348.455960450519
 31
0.0
  0
LINE
  5
13B5
330
5431
100
AcDbEntity
  8
0
100
AcDbLine
 10
1387.49997629755
 20
2310.95595501767
 30
0.0
 11
1387.49997629755
 21
2373.455949101935
 31
0.0
  0
LINE
  5
13B6
330
5431
100
AcDbEntity
  8
0
100
AcDbLine
 10
1382.99997629755
 20
2306.45595501767
 30
0.0
 11
1382.99997629755
 21
2373.455949101935
 31
0.0
  0
LINE
  5
13B7
330
5431
100
AcDbEntity
  8
0
100
AcDbLine
 10
1417.99997629755
 20
2370.481826940902
 30
0.0
 11
1417.99997629755
 21
2312.430078903657
 31
0.0
  0
ARC
  5
13B8
330
5431
100
AcDbEntity
  8
0
100
AcDbCircle
 10
1425.99997629755
 20
2349.455911358386
 30
0.0
 40
24.0
100
AcDbArc
 50
0.0
 51
89.99995028631451
  0
LINE
  5
13B9
330
5431
100
AcDbEntity
  8
0
100
AcDbLine
 10
1449.99997629755
 20
2306.45595501767
 30
0.0
 11
1382.99997629755
 21
2306.45595501767
 31
0.0
  0
LINE
  5
13BA
330
5431
100
AcDbEntity
  8
0
100
AcDbLine
 10
1449.99997629755
 20
2310.95595501767
 30
0.0
 11
1382.99997629755
 21
2310.95595501767
 31
0.0
  0
LINE
  5
13BB
330
5431
100
AcDbEntity
  8
0
100
AcDbLine
 10
1388.974102278928
 20
2341.45595292228
 30
0.0
 11
1447.025850316172
 21
2341.45595292228
 31
0.0
  0
CIRCLE
  5
13BC
330
5431
100
AcDbEntity
  8
0
100
AcDbCircle
 10
1417.99997629755
 20
2341.45595292228
 30
0.0
 40
21.0
  0
LINE
  5
13BE
330
5431
100
AcDbEntity
  8
0
100
AcDbLine
 10
1449.99997629755
 20
2349.955911358386
 30
0.0
 11
1449.99997629755
 21
2306.45595501767
 31
0.0
  0
LINE
  5
13BF
330
5431
100
AcDbEntity
  8
0
100
AcDbLine
 10
1426.499997121571
 20
2373.455911358379
 30
0.0
 11
1382.99997629755
 21
2373.455949101935
 31
0.0
  0
LINE
  5
1552
330
5431
100
AcDbEntity
  8
0
100
AcDbLine
 10
1184.999934549498
 20
1584.121341004633
 30
0.0
 11
1184.999934549498
 21
1526.694335075292
 31
0.0
  0
LINE
  5
1553
330
5431
100
AcDbEntity
  8
0
100
AcDbLine
 10
614.9999345494983
 20
1584.12127506017
 30
0.0
 11
614.9999345494983
 21
1527.926577359304
 31
0.0
  0
LINE
  5
1555
330
5431
100
AcDbEntity
  8
0
100
AcDbLine
 10
417.0000000000004
 20
1541.999999999999
 30
0.0
 11
1382.999934549497
 21
1541.999999999999
 31
0.0
  0
LINE
  5
1571
330
5431
100
AcDbEntity
  8
0
100
AcDbLine
 10
417.0000000000004
 20
1649.0
 30
0.0
 11
1382.999934549498
 21
1649.0
 31
0.0
  0
LINE
  5
1572
330
5431
100
AcDbEntity
  8
0
100
AcDbLine
 10
417.0000000000004
 20
1679.0
 30
0.0
 11
1382.999934549498
 21
1679.0
 31
0.0
  0
LINE
  5
1573
330
5431
100
AcDbEntity
  8
0
100
AcDbLine
 10
416.9852813742391
 20
1571.999999999998
 30
0.0
 11
556.9888485809316
 21
1571.999999999999
 31
0.0
  0
LINE
  5
15E8
330
5431
100
AcDbEntity
  8
0
100
AcDbLine
 10
614.9999345494983
 20
1692.25270398934
 30
0.0
 11
614.9999345494983
 21
1636.058006288473
 31
0.0
  0
LINE
  5
161B
330
5431
100
AcDbEntity
  8
0
100
AcDbLine
 10
1184.999934549498
 20
1692.252769933801
 30
0.0
 11
1184.999934549498
 21
1634.82576400446
 31
0.0
  0
LINE
  5
16B1
330
5431
100
AcDbEntity
  8
0
100
AcDbLine
 10
1329.999955423908
 20
1571.999999999999
 30
0.0
 11
1349.999955423524
 21
1571.999999999999
 31
0.0
  0
LINE
  5
1742
330
5431
100
AcDbEntity
  8
0
100
AcDbLine
 10
412.5000000000007
 20
1679.0
 30
0.0
 11
412.5000000000007
 21
1616.499999999999
 31
0.0
  0
LINE
  5
1743
330
5431
100
AcDbEntity
  8
0
100
AcDbLine
 10
417.0000000000007
 20
1679.0
 30
0.0
 11
417.0000000000007
 21
1616.499999999999
 31
0.0
  0
LINE
  5
1744
330
5431
100
AcDbEntity
  8
0
100
AcDbLine
 10
350.0000000000003
 20
1679.0
 30
0.0
 11
350.0000000000003
 21
1609.0
 31
0.0
  0
ARC
  5
1746
330
5431
100
AcDbEntity
  8
0
100
AcDbCircle
 10
392.3923048454128
 20
1628.235714285714
 30
0.0
 40
3.464285714285712
100
AcDbArc
 50
359.4093113971839
 51
180.590688602816
  0
LINE
  5
1747
330
5431
100
AcDbEntity
  8
0
100
AcDbLine
 10
381.9904517889629
 20
1621.7
 30
0.0
 11
401.9906738308357
 21
1621.7
 31
0.0
  0
LINE
  5
1748
330
5431
100
AcDbEntity
  8
0
100
AcDbLine
 10
381.9999999999997
 20
1618.5
 30
0.0
 11
401.9906738308357
 21
1618.5
 31
0.0
  0
LINE
  5
1749
330
5431
100
AcDbEntity
  8
0
100
AcDbLine
 10
381.9999999999997
 20
1613.5
 30
0.0
 11
409.4999999999999
 21
1613.499999999999
 31
0.0
  0
LINE
  5
174A
330
5431
100
AcDbEntity
  8
0
100
AcDbLine
 10
381.9999999999997
 20
1609.0
 30
0.0
 11
409.4999999999997
 21
1608.999999999999
 31
0.0
  0
LINE
  5
174B
330
5431
100
AcDbEntity
  8
0
100
AcDbLine
 10
381.9999999999997
 20
1605.5
 30
0.0
 11
403.4999999999997
 21
1605.5
 31
0.0
  0
LINE
  5
174C
330
5431
100
AcDbEntity
  8
0
100
AcDbLine
 10
381.9999999999997
 20
1597.999999999999
 30
0.0
 11
401.9999999999996
 21
1597.999999999999
 31
0.0
  0
ARC
  5
174D
330
5431
100
AcDbEntity
  8
0
100
AcDbCircle
 10
392.3922999999999
 20
1588.109520999999
 30
0.0
 40
5.090450299999996
100
AcDbArc
 50
47.11668999998199
 51
132.8833700000024
  0
ARC
  5
174E
330
5431
100
AcDbEntity
  8
0
100
AcDbCircle
 10
392.3922999999999
 20
1588.290448999998
 30
0.0
 40
5.090450299999996
100
AcDbArc
 50
227.1166399999841
 51
312.8833169999812
  0
ARC
  5
174F
330
5431
100
AcDbEntity
  8
0
100
AcDbCircle
 10
392.3922565677115
 20
1568.090466
 30
0.0
 40
5.090450299999996
100
AcDbArc
 50
227.1166399999841
 51
312.8833200000163
  0
LINE
  5
1750
330
5431
100
AcDbEntity
  8
0
100
AcDbLine
 10
366.9999999999997
 20
1583.2
 30
0.0
 11
396.9999999999997
 21
1583.2
 31
0.0
  0
LINE
  5
1751
330
5431
100
AcDbEntity
  8
0
100
AcDbLine
 10
350.0000000000003
 20
1579.999999999999
 30
0.0
 11
408.4999999999999
 21
1580.0
 31
0.0
  0
LINE
  5
1752
330
5431
100
AcDbEntity
  8
0
100
AcDbLine
 10
350.0000000000003
 20
1575.499999999999
 30
0.0
 11
408.5000000000007
 21
1575.5
 31
0.0
  0
LINE
  5
1753
330
5431
100
AcDbEntity
  8
0
100
AcDbLine
 10
417.0000000000007
 20
1541.999999999999
 30
0.0
 11
356.3000000000009
 21
1541.999999999999
 31
0.0
  0
ARC
  5
1754
330
5431
100
AcDbEntity
  8
0
100
AcDbCircle
 10
395.0000000000007
 20
1550.0
 30
0.0
 40
7.0
100
AcDbArc
 50
0.0
 51
90.0
  0
LINE
  5
1755
330
5431
100
AcDbEntity
  8
0
100
AcDbLine
 10
381.9999999999997
 20
1635.659543302269
 30
0.0
 11
381.9999999999997
 21
1559.37616872948
 31
0.0
  0
LINE
  5
1756
330
5431
100
AcDbEntity
  8
0
100
AcDbLine
 10
389.9734559613784
 20
1597.999999999999
 30
0.0
 11
389.9750925245337
 21
1593.199969999998
 31
0.0
  0
LINE
  5
1757
330
5431
100
AcDbEntity
  8
0
100
AcDbLine
 10
373.9734553849406
 20
1597.999999999999
 30
0.0
 11
373.975091948096
 21
1593.199969999998
 31
0.0
  0
LINE
  5
1758
330
5431
100
AcDbEntity
  8
0
100
AcDbLine
 10
356.0000000000008
 20
1541.999999999999
 30
0.0
 11
353.0000000000003
 21
1541.999999999999
 31
0.0
  0
ARC
  5
1759
330
5431
100
AcDbEntity
  8
0
100
AcDbCircle
 10
353.0000000000003
 20
1544.999999999999
 30
0.0
 40
3.0
100
AcDbArc
 50
180.0
 51
270.0
  0
LINE
  5
175A
330
5431
100
AcDbEntity
  8
0
100
AcDbLine
 10
350.0000000000003
 20
1544.999999999999
 30
0.0
 11
350.0000000000003
 21
1579.999999999999
 31
0.0
  0
LINE
  5
175B
330
5431
100
AcDbEntity
  8
0
100
AcDbLine
 10
388.92819
 20
1591.839508999998
 30
0.0
 11
388.92819
 21
1584.56046
 31
0.0
  0
LINE
  5
175C
330
5431
100
AcDbEntity
  8
0
100
AcDbLine
 10
388.9281665677111
 20
1564.360478
 30
0.0
 11
388.9281665677111
 21
1575.499999999999
 31
0.0
  0
LINE
  5
175D
330
5431
100
AcDbEntity
  8
0
100
AcDbLine
 10
390.4999999999997
 20
1580.0
 30
0.0
 11
390.4999999999997
 21
1575.5
 31
0.0
  0
LINE
  5
175E
330
5431
100
AcDbEntity
  8
0
100
AcDbLine
 10
368.143606
 20
1591.839502999999
 30
0.0
 11
368.143606
 21
1584.560467
 31
0.0
  0
LINE
  5
175F
330
5431
100
AcDbEntity
  8
0
100
AcDbLine
 10
375.0717909999996
 20
1591.839508999998
 30
0.0
 11
375.0717909999996
 21
1584.56046
 31
0.0
  0
ARC
  5
1760
330
5431
100
AcDbEntity
  8
0
100
AcDbCircle
 10
371.6076949999999
 20
1588.109520999999
 30
0.0
 40
5.090450299999996
100
AcDbArc
 50
47.11663999998405
 51
132.8833200000164
  0
ARC
  5
1761
330
5431
100
AcDbEntity
  8
0
100
AcDbCircle
 10
371.6076949999999
 20
1588.290448999998
 30
0.0
 40
5.090450299999996
100
AcDbArc
 50
227.1166899999821
 51
312.8833619999789
  0
LINE
  5
1762
330
5431
100
AcDbEntity
  8
0
100
AcDbLine
 10
366.9999999999997
 20
1579.999999999999
 30
0.0
 11
366.9999999999997
 21
1583.2
 31
0.0
  0
LINE
  5
1763
330
5431
100
AcDbEntity
  8
0
100
AcDbLine
 10
368.1435565677114
 20
1564.360478
 30
0.0
 11
368.1435565677114
 21
1575.499999999999
 31
0.0
  0
LINE
  5
1764
330
5431
100
AcDbEntity
  8
0
100
AcDbLine
 10
375.0717465677108
 20
1564.360478
 30
0.0
 11
375.0717465677108
 21
1575.499999999999
 31
0.0
  0
ARC
  5
1765
330
5431
100
AcDbEntity
  8
0
100
AcDbCircle
 10
371.6076465677109
 20
1568.090466
 30
0.0
 40
5.090450299999996
100
AcDbArc
 50
227.1166899999821
 51
312.8833700000023
  0
LINE
  5
1766
330
5431
100
AcDbEntity
  8
0
100
AcDbLine
 10
373.4999999999997
 20
1579.999999999999
 30
0.0
 11
373.4999999999997
 21
1575.499999999999
 31
0.0
  0
LINE
  5
1767
330
5431
100
AcDbEntity
  8
0
100
AcDbLine
 10
392.3922999999999
 20
1593.199969999998
 30
0.0
 11
371.6076949999999
 21
1593.199969999998
 31
0.0
  0
ARC
  5
1768
330
5431
100
AcDbEntity
  8
0
100
AcDbCircle
 10
381.9999999999997
 20
1601.521172999999
 30
0.0
 40
18.321183
100
AcDbArc
 50
247.7806800000021
 51
292.2192999999692
  0
ARC
  5
1769
330
5431
100
AcDbEntity
  8
0
100
AcDbCircle
 10
381.9999999999997
 20
1574.87879
 30
0.0
 40
18.321183
100
AcDbArc
 50
67.78071000000979
 51
112.2193300000002
  0
LINE
  5
176A
330
5431
100
AcDbEntity
  8
0
100
AcDbLine
 10
371.6076465677109
 20
1563.000016999999
 30
0.0
 11
392.3922565677115
 21
1563.000016999999
 31
0.0
  0
ARC
  5
176B
330
5431
100
AcDbEntity
  8
0
100
AcDbCircle
 10
381.999956567711
 20
1581.321179999999
 30
0.0
 40
18.321183
100
AcDbArc
 50
247.7807100000098
 51
292.2193300000003
  0
LINE
  5
176C
330
5431
100
AcDbEntity
  8
0
100
AcDbLine
 10
364.0000000000008
 20
1557.0
 30
0.0
 11
395.0000000000007
 21
1557.0
 31
0.0
  0
LINE
  5
176D
330
5431
100
AcDbEntity
  8
0
100
AcDbLine
 10
357.0000000000007
 20
1542.999999999999
 30
0.0
 11
357.0000000000007
 21
1550.0
 31
0.0
  0
ARC
  5
176E
330
5431
100
AcDbEntity
  8
0
100
AcDbCircle
 10
356.0000000000008
 20
1542.999999999999
 30
0.0
 40
1.0
100
AcDbArc
 50
270.0
 51
0.0
  0
ARC
  5
176F
330
5431
100
AcDbEntity
  8
0
100
AcDbCircle
 10
364.0000000000008
 20
1550.0
 30
0.0
 40
7.0
100
AcDbArc
 50
90.0
 51
180.0
  0
LINE
  5
1770
330
5431
100
AcDbEntity
  8
0
100
AcDbLine
 10
350.0000000000003
 20
1609.0
 30
0.0
 11
381.9999999999997
 21
1608.999999999999
 31
0.0
  0
LINE
  5
1771
330
5431
100
AcDbEntity
  8
0
100
AcDbLine
 10
350.0000000000003
 20
1613.5
 30
0.0
 11
381.9999999999997
 21
1613.499999999999
 31
0.0
  0
LINE
  5
1772
330
5431
100
AcDbEntity
  8
0
100
AcDbLine
 10
393.8000000000002
 20
1605.5
 30
0.0
 11
393.8000000000002
 21
1608.999999999999
 31
0.0
  0
LINE
  5
1773
330
5431
100
AcDbEntity
  8
0
100
AcDbLine
 10
370.2000000000008
 20
1605.499999999999
 30
0.0
 11
370.2000000000002
 21
1608.999999999999
 31
0.0
  0
LINE
  5
1774
330
5431
100
AcDbEntity
  8
0
100
AcDbLine
 10
388.9282032302757
 20
1621.7
 30
0.0
 11
388.9282032302757
 21
1628.2
 31
0.0
  0
LINE
  5
1775
330
5431
100
AcDbEntity
  8
0
100
AcDbLine
 10
360.4999999999997
 20
1605.5
 30
0.0
 11
360.4999999999997
 21
1597.999999999999
 31
0.0
  0
LINE
  5
1776
330
5431
100
AcDbEntity
  8
0
100
AcDbLine
 10
361.9906727511117
 20
1621.7
 30
0.0
 11
361.9906727511117
 21
1618.5
 31
0.0
  0
ARC
  5
1777
330
5431
100
AcDbEntity
  8
0
100
AcDbCircle
 10
371.6076951545868
 20
1628.235714285714
 30
0.0
 40
3.464285714285712
100
AcDbArc
 50
359.4093113971839
 51
180.590688602816
  0
LINE
  5
1778
330
5431
100
AcDbEntity
  8
0
100
AcDbLine
 10
368.1435935394486
 20
1621.7
 30
0.0
 11
368.1435935394486
 21
1628.2
 31
0.0
  0
LINE
  5
1779
330
5431
100
AcDbEntity
  8
0
100
AcDbLine
 10
375.0717967697243
 20
1621.7
 30
0.0
 11
375.0717967697243
 21
1628.2
 31
0.0
  0
LINE
  5
177A
330
5431
100
AcDbEntity
  8
0
100
AcDbLine
 10
361.9906727511117
 20
1618.5
 30
0.0
 11
361.9913879072161
 21
1613.5
 31
0.0
  0
LINE
  5
177B
330
5431
100
AcDbEntity
  8
0
100
AcDbLine
 10
360.4999999999997
 20
1597.999999999999
 30
0.0
 11
361.9999999999997
 21
1597.999999999999
 31
0.0
  0
LINE
  5
177C
330
5431
100
AcDbEntity
  8
0
100
AcDbLine
 10
371.6076951545868
 20
1631.7
 30
0.0
 11
392.3923048454128
 21
1631.7
 31
0.0
  0
LINE
  5
177D
330
5431
100
AcDbEntity
  8
0
100
AcDbLine
 10
361.9906727511117
 20
1621.7
 30
0.0
 11
381.9904517889629
 21
1621.699999999998
 31
0.0
  0
ARC
  5
177E
330
5431
100
AcDbEntity
  8
0
100
AcDbCircle
 10
381.9999999999997
 20
1623.092857142857
 30
0.0
 40
8.607142857142848
100
AcDbArc
 50
36.39587919809932
 51
143.6041208019006
  0
LINE
  5
177F
330
5431
100
AcDbEntity
  8
0
100
AcDbLine
 10
361.9906727511117
 20
1618.5
 30
0.0
 11
381.9999999999997
 21
1618.5
 31
0.0
  0
LINE
  5
1780
330
5431
100
AcDbEntity
  8
0
100
AcDbLine
 10
360.4999999999997
 20
1605.5
 30
0.0
 11
381.9999999999997
 21
1605.499999999999
 31
0.0
  0
LINE
  5
1781
330
5431
100
AcDbEntity
  8
0
100
AcDbLine
 10
361.9999999999997
 20
1597.999999999999
 30
0.0
 11
381.9999999999997
 21
1597.999999999999
 31
0.0
  0
ARC
  5
1783
330
5431
100
AcDbEntity
  8
0
100
AcDbCircle
 10
408.4999999999999
 20
1571.5
 30
0.0
 40
4.0
100
AcDbArc
 50
0.0
 51
90.0
  0
LINE
  5
1784
330
5431
100
AcDbEntity
  8
0
100
AcDbLine
 10
395.8563799999994
 20
1591.839508999998
 30
0.0
 11
395.8563799999994
 21
1584.56046
 31
0.0
  0
LINE
  5
1785
330
5431
100
AcDbEntity
  8
0
100
AcDbLine
 10
396.9999999999997
 20
1580.0
 30
0.0
 11
396.9999999999997
 21
1583.2
 31
0.0
  0
LINE
  5
1786
330
5431
100
AcDbEntity
  8
0
100
AcDbLine
 10
395.856346567711
 20
1564.360478
 30
0.0
 11
395.856346567711
 21
1575.499999999999
 31
0.0
  0
ARC
  5
1787
330
5431
100
AcDbEntity
  8
0
100
AcDbCircle
 10
408.5000000000007
 20
1571.5
 30
0.0
 40
8.5
100
AcDbArc
 50
0.0
 51
90.0
  0
LINE
  5
1788
330
5431
100
AcDbEntity
  8
0
100
AcDbLine
 10
402.0000000000006
 20
1542.999999999999
 30
0.0
 11
402.0000000000006
 21
1550.0
 31
0.0
  0
ARC
  5
1789
330
5431
100
AcDbEntity
  8
0
100
AcDbCircle
 10
403.0000000000006
 20
1542.999999999999
 30
0.0
 40
1.0
100
AcDbArc
 50
180.0
 51
270.0
  0
LINE
  5
178A
330
5431
100
AcDbEntity
  8
0
100
AcDbLine
 10
412.5000000000007
 20
1541.999999999999
 30
0.0
 11
412.5000000000007
 21
1571.5
 31
0.0
  0
LINE
  5
178B
330
5431
100
AcDbEntity
  8
0
100
AcDbLine
 10
417.0000000000007
 20
1541.999999999999
 30
0.0
 11
417.0000000000007
 21
1571.5
 31
0.0
  0
ARC
  5
178F
330
5431
100
AcDbEntity
  8
0
100
AcDbCircle
 10
409.4999999999999
 20
1616.499999999999
 30
0.0
 40
3.0
100
AcDbArc
 50
270.0
 51
0.0
  0
LINE
  5
1790
330
5431
100
AcDbEntity
  8
0
100
AcDbLine
 10
395.8564064605509
 20
1628.2
 30
0.0
 11
395.8564064605509
 21
1621.7
 31
0.0
  0
LINE
  5
1791
330
5431
100
AcDbEntity
  8
0
100
AcDbLine
 10
401.9906738308357
 20
1621.7
 30
0.0
 11
401.9906738308357
 21
1618.5
 31
0.0
  0
LINE
  5
1792
330
5431
100
AcDbEntity
  8
0
100
AcDbLine
 10
401.9999999999996
 20
1597.999999999999
 30
0.0
 11
403.4999999999997
 21
1597.999999999999
 31
0.0
  0
LINE
  5
1793
330
5431
100
AcDbEntity
  8
0
100
AcDbLine
 10
403.4999999999997
 20
1605.5
 30
0.0
 11
403.4999999999997
 21
1597.999999999999
 31
0.0
  0
LINE
  5
1794
330
5431
100
AcDbEntity
  8
0
100
AcDbLine
 10
401.9906738308357
 20
1618.5
 30
0.0
 11
401.9913889869404
 21
1613.5
 31
0.0
  0
ARC
  5
1795
330
5431
100
AcDbEntity
  8
0
100
AcDbCircle
 10
409.4999999999999
 20
1616.499999999999
 30
0.0
 40
7.5
100
AcDbArc
 50
270.0
 51
0.0
  0
LINE
  5
179B
330
5431
100
AcDbEntity
  8
0
100
AcDbLine
 10
405.0000000000009
 20
1652.3
 30
0.0
 11
392.1339312526823
 21
1652.3
 31
0.0
  0
ARC
  5
179C
330
5431
100
AcDbEntity
  8
0
100
AcDbCircle
 10
407.000000000001
 20
1652.3
 30
0.0
 40
17.0
100
AcDbArc
 50
97.66225566075876
 51
172.337744339241
  0
LINE
  5
179D
330
5431
100
AcDbEntity
  8
0
100
AcDbLine
 10
417.0000000000007
 20
1679.0
 30
0.0
 11
350.0000000000003
 21
1679.0
 31
0.0
  0
ARC
  5
179E
330
5431
100
AcDbEntity
  8
0
100
AcDbCircle
 10
392.1339312526823
 20
1654.3
 30
0.0
 40
2.0
100
AcDbArc
 50
172.337744339241
 51
270.0
  0
ARC
  5
179F
330
5431
100
AcDbEntity
  8
0
100
AcDbCircle
 10
359.0000000000007
 20
1667.166068747319
 30
0.0
 40
2.0
100
AcDbArc
 50
82.33774433924121
 51
180.0
  0
ARC
  5
17A0
330
5431
100
AcDbEntity
  8
0
100
AcDbCircle
 10
359.0000000000007
 20
1654.3
 30
0.0
 40
2.0
100
AcDbArc
 50
180.0
 51
270.0
  0
ARC
  5
17A1
330
5431
100
AcDbEntity
  8
0
100
AcDbCircle
 10
371.8660687473191
 20
1654.3
 30
0.0
 40
2.0
100
AcDbArc
 50
270.0
 51
7.662255660758973
  0
LINE
  5
17A2
330
5431
100
AcDbEntity
  8
0
100
AcDbLine
 10
359.0000000000007
 20
1652.3
 30
0.0
 11
371.8660687473191
 21
1652.3
 31
0.0
  0
LINE
  5
17A3
330
5431
100
AcDbEntity
  8
0
100
AcDbLine
 10
357.0000000000007
 20
1654.3
 30
0.0
 11
357.0000000000007
 21
1667.166068747319
 31
0.0
  0
ARC
  5
17A4
330
5431
100
AcDbEntity
  8
0
100
AcDbCircle
 10
357.0000000000007
 20
1652.3
 30
0.0
 40
17.0
100
AcDbArc
 50
7.662255660758973
 51
82.33774433924121
  0
ARC
  5
17A5
330
5431
100
AcDbEntity
  8
0
100
AcDbCircle
 10
405.0000000000006
 20
1667.166068747319
 30
0.0
 40
2.0
100
AcDbArc
 50
0.0
 51
97.66225566075876
  0
ARC
  5
17A6
330
5431
100
AcDbEntity
  8
0
100
AcDbCircle
 10
405.0000000000009
 20
1654.3
 30
0.0
 40
2.0
100
AcDbArc
 50
270.0
 51
0.0
  0
LINE
  5
17A7
330
5431
100
AcDbEntity
  8
0
100
AcDbLine
 10
407.000000000001
 20
1654.3
 30
0.0
 11
407.0000000000006
 21
1667.166068747319
 31
0.0
  0
LINE
  5
17BB
330
5431
100
AcDbEntity
  8
0
100
AcDbLine
 10
1394.999976297549
 20
1652.3
 30
0.0
 11
1407.866045044868
 21
1652.3
 31
0.0
  0
LINE
  5
17BC
330
5431
100
AcDbEntity
  8
0
100
AcDbLine
 10
1417.99997629755
 20
1618.5
 30
0.0
 11
1398.009302466715
 21
1618.5
 31
0.0
  0
LINE
  5
17BD
330
5431
100
AcDbEntity
  8
0
100
AcDbLine
 10
1417.99997629755
 20
1613.5
 30
0.0
 11
1390.49997629755
 21
1613.499999999999
 31
0.0
  0
LINE
  5
17BE
330
5431
100
AcDbEntity
  8
0
100
AcDbLine
 10
1417.99997629755
 20
1609.0
 30
0.0
 11
1390.49997629755
 21
1608.999999999999
 31
0.0
  0
LINE
  5
17BF
330
5431
100
AcDbEntity
  8
0
100
AcDbLine
 10
1417.99997629755
 20
1605.5
 30
0.0
 11
1396.49997629755
 21
1605.5
 31
0.0
  0
LINE
  5
17C0
330
5431
100
AcDbEntity
  8
0
100
AcDbLine
 10
1417.99997629755
 20
1597.999999999999
 30
0.0
 11
1397.999976297551
 21
1597.999999999999
 31
0.0
  0
ARC
  5
17C1
330
5431
100
AcDbEntity
  8
0
100
AcDbCircle
 10
1407.60767629755
 20
1588.109520999999
 30
0.0
 40
5.090450299999996
100
AcDbArc
 50
47.1166299999976
 51
132.883310000018
  0
ARC
  5
17C2
330
5431
100
AcDbEntity
  8
0
100
AcDbCircle
 10
1392.999976297549
 20
1652.3
 30
0.0
 40
17.0
100
AcDbArc
 50
7.662255660758988
 51
82.33774433924121
  0
LINE
  5
17C3
330
5431
100
AcDbEntity
  8
0
100
AcDbLine
 10
1382.99997629755
 20
1679.0
 30
0.0
 11
1449.99997629755
 21
1679.0
 31
0.0
  0
ARC
  5
17C4
330
5431
100
AcDbEntity
  8
0
100
AcDbCircle
 10
1407.607671452137
 20
1628.235714285714
 30
0.0
 40
3.464285714285712
100
AcDbArc
 50
359.4093113971839
 51
180.590688602816
  0
LINE
  5
17C5
330
5431
100
AcDbEntity
  8
0
100
AcDbLine
 10
1418.009524508587
 20
1621.7
 30
0.0
 11
1398.009302466715
 21
1621.7
 31
0.0
  0
ARC
  5
17C6
330
5431
100
AcDbEntity
  8
0
100
AcDbCircle
 10
1407.60767629755
 20
1588.290448999998
 30
0.0
 40
5.090450299999996
100
AcDbArc
 50
227.1166830000188
 51
312.8833600000159
  0
ARC
  5
17C7
330
5431
100
AcDbEntity
  8
0
100
AcDbCircle
 10
1407.607719729839
 20
1568.090466
 30
0.0
 40
5.090450299999996
100
AcDbArc
 50
227.1166799999836
 51
312.8833600000159
  0
LINE
  5
17C8
330
5431
100
AcDbEntity
  8
0
100
AcDbLine
 10
1432.99997629755
 20
1583.2
 30
0.0
 11
1402.99997629755
 21
1583.2
 31
0.0
  0
LINE
  5
17C9
330
5431
100
AcDbEntity
  8
0
100
AcDbLine
 10
1449.99997629755
 20
1579.999999999999
 30
0.0
 11
1391.49997629755
 21
1580.0
 31
0.0
  0
LINE
  5
17CA
330
5431
100
AcDbEntity
  8
0
100
AcDbLine
 10
1449.99997629755
 20
1575.499999999999
 30
0.0
 11
1391.49997629755
 21
1575.5
 31
0.0
  0
LINE
  5
17CB
330
5431
100
AcDbEntity
  8
0
100
AcDbLine
 10
1382.99997629755
 20
1541.999999999999
 30
0.0
 11
1443.699976297549
 21
1541.999999999999
 31
0.0
  0
LINE
  5
17CC
330
5431
100
AcDbEntity
  8
0
100
AcDbLine
 10
1435.999976297549
 20
1557.0
 30
0.0
 11
1404.99997629755
 21
1557.0
 31
0.0
  0
LINE
  5
17CD
330
5431
100
AcDbEntity
  8
0
100
AcDbLine
 10
1410.026520336172
 20
1597.999999999999
 30
0.0
 11
1410.024883773016
 21
1593.199969999998
 31
0.0
  0
LINE
  5
17CE
330
5431
100
AcDbEntity
  8
0
100
AcDbLine
 10
1426.026520912609
 20
1597.999999999999
 30
0.0
 11
1426.024884349454
 21
1593.199969999998
 31
0.0
  0
LINE
  5
17CF
330
5431
100
AcDbEntity
  8
0
100
AcDbLine
 10
1417.99997629755
 20
1635.659543302269
 30
0.0
 11
1417.99997629755
 21
1559.37616872948
 31
0.0
  0
ARC
  5
17D0
330
5431
100
AcDbEntity
  8
0
100
AcDbCircle
 10
1446.99997629755
 20
1544.999999999999
 30
0.0
 40
3.0
100
AcDbArc
 50
270.0
 51
0.000000000000007
  0
LINE
  5
17D1
330
5431
100
AcDbEntity
  8
0
100
AcDbLine
 10
1449.99997629755
 20
1544.999999999999
 30
0.0
 11
1449.99997629755
 21
1579.999999999999
 31
0.0
  0
LINE
  5
17D2
330
5431
100
AcDbEntity
  8
0
100
AcDbLine
 10
1442.99997629755
 20
1542.999999999999
 30
0.0
 11
1442.99997629755
 21
1550.0
 31
0.0
  0
LINE
  5
17D3
330
5431
100
AcDbEntity
  8
0
100
AcDbLine
 10
1443.999976297549
 20
1541.999999999999
 30
0.0
 11
1446.99997629755
 21
1541.999999999999
 31
0.0
  0
ARC
  5
17D4
330
5431
100
AcDbEntity
  8
0
100
AcDbCircle
 10
1443.999976297549
 20
1542.999999999999
 30
0.0
 40
1.0
100
AcDbArc
 50
180.0
 51
270.0
  0
ARC
  5
17D5
330
5431
100
AcDbEntity
  8
0
100
AcDbCircle
 10
1428.39228129755
 20
1588.109520999999
 30
0.0
 40
5.090450299999996
100
AcDbArc
 50
47.11667999998359
 51
132.8833600000159
  0
LINE
  5
17D6
330
5431
100
AcDbEntity
  8
0
100
AcDbLine
 10
1407.60767629755
 20
1593.199969999998
 30
0.0
 11
1428.39228129755
 21
1593.199969999998
 31
0.0
  0
ARC
  5
17D7
330
5431
100
AcDbEntity
  8
0
100
AcDbCircle
 10
1428.39228129755
 20
1588.290448999998
 30
0.0
 40
5.090450299999996
100
AcDbArc
 50
227.1166380000212
 51
312.8833100000179
  0
ARC
  5
17D8
330
5431
100
AcDbEntity
  8
0
100
AcDbCircle
 10
1428.392329729839
 20
1568.090466
 30
0.0
 40
5.090450299999996
100
AcDbArc
 50
227.1166299999976
 51
312.8833100000179
  0
LINE
  5
17D9
330
5431
100
AcDbEntity
  8
0
100
AcDbLine
 10
1428.392329729839
 20
1563.000016999999
 30
0.0
 11
1407.607719729839
 21
1563.000016999999
 31
0.0
  0
LINE
  5
17DA
330
5431
100
AcDbEntity
  8
0
100
AcDbLine
 10
1432.99997629755
 20
1579.999999999999
 30
0.0
 11
1432.99997629755
 21
1583.2
 31
0.0
  0
LINE
  5
17DB
330
5431
100
AcDbEntity
  8
0
100
AcDbLine
 10
1431.856419729839
 20
1564.360478
 30
0.0
 11
1431.856419729839
 21
1575.499999999999
 31
0.0
  0
ARC
  5
17DC
330
5431
100
AcDbEntity
  8
0
100
AcDbCircle
 10
1435.999976297549
 20
1550.0
 30
0.0
 40
7.0
100
AcDbArc
 50
0.000000000000007
 51
90.0
  0
LINE
  5
17DD
330
5431
100
AcDbEntity
  8
0
100
AcDbLine
 10
1431.85637029755
 20
1591.839502999999
 30
0.0
 11
1431.85637029755
 21
1584.560467
 31
0.0
  0
ARC
  5
17DE
330
5431
100
AcDbEntity
  8
0
100
AcDbCircle
 10
1417.99997629755
 20
1574.87879
 30
0.0
 40
18.321183
100
AcDbArc
 50
67.78066999999977
 51
112.2192899999902
  0
LINE
  5
17DF
330
5431
100
AcDbEntity
  8
0
100
AcDbLine
 10
1409.49997629755
 20
1580.0
 30
0.0
 11
1409.49997629755
 21
1575.5
 31
0.0
  0
LINE
  5
17E0
330
5431
100
AcDbEntity
  8
0
100
AcDbLine
 10
1411.071809729839
 20
1564.360478
 30
0.0
 11
1411.071809729839
 21
1575.499999999999
 31
0.0
  0
LINE
  5
17E1
330
5431
100
AcDbEntity
  8
0
100
AcDbLine
 10
1424.928229729839
 20
1564.360478
 30
0.0
 11
1424.928229729839
 21
1575.499999999999
 31
0.0
  0
LINE
  5
17E2
330
5431
100
AcDbEntity
  8
0
100
AcDbLine
 10
1426.49997629755
 20
1579.999999999999
 30
0.0
 11
1426.49997629755
 21
1575.499999999999
 31
0.0
  0
ARC
  5
17E3
330
5431
100
AcDbEntity
  8
0
100
AcDbCircle
 10
1417.99997629755
 20
1601.521172999999
 30
0.0
 40
18.321183
100
AcDbArc
 50
247.7807000000308
 51
292.2193199999979
  0
ARC
  5
17E4
330
5431
100
AcDbEntity
  8
0
100
AcDbCircle
 10
1418.000019729839
 20
1581.321179999999
 30
0.0
 40
18.321183
100
AcDbArc
 50
247.7806699999998
 51
292.2192899999903
  0
LINE
  5
17E5
330
5431
100
AcDbEntity
  8
0
100
AcDbLine
 10
1411.07178629755
 20
1591.839508999998
 30
0.0
 11
1411.07178629755
 21
1584.56046
 31
0.0
  0
LINE
  5
17E6
330
5431
100
AcDbEntity
  8
0
100
AcDbLine
 10
1424.928185297551
 20
1591.839508999998
 30
0.0
 11
1424.928185297551
 21
1584.56046
 31
0.0
  0
LINE
  5
17E7
330
5431
100
AcDbEntity
  8
0
100
AcDbLine
 10
1449.99997629755
 20
1609.0
 30
0.0
 11
1417.99997629755
 21
1608.999999999999
 31
0.0
  0
LINE
  5
17E8
330
5431
100
AcDbEntity
  8
0
100
AcDbLine
 10
1449.99997629755
 20
1613.5
 30
0.0
 11
1417.99997629755
 21
1613.499999999999
 31
0.0
  0
LINE
  5
17E9
330
5431
100
AcDbEntity
  8
0
100
AcDbLine
 10
1449.99997629755
 20
1679.0
 30
0.0
 11
1449.99997629755
 21
1609.0
 31
0.0
  0
ARC
  5
17EA
330
5431
100
AcDbEntity
  8
0
100
AcDbCircle
 10
1407.866045044868
 20
1654.3
 30
0.0
 40
2.0
100
AcDbArc
 50
270.0
 51
7.662255660758988
  0
ARC
  5
17EB
330
5431
100
AcDbEntity
  8
0
100
AcDbCircle
 10
1428.133907550231
 20
1654.3
 30
0.0
 40
2.0
100
AcDbArc
 50
172.337744339241
 51
270.0
  0
ARC
  5
17EC
330
5431
100
AcDbEntity
  8
0
100
AcDbCircle
 10
1440.99997629755
 20
1654.3
 30
0.0
 40
2.0
100
AcDbArc
 50
270.0
 51
0.000000000000007
  0
ARC
  5
17ED
330
5431
100
AcDbEntity
  8
0
100
AcDbCircle
 10
1428.392281142962
 20
1628.235714285714
 30
0.0
 40
3.464285714285712
100
AcDbArc
 50
359.4093113971839
 51
180.590688602816
  0
LINE
  5
17EE
330
5431
100
AcDbEntity
  8
0
100
AcDbLine
 10
1438.009303546438
 20
1621.7
 30
0.0
 11
1418.009524508587
 21
1621.699999999998
 31
0.0
  0
LINE
  5
17EF
330
5431
100
AcDbEntity
  8
0
100
AcDbLine
 10
1438.009303546438
 20
1618.5
 30
0.0
 11
1417.99997629755
 21
1618.5
 31
0.0
  0
LINE
  5
17F0
330
5431
100
AcDbEntity
  8
0
100
AcDbLine
 10
1439.49997629755
 20
1605.5
 30
0.0
 11
1417.99997629755
 21
1605.499999999999
 31
0.0
  0
LINE
  5
17F1
330
5431
100
AcDbEntity
  8
0
100
AcDbLine
 10
1437.999976297551
 20
1597.999999999999
 30
0.0
 11
1417.99997629755
 21
1597.999999999999
 31
0.0
  0
LINE
  5
17F2
330
5431
100
AcDbEntity
  8
0
100
AcDbLine
 10
1428.392281142962
 20
1631.7
 30
0.0
 11
1407.607671452137
 21
1631.7
 31
0.0
  0
LINE
  5
17F3
330
5431
100
AcDbEntity
  8
0
100
AcDbLine
 10
1440.99997629755
 20
1652.3
 30
0.0
 11
1428.133907550231
 21
1652.3
 31
0.0
  0
LINE
  5
17F4
330
5431
100
AcDbEntity
  8
0
100
AcDbLine
 10
1429.799976297549
 20
1605.499999999999
 30
0.0
 11
1429.79997629755
 21
1608.999999999999
 31
0.0
  0
LINE
  5
17F5
330
5431
100
AcDbEntity
  8
0
100
AcDbLine
 10
1439.49997629755
 20
1605.5
 30
0.0
 11
1439.49997629755
 21
1597.999999999999
 31
0.0
  0
LINE
  5
17F6
330
5431
100
AcDbEntity
  8
0
100
AcDbLine
 10
1438.009303546438
 20
1621.7
 30
0.0
 11
1438.009303546438
 21
1618.5
 31
0.0
  0
LINE
  5
17F7
330
5431
100
AcDbEntity
  8
0
100
AcDbLine
 10
1431.856382758102
 20
1621.7
 30
0.0
 11
1431.856382758102
 21
1628.2
 31
0.0
  0
LINE
  5
17F8
330
5431
100
AcDbEntity
  8
0
100
AcDbLine
 10
1438.009303546438
 20
1618.5
 30
0.0
 11
1438.008588390334
 21
1613.5
 31
0.0
  0
LINE
  5
17F9
330
5431
100
AcDbEntity
  8
0
100
AcDbLine
 10
1439.49997629755
 20
1597.999999999999
 30
0.0
 11
1437.999976297551
 21
1597.999999999999
 31
0.0
  0
LINE
  5
17FA
330
5431
100
AcDbEntity
  8
0
100
AcDbLine
 10
1411.071773067275
 20
1621.7
 30
0.0
 11
1411.071773067275
 21
1628.2
 31
0.0
  0
LINE
  5
17FB
330
5431
100
AcDbEntity
  8
0
100
AcDbLine
 10
1424.928179527826
 20
1621.7
 30
0.0
 11
1424.928179527826
 21
1628.2
 31
0.0
  0
ARC
  5
17FC
330
5431
100
AcDbEntity
  8
0
100
AcDbCircle
 10
1417.99997629755
 20
1623.092857142857
 30
0.0
 40
8.607142857142848
100
AcDbArc
 50
36.39587919809932
 51
143.6041208019006
  0
ARC
  5
17FD
330
5431
100
AcDbEntity
  8
0
100
AcDbCircle
 10
1442.99997629755
 20
1652.3
 30
0.0
 40
17.0
100
AcDbArc
 50
97.66225566075876
 51
172.337744339241
  0
ARC
  5
17FE
330
5431
100
AcDbEntity
  8
0
100
AcDbCircle
 10
1440.99997629755
 20
1667.166068747319
 30
0.0
 40
2.0
100
AcDbArc
 50
0.000000000000007
 51
97.66225566075876
  0
LINE
  5
17FF
330
5431
100
AcDbEntity
  8
0
100
AcDbLine
 10
1442.99997629755
 20
1654.3
 30
0.0
 11
1442.99997629755
 21
1667.166068747319
 31
0.0
  0
LINE
  5
1800
330
5431
100
AcDbEntity
  8
0
100
AcDbLine
 10
1387.499976297549
 20
1541.999999999999
 30
0.0
 11
1387.499976297549
 21
1571.5
 31
0.0
  0
LINE
  5
1801
330
5431
100
AcDbEntity
  8
0
100
AcDbLine
 10
1382.99997629755
 20
1541.999999999999
 30
0.0
 11
1382.99997629755
 21
1571.5
 31
0.0
  0
LINE
  5
1802
330
5431
100
AcDbEntity
  8
0
100
AcDbLine
 10
1397.99997629755
 20
1542.999999999999
 30
0.0
 11
1397.99997629755
 21
1550.0
 31
0.0
  0
ARC
  5
1803
330
5431
100
AcDbEntity
  8
0
100
AcDbCircle
 10
1396.99997629755
 20
1542.999999999999
 30
0.0
 40
1.0
100
AcDbArc
 50
270.0
 51
0.000000000000007
  0
ARC
  5
1804
330
5431
100
AcDbEntity
  8
0
100
AcDbCircle
 10
1391.49997629755
 20
1571.5
 30
0.0
 40
8.5
100
AcDbArc
 50
90.0
 51
180.0
  0
ARC
  5
1805
330
5431
100
AcDbEntity
  8
0
100
AcDbCircle
 10
1404.99997629755
 20
1550.0
 30
0.0
 40
7.0
100
AcDbArc
 50
90.0
 51
180.0
  0
LINE
  5
1806
330
5431
100
AcDbEntity
  8
0
100
AcDbLine
 10
1402.99997629755
 20
1580.0
 30
0.0
 11
1402.99997629755
 21
1583.2
 31
0.0
  0
LINE
  5
1807
330
5431
100
AcDbEntity
  8
0
100
AcDbLine
 10
1404.143629729839
 20
1564.360478
 30
0.0
 11
1404.143629729839
 21
1575.499999999999
 31
0.0
  0
ARC
  5
1808
330
5431
100
AcDbEntity
  8
0
100
AcDbCircle
 10
1391.49997629755
 20
1571.5
 30
0.0
 40
4.0
100
AcDbArc
 50
90.0
 51
180.0
  0
LINE
  5
1809
330
5431
100
AcDbEntity
  8
0
100
AcDbLine
 10
1404.143596297551
 20
1591.839508999998
 30
0.0
 11
1404.143596297551
 21
1584.56046
 31
0.0
  0
ARC
  5
180A
330
5431
100
AcDbEntity
  8
0
100
AcDbCircle
 10
1394.999976297549
 20
1654.3
 30
0.0
 40
2.0
100
AcDbArc
 50
180.0
 51
270.0
  0
LINE
  5
180B
330
5431
100
AcDbEntity
  8
0
100
AcDbLine
 10
1387.499976297549
 20
1679.0
 30
0.0
 11
1387.499976297549
 21
1616.499999999999
 31
0.0
  0
LINE
  5
180C
330
5431
100
AcDbEntity
  8
0
100
AcDbLine
 10
1382.99997629755
 20
1679.0
 30
0.0
 11
1382.99997629755
 21
1616.499999999999
 31
0.0
  0
ARC
  5
180D
330
5431
100
AcDbEntity
  8
0
100
AcDbCircle
 10
1390.49997629755
 20
1616.499999999999
 30
0.0
 40
7.5
100
AcDbArc
 50
180.0
 51
270.0
  0
LINE
  5
180E
330
5431
100
AcDbEntity
  8
0
100
AcDbLine
 10
1406.19997629755
 20
1605.5
 30
0.0
 11
1406.19997629755
 21
1608.999999999999
 31
0.0
  0
LINE
  5
180F
330
5431
100
AcDbEntity
  8
0
100
AcDbLine
 10
1404.143569836999
 20
1628.2
 30
0.0
 11
1404.143569836999
 21
1621.7
 31
0.0
  0
LINE
  5
1810
330
5431
100
AcDbEntity
  8
0
100
AcDbLine
 10
1398.009302466715
 20
1621.7
 30
0.0
 11
1398.009302466715
 21
1618.5
 31
0.0
  0
LINE
  5
1811
330
5431
100
AcDbEntity
  8
0
100
AcDbLine
 10
1397.999976297551
 20
1597.999999999999
 30
0.0
 11
1396.49997629755
 21
1597.999999999999
 31
0.0
  0
LINE
  5
1812
330
5431
100
AcDbEntity
  8
0
100
AcDbLine
 10
1396.49997629755
 20
1605.5
 30
0.0
 11
1396.49997629755
 21
1597.999999999999
 31
0.0
  0
LINE
  5
1813
330
5431
100
AcDbEntity
  8
0
100
AcDbLine
 10
1398.009302466715
 20
1618.5
 30
0.0
 11
1398.00858731061
 21
1613.5
 31
0.0
  0
ARC
  5
1814
330
5431
100
AcDbEntity
  8
0
100
AcDbCircle
 10
1390.49997629755
 20
1616.499999999999
 30
0.0
 40
3.0
100
AcDbArc
 50
180.0
 51
270.0
  0
ARC
  5
1815
330
5431
100
AcDbEntity
  8
0
100
AcDbCircle
 10
1394.99997629755
 20
1667.166068747319
 30
0.0
 40
2.0
100
AcDbArc
 50
82.33774433924121
 51
180.0
  0
LINE
  5
1816
330
5431
100
AcDbEntity
  8
0
100
AcDbLine
 10
1392.999976297549
 20
1654.3
 30
0.0
 11
1392.99997629755
 21
1667.166068747319
 31
0.0
  0
LINE
  5
1877
330
5431
100
AcDbEntity
  8
0
100
AcDbLine
 10
1449.99996249323
 20
654.7631129469599
 30
0.0
 11
349.9999624932264
 21
654.7630270790537
 31
0.0
  0
LINE
  5
1878
330
5431
100
AcDbEntity
  8
0
100
AcDbLine
 10
1418.999963873048
 20
714.7631143315809
 30
0.0
 11
380.9999638730482
 21
714.7630256944095
 31
0.0
  0
LINE
  5
187B
330
5431
100
AcDbEntity
  8
0
100
AcDbLine
 10
1449.99997066941
 20
1124.763018503232
 30
0.0
 11
349.9999706694226
 21
1124.763121701212
 31
0.0
  0
LINE
  5
187C
330
5431
100
AcDbEntity
  8
0
100
AcDbLine
 10
1418.999964151632
 20
1064.763025023049
 30
0.0
 11
380.9999641516425
 21
1064.763115181417
 31
0.0
  0
CIRCLE
  5
187D
330
5431
100
AcDbEntity
  8
0
100
AcDbCircle
 10
614.999963880076
 20
1094.763103074452
 30
0.0
 40
10.0
  0
LINE
  5
1884
330
5431
100
AcDbEntity
  8
0
100
AcDbLine
 10
614.999963880076
 20
1072.827325142928
 30
0.0
 11
614.999963880076
 21
1116.698881005976
 31
0.0
  0
LINE
  5
1885
330
5431
100
AcDbEntity
  8
0
100
AcDbLine
 10
380.9999638730482
 20
714.7630256944096
 30
0.0
 11
380.9999641516423
 21
1064.763115181417
 31
0.0
  0
LINE
  5
1886
330
5431
100
AcDbEntity
  8
0
100
AcDbLine
 10
349.9999624932264
 20
654.7630270790529
 30
0.0
 11
349.9999706694226
 21
1124.763121701212
 31
0.0
  0
CIRCLE
  5
1899
330
5431
100
AcDbEntity
  8
0
100
AcDbCircle
 10
614.999963880076
 20
684.7630370407721
 30
0.0
 40
10.0
  0
LINE
  5
189A
330
5431
100
AcDbEntity
  8
0
100
AcDbLine
 10
614.999963880076
 20
706.6988149722957
 30
0.0
 11
614.999963880076
 21
662.827259109248
 31
0.0
  0
LINE
  5
189B
330
5431
100
AcDbEntity
  8
0
100
AcDbLine
 10
593.0641859485517
 20
684.7630370407721
 30
0.0
 11
636.9357418116003
 21
684.7630370407721
 31
0.0
  0
LINE
  5
18A0
330
5431
100
AcDbEntity
  8
0
100
AcDbLine
 10
593.0641859485517
 20
1094.763103074452
 30
0.0
 11
636.9357418116003
 21
1094.763103074452
 31
0.0
  0
CIRCLE
  5
18A1
330
5431
100
AcDbEntity
  8
0
100
AcDbCircle
 10
1184.999963880076
 20
1094.763037129991
 30
0.0
 40
10.0
  0
LINE
  5
18A7
330
5431
100
AcDbEntity
  8
0
100
AcDbLine
 10
1184.999963880076
 20
1072.827259198467
 30
0.0
 11
1184.999963880076
 21
1116.698815061514
 31
0.0
  0
LINE
  5
18A8
330
5431
100
AcDbEntity
  8
0
100
AcDbLine
 10
1163.064185948552
 20
684.7631029852335
 30
0.0
 11
1206.9357418116
 21
684.7631029852335
 31
0.0
  0
CIRCLE
  5
18A9
330
5431
100
AcDbEntity
  8
0
100
AcDbCircle
 10
1184.999963880076
 20
684.7631029852335
 30
0.0
 40
10.0
  0
LINE
  5
18AA
330
5431
100
AcDbEntity
  8
0
100
AcDbLine
 10
1184.999963880076
 20
706.6988809167574
 30
0.0
 11
1184.999963880076
 21
662.8273250537098
 31
0.0
  0
LINE
  5
18AB
330
5431
100
AcDbEntity
  8
0
100
AcDbLine
 10
1418.999963873049
 20
714.7631143315809
 30
0.0
 11
1418.999964151632
 21
1064.763025023049
 31
0.0
  0
LINE
  5
18AC
330
5431
100
AcDbEntity
  8
0
100
AcDbLine
 10
1449.99996249323
 20
654.7631129469599
 30
0.0
 11
1449.99997066941
 21
1124.763018503233
 31
0.0
  0
LINE
  5
18BF
330
5431
100
AcDbEntity
  8
0
100
AcDbLine
 10
1163.064185948552
 20
1094.763037129991
 30
0.0
 11
1206.9357418116
 21
1094.763037129991
 31
0.0
  0
TEXT
  5
1C3F
330
5431
100
AcDbEntity
  8
0
100
AcDbText
 10
1258.610664529652
 20
1819.582004453637
 30
0.0
 40
24.0
  1
「配管側」ラベル
 50
359.9999965697933
100
AcDbText
  0
LINE
  5
1C40
330
5431
100
AcDbEntity
  8
0
100
AcDbLine
 10
1227.624341280209
 20
1831.199644849058
 30
0.0
 11
1252.293003390246
 21
1831.199644849058
 31
0.0
  0
LINE
  5
1C8A
330
5431
100
AcDbEntity
  8
0
100
AcDbLine
 10
249.9999554235244
 20
1541.999999999999
 30
0.0
 11
249.9999554235244
 21
1484.425838270156
 31
0.0
  0
LINE
  5
1DA6
330
5431
100
AcDbEntity
  8
0
100
AcDbLine
 10
1246.10508046467
 20
1902.263494700569
 30
0.0
 11
1227.624341280209
 21
1831.199644849058
 31
0.0
  0
LINE
  5
1DC4
330
5431
100
AcDbEntity
  8
0
100
AcDbLine
 10
616.8207245288665
 20
1571.999999999999
 30
0.0
 11
739.9999554231404
 21
1571.999999999999
 31
0.0
  0
LINE
  5
2381
330
5431
100
AcDbEntity
  8
0
100
AcDbLine
 10
1344.999955423524
 20
1571.999999999999
 30
0.0
 11
1383.014653175259
 21
1571.999999999999
 31
0.0
  0
LINE
  5
2382
330
5431
100
AcDbEntity
  8
0
100
AcDbLine
 10
594.3207245288665
 20
1571.999999999999
 30
0.0
 11
739.9999554231404
 21
1571.999999999999
 31
0.0
  0
LINE
  5
2383
330
5431
100
AcDbEntity
  8
0
100
AcDbLine
 10
544.3207245288665
 20
1571.999999999998
 30
0.0
 11
614.9999345494983
 21
1571.999999999999
 31
0.0
  0
LINE
  5
26A7
330
5431
100
AcDbEntity
  8
0
100
AcDbLine
 10
1254.999955423524
 20
1571.999999999999
 30
0.0
 11
1269.99995542314
 21
1571.999999999999
 31
0.0
  0
LINE
  5
2704
330
5431
100
AcDbEntity
  8
0
100
AcDbLine
 10
622.560318907017
 20
666.2470700968987
 30
0.0
 11
650.858002023509
 21
596.9435832492495
 31
0.0
  0
CIRCLE
  5
28E3
330
5431
100
AcDbEntity
  8
0
100
AcDbCircle
 10
1184.999955423524
 20
2348.455960450519
 30
0.0
 40
8.0
  0
CIRCLE
  5
28E4
330
5431
100
AcDbEntity
  8
0
100
AcDbCircle
 10
614.9999554235241
 20
2348.456026394979
 30
0.0
 40
8.0
  0
CIRCLE
  5
28E5
330
5431
100
AcDbEntity
  8
0
100
AcDbCircle
 10
614.9999554235241
 20
1928.456026394979
 30
0.0
 40
8.0
  0
CIRCLE
  5
28E6
330
5431
100
AcDbEntity
  8
0
100
AcDbCircle
 10
1184.999955423524
 20
1928.455960450516
 30
0.0
 40
8.0
  0
LINE
  5
3EAD
330
5431
100
AcDbEntity
  8
0
100
AcDbLine
 10
664.9999554235246
 20
2313.45600929918
 30
0.0
 11
664.9999554235246
 21
1963.455971769561
 31
0.0
  0
LINE
  5
3EAF
330
5431
100
AcDbEntity
  8
0
100
AcDbLine
 10
564.9999554235246
 20
2313.456024162868
 30
0.0
 11
564.9999554235246
 21
1963.45596259341
 31
0.0
  0
LINE
  5
3EB2
330
5431
100
AcDbEntity
  8
0
100
AcDbLine
 10
1234.999955423524
 20
2313.45600929918
 30
0.0
 11
1234.999955423524
 21
1963.455971769561
 31
0.0
  0
LINE
  5
3EB4
330
5431
100
AcDbEntity
  8
0
100
AcDbLine
 10
1134.999955423524
 20
2313.456024162868
 30
0.0
 11
1134.999955423524
 21
1963.45596259341
 31
0.0
  0
LINE
  5
4133
330
5431
100
AcDbEntity
  8
0
100
AcDbLine
 10
1754.376842215033
 20
1970.441274707771
 30
0.0
 11
1754.376842215033
 21
2306.455993422745
 31
0.0
  0
LINE
  5
4134
330
5431
100
AcDbEntity
  8
0
100
AcDbLine
 10
1647.376842215032
 20
1970.455993333533
 30
0.0
 11
1647.376842215032
 21
2306.455993422745
 31
0.0
  0
LINE
  5
4135
330
5431
100
AcDbEntity
  8
0
100
AcDbLine
 10
1677.376842215032
 20
1970.455993333533
 30
0.0
 11
1677.376842215032
 21
2306.455993422745
 31
0.0
  0
LINE
  5
4136
330
5431
100
AcDbEntity
  8
0
100
AcDbLine
 10
1784.376842215033
 20
1970.455993333533
 30
0.0
 11
1784.376842215033
 21
2306.455993422745
 31
0.0
  0
LINE
  5
4137
330
5431
100
AcDbEntity
  8
0
100
AcDbLine
 10
1728.376842215032
 20
1943.42944929491
 30
0.0
 11
1733.176872215032
 21
1943.431085858065
 31
0.0
  0
LINE
  5
4138
330
5431
100
AcDbEntity
  8
0
100
AcDbLine
 10
1728.376842215032
 20
1927.429448718472
 30
0.0
 11
1733.176872215032
 21
1927.431085281628
 31
0.0
  0
LINE
  5
4139
330
5431
100
AcDbEntity
  8
0
100
AcDbLine
 10
1690.717298912762
 20
1935.455993333532
 30
0.0
 11
1767.000673485551
 21
1935.455993333532
 31
0.0
  0
ARC
  5
413A
330
5431
100
AcDbEntity
  8
0
100
AcDbCircle
 10
1738.267321215032
 20
1925.063688333532
 30
0.0
 40
5.090450299999996
100
AcDbArc
 50
137.1166399999842
 51
222.8833200000171
  0
ARC
  5
413B
330
5431
100
AcDbEntity
  8
0
100
AcDbCircle
 10
1757.412556500747
 20
1925.063688488119
 30
0.0
 40
3.464285714285712
100
AcDbArc
 50
269.4093113971837
 51
90.59068860281611
  0
ARC
  5
413C
330
5431
100
AcDbEntity
  8
0
100
AcDbCircle
 10
1738.086393215033
 20
1925.063688333532
 30
0.0
 40
5.090450299999996
100
AcDbArc
 50
317.1166899999886
 51
42.88336199998551
  0
LINE
  5
413D
330
5431
100
AcDbEntity
  8
0
100
AcDbLine
 10
1784.376842215033
 20
1970.455993333533
 30
0.0
 11
1784.376842215033
 21
1909.755993333532
 31
0.0
  0
LINE
  5
413E
330
5431
100
AcDbEntity
  8
0
100
AcDbLine
 10
1743.176842215032
 20
1920.455993333532
 30
0.0
 11
1743.176842215032
 21
1950.455993333532
 31
0.0
  0
LINE
  5
413F
330
5431
100
AcDbEntity
  8
0
100
AcDbLine
 10
1769.376842215032
 20
1917.455993333533
 30
0.0
 11
1769.376842215032
 21
1948.455993333532
 31
0.0
  0
LINE
  5
4140
330
5431
100
AcDbEntity
  8
0
100
AcDbLine
 10
1746.376842215033
 20
1903.455993333532
 30
0.0
 11
1746.376842215032
 21
1961.955993333532
 31
0.0
  0
LINE
  5
4141
330
5431
100
AcDbEntity
  8
0
100
AcDbLine
 10
1750.876842215033
 20
1903.455993333532
 30
0.0
 11
1750.876842215032
 21
1961.955993333533
 31
0.0
  0
LINE
  5
4142
330
5431
100
AcDbEntity
  8
0
100
AcDbLine
 10
1783.376842215033
 20
1910.455993333533
 30
0.0
 11
1776.376842215032
 21
1910.455993333533
 31
0.0
  0
ARC
  5
4143
330
5431
100
AcDbEntity
  8
0
100
AcDbCircle
 10
1781.376842215032
 20
1906.455993333532
 30
0.0
 40
3.0
100
AcDbArc
 50
270.0
 51
0.0
  0
ARC
  5
4144
330
5431
100
AcDbEntity
  8
0
100
AcDbCircle
 10
1783.376842215033
 20
1909.455993333532
 30
0.0
 40
1.0
100
AcDbArc
 50
0.0
 51
90.0
  0
LINE
  5
4145
330
5431
100
AcDbEntity
  8
0
100
AcDbLine
 10
1784.376842215033
 20
1909.455993333532
 30
0.0
 11
1784.376842215033
 21
1906.455993333532
 31
0.0
  0
LINE
  5
4146
330
5431
100
AcDbEntity
  8
0
100
AcDbLine
 10
1750.876842215032
 20
1921.599586872982
 30
0.0
 11
1757.376842215032
 21
1921.599586872982
 31
0.0
  0
LINE
  5
4147
330
5431
100
AcDbEntity
  8
0
100
AcDbLine
 10
1746.376842215032
 20
1920.455993333532
 30
0.0
 11
1743.176842215032
 21
1920.455993333532
 31
0.0
  0
LINE
  5
4148
330
5431
100
AcDbEntity
  8
0
100
AcDbLine
 10
1781.376842215032
 20
1903.455993333532
 30
0.0
 11
1746.376842215033
 21
1903.455993333532
 31
0.0
  0
ARC
  5
4149
330
5431
100
AcDbEntity
  8
0
100
AcDbCircle
 10
1776.376842215032
 20
1917.455993333533
 30
0.0
 40
7.0
100
AcDbArc
 50
180.0
 51
270.0
  0
LINE
  5
414A
330
5431
100
AcDbEntity
  8
0
100
AcDbLine
 10
1734.537339215033
 20
1921.599599333532
 30
0.0
 11
1741.816375215033
 21
1921.599599333532
 31
0.0
  0
LINE
  5
414B
330
5431
100
AcDbEntity
  8
0
100
AcDbLine
 10
1783.376842215032
 20
1955.455993333533
 30
0.0
 11
1776.376842215032
 21
1955.455993333533
 31
0.0
  0
LINE
  5
414C
330
5431
100
AcDbEntity
  8
0
100
AcDbLine
 10
1784.376842215033
 20
1965.955993333533
 30
0.0
 11
1754.876842215032
 21
1965.955993333533
 31
0.0
  0
LINE
  5
414D
330
5431
100
AcDbEntity
  8
0
100
AcDbLine
 10
1784.376842215033
 20
1970.455993333533
 30
0.0
 11
1754.876842215032
 21
1970.455993333533
 31
0.0
  0
ARC
  5
414E
330
5431
100
AcDbEntity
  8
0
100
AcDbCircle
 10
1783.376842215033
 20
1956.455993333532
 30
0.0
 40
1.0
100
AcDbArc
 50
270.0
 51
0.0
  0
ARC
  5
414F
330
5431
100
AcDbEntity
  8
0
100
AcDbCircle
 10
1776.376842215032
 20
1948.455993333532
 30
0.0
 40
7.0
100
AcDbArc
 50
90.0
 51
180.0
  0
ARC
  5
4150
330
5431
100
AcDbEntity
  8
0
100
AcDbCircle
 10
1738.267321215032
 20
1945.848293333532
 30
0.0
 40
5.090450299999996
100
AcDbArc
 50
137.1166899999886
 51
222.8833700000026
  0
LINE
  5
4151
330
5431
100
AcDbEntity
  8
0
100
AcDbLine
 10
1733.176872215032
 20
1945.848293333532
 30
0.0
 11
1733.176872215032
 21
1925.063688333532
 31
0.0
  0
ARC
  5
4152
330
5431
100
AcDbEntity
  8
0
100
AcDbCircle
 10
1751.498052215032
 20
1935.455993333532
 30
0.0
 40
18.321183
100
AcDbArc
 50
157.7807100000188
 51
202.2193300000039
  0
LINE
  5
4153
330
5431
100
AcDbEntity
  8
0
100
AcDbLine
 10
1750.876842215032
 20
1942.384196563808
 30
0.0
 11
1757.376842215032
 21
1942.384196563808
 31
0.0
  0
LINE
  5
4154
330
5431
100
AcDbEntity
  8
0
100
AcDbLine
 10
1757.376842215032
 20
1949.312399794084
 30
0.0
 11
1750.876842215032
 21
1949.312399794084
 31
0.0
  0
ARC
  5
4155
330
5431
100
AcDbEntity
  8
0
100
AcDbCircle
 10
1757.412556500747
 20
1945.848298178945
 30
0.0
 40
3.464285714285712
100
AcDbArc
 50
269.4093113971837
 51
90.59068860281611
  0
LINE
  5
4156
330
5431
100
AcDbEntity
  8
0
100
AcDbLine
 10
1746.376842215032
 20
1950.455993333532
 30
0.0
 11
1743.176842215032
 21
1950.455993333532
 31
0.0
  0
ARC
  5
4157
330
5431
100
AcDbEntity
  8
0
100
AcDbCircle
 10
1738.086393215033
 20
1945.848293333532
 30
0.0
 40
5.090450299999996
100
AcDbArc
 50
317.1166399999842
 51
42.8833169999888
  0
LINE
  5
4158
330
5431
100
AcDbEntity
  8
0
100
AcDbLine
 10
1746.376842215032
 20
1943.955993333531
 30
0.0
 11
1750.876842215032
 21
1943.955993333531
 31
0.0
  0
LINE
  5
4159
330
5431
100
AcDbEntity
  8
0
100
AcDbLine
 10
1750.876842215032
 20
1928.527790103257
 30
0.0
 11
1757.376842215032
 21
1928.527790103257
 31
0.0
  0
LINE
  5
415A
330
5431
100
AcDbEntity
  8
0
100
AcDbLine
 10
1746.376842215032
 20
1926.955993333532
 30
0.0
 11
1750.876842215032
 21
1926.955993333532
 31
0.0
  0
LINE
  5
415B
330
5431
100
AcDbEntity
  8
0
100
AcDbLine
 10
1760.876842215032
 20
1925.063688488119
 30
0.0
 11
1760.876842215032
 21
1945.848298178945
 31
0.0
  0
ARC
  5
415C
330
5431
100
AcDbEntity
  8
0
100
AcDbCircle
 10
1752.26969935789
 20
1935.455993333533
 30
0.0
 40
8.607142857142848
100
AcDbArc
 50
306.395879198099
 51
53.60412080190094
  0
ARC
  5
415D
330
5431
100
AcDbEntity
  8
0
100
AcDbCircle
 10
1724.855669215032
 20
1935.455993333532
 30
0.0
 40
18.321183
100
AcDbArc
 50
337.7806799999988
 51
22.21929999997801
  0
LINE
  5
415E
330
5431
100
AcDbEntity
  8
0
100
AcDbLine
 10
1734.537333215033
 20
1942.384183333532
 30
0.0
 11
1741.816382215032
 21
1942.384183333532
 31
0.0
  0
LINE
  5
415F
330
5431
100
AcDbEntity
  8
0
100
AcDbLine
 10
1734.537333215033
 20
1949.312373333532
 30
0.0
 11
1741.816382215032
 21
1949.312373333532
 31
0.0
  0
LINE
  5
4160
330
5431
100
AcDbEntity
  8
0
100
AcDbLine
 10
1734.537333215033
 20
1928.527784333531
 30
0.0
 11
1741.816382215032
 21
1928.527784333531
 31
0.0
  0
ARC
  5
4161
330
5431
100
AcDbEntity
  8
0
100
AcDbCircle
 10
1754.876842215032
 20
1961.955993333532
 30
0.0
 40
4.0
100
AcDbArc
 50
90.0
 51
180.0
  0
ARC
  5
4162
330
5431
100
AcDbEntity
  8
0
100
AcDbCircle
 10
1754.876842215032
 20
1961.955993333533
 30
0.0
 40
8.5
100
AcDbArc
 50
90.0
 51
180.0
  0
ARC
  5
4163
330
5431
100
AcDbEntity
  8
0
100
AcDbCircle
 10
1705.467308215032
 20
1925.063699728837
 30
0.0
 40
5.090450299999996
100
AcDbArc
 50
137.1166399999842
 51
222.8833200000171
  0
LINE
  5
4164
330
5431
100
AcDbEntity
  8
0
100
AcDbLine
 10
1674.076842215032
 20
1912.455993333533
 30
0.0
 11
1674.076842215032
 21
1925.322062080851
 31
0.0
  0
ARC
  5
4165
330
5431
100
AcDbEntity
  8
0
100
AcDbCircle
 10
1674.076842215032
 20
1910.455993333533
 30
0.0
 40
17.0
100
AcDbArc
 50
97.66225566075904
 51
172.3377443392417
  0
LINE
  5
4166
330
5431
100
AcDbEntity
  8
0
100
AcDbLine
 10
1647.376842215032
 20
1970.455993333533
 30
0.0
 11
1647.376842215032
 21
1903.455993333532
 31
0.0
  0
LINE
  5
4167
330
5431
100
AcDbEntity
  8
0
100
AcDbLine
 10
1720.876842215032
 20
1913.955993333532
 30
0.0
 11
1720.876842215033
 21
1935.455993333532
 31
0.0
  0
LINE
  5
4168
330
5431
100
AcDbEntity
  8
0
100
AcDbLine
 10
1717.376842215032
 20
1903.455993333532
 30
0.0
 11
1717.376842215033
 21
1935.455993333532
 31
0.0
  0
LINE
  5
4169
330
5431
100
AcDbEntity
  8
0
100
AcDbLine
 10
1712.876842215032
 20
1903.455993333532
 30
0.0
 11
1712.876842215033
 21
1935.455993333532
 31
0.0
  0
LINE
  5
416A
330
5431
100
AcDbEntity
  8
0
100
AcDbLine
 10
1728.376842215032
 20
1915.455993333532
 30
0.0
 11
1728.376842215032
 21
1935.455993333532
 31
0.0
  0
LINE
  5
416B
330
5431
100
AcDbEntity
  8
0
100
AcDbLine
 10
1647.376842215032
 20
1903.455993333532
 30
0.0
 11
1717.376842215032
 21
1903.455993333532
 31
0.0
  0
ARC
  5
416C
330
5431
100
AcDbEntity
  8
0
100
AcDbCircle
 10
1672.076842215032
 20
1912.455993333533
 30
0.0
 40
2.0
100
AcDbArc
 50
270.0
 51
0.0
  0
LINE
  5
416D
330
5431
100
AcDbEntity
  8
0
100
AcDbLine
 10
1701.737320215032
 20
1921.599609728838
 30
0.0
 11
1712.876842215032
 21
1921.599609728838
 31
0.0
  0
LINE
  5
416E
330
5431
100
AcDbEntity
  8
0
100
AcDbLine
 10
1720.876842215032
 20
1913.955993333532
 30
0.0
 11
1728.376842215032
 21
1913.955993333532
 31
0.0
  0
LINE
  5
416F
330
5431
100
AcDbEntity
  8
0
100
AcDbLine
 10
1728.376842215032
 20
1913.955993333532
 30
0.0
 11
1728.376842215032
 21
1915.455993333532
 31
0.0
  0
ARC
  5
4170
330
5431
100
AcDbEntity
  8
0
100
AcDbCircle
 10
1659.210773467712
 20
1912.455993333533
 30
0.0
 40
2.0
100
AcDbArc
 50
172.3377443392417
 51
270.0
  0
LINE
  5
4171
330
5431
100
AcDbEntity
  8
0
100
AcDbLine
 10
1672.076842215032
 20
1910.455993333533
 30
0.0
 11
1659.210773467712
 21
1910.455993333533
 31
0.0
  0
ARC
  5
4172
330
5431
100
AcDbEntity
  8
0
100
AcDbCircle
 10
1672.076842215032
 20
1945.589924586214
 30
0.0
 40
2.0
100
AcDbArc
 50
262.3377443392409
 51
0.0
  0
ARC
  5
4173
330
5431
100
AcDbEntity
  8
0
100
AcDbCircle
 10
1672.076842215032
 20
1958.455993333533
 30
0.0
 40
2.0
100
AcDbArc
 50
0.0
 51
90.0
  0
LINE
  5
4174
330
5431
100
AcDbEntity
  8
0
100
AcDbLine
 10
1647.376842215032
 20
1965.955993333533
 30
0.0
 11
1709.876842215033
 21
1965.955993333533
 31
0.0
  0
LINE
  5
4175
330
5431
100
AcDbEntity
  8
0
100
AcDbLine
 10
1647.376842215032
 20
1970.455993333533
 30
0.0
 11
1709.876842215033
 21
1970.455993333533
 31
0.0
  0
ARC
  5
4176
330
5431
100
AcDbEntity
  8
0
100
AcDbCircle
 10
1672.076842215032
 20
1925.322062080851
 30
0.0
 40
2.0
100
AcDbArc
 50
0.0
 51
97.66225566075904
  0
LINE
  5
4177
330
5431
100
AcDbEntity
  8
0
100
AcDbLine
 10
1712.876842215032
 20
1935.455993333532
 30
0.0
 11
1712.876842215033
 21
1962.955993333532
 31
0.0
  0
LINE
  5
4178
330
5431
100
AcDbEntity
  8
0
100
AcDbLine
 10
1717.376842215032
 20
1935.455993333532
 30
0.0
 11
1717.376842215033
 21
1962.955993333532
 31
0.0
  0
LINE
  5
4179
330
5431
100
AcDbEntity
  8
0
100
AcDbLine
 10
1720.876842215032
 20
1935.455993333532
 30
0.0
 11
1720.876842215032
 21
1956.955993333531
 31
0.0
  0
LINE
  5
417A
330
5431
100
AcDbEntity
  8
0
100
AcDbLine
 10
1728.376842215032
 20
1935.455993333532
 30
0.0
 11
1728.376842215032
 21
1955.455993333532
 31
0.0
  0
LINE
  5
417B
330
5431
100
AcDbEntity
  8
0
100
AcDbLine
 10
1674.076842215032
 20
1958.455993333533
 30
0.0
 11
1674.076842215032
 21
1945.589924586214
 31
0.0
  0
LINE
  5
417C
330
5431
100
AcDbEntity
  8
0
100
AcDbLine
 10
1701.737320215032
 20
1949.312399728837
 30
0.0
 11
1712.876842215032
 21
1949.312399728837
 31
0.0
  0
LINE
  5
417D
330
5431
100
AcDbEntity
  8
0
100
AcDbLine
 10
1701.737320215032
 20
1942.384209728838
 30
0.0
 11
1712.876842215032
 21
1942.384209728838
 31
0.0
  0
ARC
  5
417E
330
5431
100
AcDbEntity
  8
0
100
AcDbCircle
 10
1705.467308215032
 20
1945.848309728838
 30
0.0
 40
5.090450299999996
100
AcDbArc
 50
137.1166899999886
 51
222.8833700000026
  0
LINE
  5
417F
330
5431
100
AcDbEntity
  8
0
100
AcDbLine
 10
1720.876842215032
 20
1947.255993333532
 30
0.0
 11
1717.376842215032
 21
1947.255993333532
 31
0.0
  0
LINE
  5
4180
330
5431
100
AcDbEntity
  8
0
100
AcDbLine
 10
1701.737320215032
 20
1928.527789728837
 30
0.0
 11
1712.876842215032
 21
1928.527789728837
 31
0.0
  0
LINE
  5
4181
330
5431
100
AcDbEntity
  8
0
100
AcDbLine
 10
1720.876842215032
 20
1923.655993333533
 30
0.0
 11
1717.376842215032
 21
1923.655993333532
 31
0.0
  0
LINE
  5
4182
330
5431
100
AcDbEntity
  8
0
100
AcDbLine
 10
1700.376859215032
 20
1945.848309728838
 30
0.0
 11
1700.376859215032
 21
1925.063699728837
 31
0.0
  0
ARC
  5
4183
330
5431
100
AcDbEntity
  8
0
100
AcDbCircle
 10
1718.698022215032
 20
1935.455999728837
 30
0.0
 40
18.321183
100
AcDbArc
 50
157.7807100000188
 51
202.2193300000039
  0
LINE
  5
4184
330
5431
100
AcDbEntity
  8
0
100
AcDbLine
 10
1728.376842215032
 20
1955.455993333532
 30
0.0
 11
1728.376842215032
 21
1956.955993333531
 31
0.0
  0
LINE
  5
4185
330
5431
100
AcDbEntity
  8
0
100
AcDbLine
 10
1720.876842215032
 20
1956.955993333531
 30
0.0
 11
1728.376842215032
 21
1956.955993333531
 31
0.0
  0
ARC
  5
4186
330
5431
100
AcDbEntity
  8
0
100
AcDbCircle
 10
1709.876842215033
 20
1962.955993333532
 30
0.0
 40
3.0
100
AcDbArc
 50
0.0
 51
90.0
  0
ARC
  5
4187
330
5431
100
AcDbEntity
  8
0
100
AcDbCircle
 10
1709.876842215033
 20
1962.955993333532
 30
0.0
 40
7.5
100
AcDbArc
 50
0.0
 51
90.0
  0
ARC
  5
4188
330
5431
100
AcDbEntity
  8
0
100
AcDbCircle
 10
1674.076842215032
 20
1960.455993333533
 30
0.0
 40
17.0
100
AcDbArc
 50
187.6622556607582
 51
262.3377443392409
  0
ARC
  5
4189
330
5431
100
AcDbEntity
  8
0
100
AcDbCircle
 10
1659.210773467712
 20
1958.455993333533
 30
0.0
 40
2.0
100
AcDbArc
 50
90.0
 51
187.6622556607582
  0
LINE
  5
418A
330
5431
100
AcDbEntity
  8
0
100
AcDbLine
 10
1672.076842215032
 20
1960.455993333533
 30
0.0
 11
1659.210773467712
 21
1960.455993333533
 31
0.0
  0
LINE
  5
418B
330
5431
100
AcDbEntity
  8
0
100
AcDbLine
 10
1712.876842215032
 20
2341.455993422747
 30
0.0
 11
1712.876842215033
 21
2313.955993422746
 31
0.0
  0
LINE
  5
418C
330
5431
100
AcDbEntity
  8
0
100
AcDbLine
 10
1717.376842215032
 20
2341.455993422747
 30
0.0
 11
1717.376842215033
 21
2313.955993422746
 31
0.0
  0
ARC
  5
418D
330
5431
100
AcDbEntity
  8
0
100
AcDbCircle
 10
1705.467308215032
 20
2331.063677027441
 30
0.0
 40
5.090450299999996
100
AcDbArc
 50
137.1166299999973
 51
222.8833100000113
  0
LINE
  5
418E
330
5431
100
AcDbEntity
  8
0
100
AcDbLine
 10
1720.876842215032
 20
2341.455993422747
 30
0.0
 11
1720.876842215032
 21
2319.955993422746
 31
0.0
  0
LINE
  5
418F
330
5431
100
AcDbEntity
  8
0
100
AcDbLine
 10
1728.376842215032
 20
2341.455993422747
 30
0.0
 11
1728.376842215032
 21
2321.455993422746
 31
0.0
  0
ARC
  5
4190
330
5431
100
AcDbEntity
  8
0
100
AcDbCircle
 10
1738.267321215032
 20
2331.063693422747
 30
0.0
 40
5.090450299999996
100
AcDbArc
 50
137.1166299999973
 51
222.8833100000113
  0
ARC
  5
4191
330
5431
100
AcDbEntity
  8
0
100
AcDbCircle
 10
1672.076842215032
 20
2331.322062170064
 30
0.0
 40
2.0
100
AcDbArc
 50
0.0
 51
97.66225566075904
  0
ARC
  5
4192
330
5431
100
AcDbEntity
  8
0
100
AcDbCircle
 10
1674.076842215032
 20
2316.455993422745
 30
0.0
 40
17.0
100
AcDbArc
 50
97.66225566075904
 51
172.3377443392417
  0
LINE
  5
4193
330
5431
100
AcDbEntity
  8
0
100
AcDbLine
 10
1647.376842215032
 20
2306.455993422745
 30
0.0
 11
1647.376842215032
 21
2373.455993422746
 31
0.0
  0
LINE
  5
4194
330
5431
100
AcDbEntity
  8
0
100
AcDbLine
 10
1700.376859215032
 20
2331.063677027441
 30
0.0
 11
1700.376859215032
 21
2351.848287027441
 31
0.0
  0
LINE
  5
4195
330
5431
100
AcDbEntity
  8
0
100
AcDbLine
 10
1733.176872215032
 20
2331.063693422747
 30
0.0
 11
1733.176872215032
 21
2351.848298422747
 31
0.0
  0
ARC
  5
4196
330
5431
100
AcDbEntity
  8
0
100
AcDbCircle
 10
1757.412556500747
 20
2331.063688577332
 30
0.0
 40
3.464285714285712
100
AcDbArc
 50
269.4093113971837
 51
90.59068860281611
  0
ARC
  5
4197
330
5431
100
AcDbEntity
  8
0
100
AcDbCircle
 10
1738.086393215033
 20
2331.063693422747
 30
0.0
 40
5.090450299999996
100
AcDbArc
 50
317.1166830000112
 51
42.88336000001573
  0
LINE
  5
4198
330
5431
100
AcDbEntity
  8
0
100
AcDbLine
 10
1784.376842215033
 20
2306.455993422745
 30
0.0
 11
1784.376842215033
 21
2367.155993422747
 31
0.0
  0
LINE
  5
4199
330
5431
100
AcDbEntity
  8
0
100
AcDbLine
 10
1760.876842215032
 20
2351.848298268158
 30
0.0
 11
1760.876842215032
 21
2331.063688577332
 31
0.0
  0
LINE
  5
419A
330
5431
100
AcDbEntity
  8
0
100
AcDbLine
 10
1743.176842215032
 20
2356.455993422747
 30
0.0
 11
1743.176842215032
 21
2326.455993422746
 31
0.0
  0
LINE
  5
419B
330
5431
100
AcDbEntity
  8
0
100
AcDbLine
 10
1769.376842215032
 20
2359.455993422745
 30
0.0
 11
1769.376842215032
 21
2328.455993422746
 31
0.0
  0
LINE
  5
419C
330
5431
100
AcDbEntity
  8
0
100
AcDbLine
 10
1746.376842215033
 20
2373.455993422746
 30
0.0
 11
1746.376842215032
 21
2314.955993422746
 31
0.0
  0
LINE
  5
419D
330
5431
100
AcDbEntity
  8
0
100
AcDbLine
 10
1750.876842215033
 20
2373.455993422746
 30
0.0
 11
1750.876842215032
 21
2314.955993422746
 31
0.0
  0
LINE
  5
419E
330
5431
100
AcDbEntity
  8
0
100
AcDbLine
 10
1783.376842215032
 20
2321.455993422746
 30
0.0
 11
1776.376842215032
 21
2321.455993422746
 31
0.0
  0
LINE
  5
419F
330
5431
100
AcDbEntity
  8
0
100
AcDbLine
 10
1784.376842215033
 20
2310.955993422746
 30
0.0
 11
1754.876842215032
 21
2310.955993422746
 31
0.0
  0
LINE
  5
41A0
330
5431
100
AcDbEntity
  8
0
100
AcDbLine
 10
1784.376842215033
 20
2306.455993422745
 30
0.0
 11
1754.876842215032
 21
2306.455993422745
 31
0.0
  0
ARC
  5
41A1
330
5431
100
AcDbEntity
  8
0
100
AcDbCircle
 10
1783.376842215033
 20
2320.455993422745
 30
0.0
 40
1.0
100
AcDbArc
 50
0.0
 51
90.0
  0
ARC
  5
41A2
330
5431
100
AcDbEntity
  8
0
100
AcDbCircle
 10
1754.876842215032
 20
2314.955993422746
 30
0.0
 40
4.0
100
AcDbArc
 50
180.0
 51
270.0
  0
ARC
  5
41A3
330
5431
100
AcDbEntity
  8
0
100
AcDbCircle
 10
1754.876842215032
 20
2314.955993422746
 30
0.0
 40
8.5
100
AcDbArc
 50
180.0
 51
270.0
  0
LINE
  5
41A4
330
5431
100
AcDbEntity
  8
0
100
AcDbLine
 10
1757.376842215032
 20
2327.599586962195
 30
0.0
 11
1750.876842215032
 21
2327.599586962195
 31
0.0
  0
LINE
  5
41A5
330
5431
100
AcDbEntity
  8
0
100
AcDbLine
 10
1746.376842215032
 20
2326.455993422746
 30
0.0
 11
1743.176842215032
 21
2326.455993422746
 31
0.0
  0
ARC
  5
41A6
330
5431
100
AcDbEntity
  8
0
100
AcDbCircle
 10
1776.376842215032
 20
2328.455993422746
 30
0.0
 40
7.0
100
AcDbArc
 50
180.0
 51
270.0
  0
LINE
  5
41A7
330
5431
100
AcDbEntity
  8
0
100
AcDbLine
 10
1734.537333215033
 20
2327.599613422747
 30
0.0
 11
1741.816382215032
 21
2327.599613422747
 31
0.0
  0
ARC
  5
41A8
330
5431
100
AcDbEntity
  8
0
100
AcDbCircle
 10
1672.076842215032
 20
2318.455993422745
 30
0.0
 40
2.0
100
AcDbArc
 50
270.0
 51
0.0
  0
LINE
  5
41A9
330
5431
100
AcDbEntity
  8
0
100
AcDbLine
 10
1647.376842215032
 20
2310.955993422746
 30
0.0
 11
1709.876842215033
 21
2310.955993422746
 31
0.0
  0
LINE
  5
41AA
330
5431
100
AcDbEntity
  8
0
100
AcDbLine
 10
1647.376842215032
 20
2306.455993422745
 30
0.0
 11
1709.876842215033
 21
2306.455993422745
 31
0.0
  0
LINE
  5
41AB
330
5431
100
AcDbEntity
  8
0
100
AcDbLine
 10
1701.737320215032
 20
2327.599587027441
 30
0.0
 11
1712.876842215032
 21
2327.599587027441
 31
0.0
  0
LINE
  5
41AC
330
5431
100
AcDbEntity
  8
0
100
AcDbLine
 10
1720.876842215032
 20
2329.655993422747
 30
0.0
 11
1717.376842215032
 21
2329.655993422747
 31
0.0
  0
LINE
  5
41AD
330
5431
100
AcDbEntity
  8
0
100
AcDbLine
 10
1728.376842215032
 20
2321.455993422746
 30
0.0
 11
1728.376842215032
 21
2319.955993422746
 31
0.0
  0
LINE
  5
41AE
330
5431
100
AcDbEntity
  8
0
100
AcDbLine
 10
1720.876842215032
 20
2319.955993422746
 30
0.0
 11
1728.376842215032
 21
2319.955993422746
 31
0.0
  0
LINE
  5
41AF
330
5431
100
AcDbEntity
  8
0
100
AcDbLine
 10
1674.076842215032
 20
2318.455993422745
 30
0.0
 11
1674.076842215032
 21
2331.322062170064
 31
0.0
  0
ARC
  5
41B0
330
5431
100
AcDbEntity
  8
0
100
AcDbCircle
 10
1709.876842215033
 20
2313.955993422746
 30
0.0
 40
3.0
100
AcDbArc
 50
270.0
 51
0.0
  0
ARC
  5
41B1
330
5431
100
AcDbEntity
  8
0
100
AcDbCircle
 10
1709.876842215033
 20
2313.955993422746
 30
0.0
 40
7.5
100
AcDbArc
 50
270.0
 51
0.0
  0
ARC
  5
41B2
330
5431
100
AcDbEntity
  8
0
100
AcDbCircle
 10
1659.210773467712
 20
2318.455993422745
 30
0.0
 40
2.0
100
AcDbArc
 50
172.3377443392417
 51
270.0
  0
LINE
  5
41B3
330
5431
100
AcDbEntity
  8
0
100
AcDbLine
 10
1672.076842215032
 20
2316.455993422745
 30
0.0
 11
1659.210773467712
 21
2316.455993422746
 31
0.0
  0
LINE
  5
41B4
330
5431
100
AcDbEntity
  8
0
100
AcDbLine
 10
1728.376842215032
 20
2333.482537461367
 30
0.0
 11
1733.176872215032
 21
2333.480900898212
 31
0.0
  0
LINE
  5
41B5
330
5431
100
AcDbEntity
  8
0
100
AcDbLine
 10
1728.376842215032
 20
2349.482538037806
 30
0.0
 11
1733.176872215032
 21
2349.480901474652
 31
0.0
  0
LINE
  5
41B6
330
5431
100
AcDbEntity
  8
0
100
AcDbLine
 10
1690.717298912762
 20
2341.455993422747
 30
0.0
 11
1767.000673485551
 21
2341.455993422747
 31
0.0
  0
LINE
  5
41B7
330
5431
100
AcDbEntity
  8
0
100
AcDbLine
 10
1783.376842215033
 20
2366.455993422746
 30
0.0
 11
1776.376842215032
 21
2366.455993422746
 31
0.0
  0
ARC
  5
41B8
330
5431
100
AcDbEntity
  8
0
100
AcDbCircle
 10
1781.376842215032
 20
2370.455993422746
 30
0.0
 40
3.0
100
AcDbArc
 50
0.0
 51
90.0
  0
ARC
  5
41B9
330
5431
100
AcDbEntity
  8
0
100
AcDbCircle
 10
1783.376842215033
 20
2367.455993422746
 30
0.0
 40
1.0
100
AcDbArc
 50
270.0
 51
0.0
  0
LINE
  5
41BA
330
5431
100
AcDbEntity
  8
0
100
AcDbLine
 10
1784.376842215033
 20
2367.455993422746
 30
0.0
 11
1784.376842215033
 21
2370.455993422746
 31
0.0
  0
ARC
  5
41BB
330
5431
100
AcDbEntity
  8
0
100
AcDbCircle
 10
1776.376842215032
 20
2359.455993422745
 30
0.0
 40
7.0
100
AcDbArc
 50
90.0
 51
180.0
  0
ARC
  5
41BC
330
5431
100
AcDbEntity
  8
0
100
AcDbCircle
 10
1738.267321215032
 20
2351.848298422747
 30
0.0
 40
5.090450299999996
100
AcDbArc
 50
137.1166799999828
 51
222.8833600000157
  0
ARC
  5
41BD
330
5431
100
AcDbEntity
  8
0
100
AcDbCircle
 10
1751.498052215032
 20
2341.455993422747
 30
0.0
 40
18.321183
100
AcDbArc
 50
157.7806699999961
 51
202.219289999981
  0
LINE
  5
41BE
330
5431
100
AcDbEntity
  8
0
100
AcDbLine
 10
1750.876842215032
 20
2334.52779019247
 30
0.0
 11
1757.376842215032
 21
2334.52779019247
 31
0.0
  0
LINE
  5
41BF
330
5431
100
AcDbEntity
  8
0
100
AcDbLine
 10
1746.376842215032
 20
2332.955993422745
 30
0.0
 11
1750.876842215032
 21
2332.955993422745
 31
0.0
  0
ARC
  5
41C0
330
5431
100
AcDbEntity
  8
0
100
AcDbCircle
 10
1757.412556500747
 20
2351.848298268158
 30
0.0
 40
3.464285714285712
100
AcDbArc
 50
269.4093113971837
 51
90.59068860281611
  0
LINE
  5
41C1
330
5431
100
AcDbEntity
  8
0
100
AcDbLine
 10
1750.876842215032
 20
2355.312399883297
 30
0.0
 11
1757.376842215032
 21
2355.312399883297
 31
0.0
  0
LINE
  5
41C2
330
5431
100
AcDbEntity
  8
0
100
AcDbLine
 10
1750.876842215032
 20
2348.384196653021
 30
0.0
 11
1757.376842215032
 21
2348.384196653021
 31
0.0
  0
ARC
  5
41C3
330
5431
100
AcDbEntity
  8
0
100
AcDbCircle
 10
1738.086393215033
 20
2351.848298422747
 30
0.0
 40
5.090450299999996
100
AcDbArc
 50
317.1166380000145
 51
42.88331000001131
  0
LINE
  5
41C4
330
5431
100
AcDbEntity
  8
0
100
AcDbLine
 10
1746.376842215032
 20
2356.455993422747
 30
0.0
 11
1743.176842215032
 21
2356.455993422747
 31
0.0
  0
LINE
  5
41C5
330
5431
100
AcDbEntity
  8
0
100
AcDbLine
 10
1746.376842215032
 20
2349.955993422746
 30
0.0
 11
1750.876842215032
 21
2349.955993422746
 31
0.0
  0
ARC
  5
41C6
330
5431
100
AcDbEntity
  8
0
100
AcDbCircle
 10
1752.26969935789
 20
2341.455993422746
 30
0.0
 40
8.607142857142848
100
AcDbArc
 50
306.395879198099
 51
53.60412080190094
  0
ARC
  5
41C7
330
5431
100
AcDbEntity
  8
0
100
AcDbCircle
 10
1724.855669215032
 20
2341.455993422747
 30
0.0
 40
18.321183
100
AcDbArc
 50
337.7807000000217
 51
22.21932000000121
  0
LINE
  5
41C8
330
5431
100
AcDbEntity
  8
0
100
AcDbLine
 10
1734.537333215033
 20
2334.527803422746
 30
0.0
 11
1741.816382215032
 21
2334.527803422746
 31
0.0
  0
LINE
  5
41C9
330
5431
100
AcDbEntity
  8
0
100
AcDbLine
 10
1734.537339215033
 20
2355.312387422745
 30
0.0
 11
1741.816375215033
 21
2355.312387422745
 31
0.0
  0
LINE
  5
41CA
330
5431
100
AcDbEntity
  8
0
100
AcDbLine
 10
1734.537333215033
 20
2348.384202422747
 30
0.0
 11
1741.816382215032
 21
2348.384202422747
 31
0.0
  0
LINE
  5
41CB
330
5431
100
AcDbEntity
  8
0
100
AcDbLine
 10
1781.376842215032
 20
2373.455993422746
 30
0.0
 11
1746.376842215033
 21
2373.455993422746
 31
0.0
  0
LINE
  5
41CC
330
5431
100
AcDbEntity
  8
0
100
AcDbLine
 10
1647.376842215032
 20
2373.455993422746
 30
0.0
 11
1717.376842215032
 21
2373.455993422746
 31
0.0
  0
ARC
  5
41CD
330
5431
100
AcDbEntity
  8
0
100
AcDbCircle
 10
1672.076842215032
 20
2364.455993422746
 30
0.0
 40
2.0
100
AcDbArc
 50
0.0
 51
90.0
  0
ARC
  5
41CE
330
5431
100
AcDbEntity
  8
0
100
AcDbCircle
 10
1672.076842215032
 20
2351.589924675428
 30
0.0
 40
2.0
100
AcDbArc
 50
262.3377443392409
 51
0.0
  0
LINE
  5
41CF
330
5431
100
AcDbEntity
  8
0
100
AcDbLine
 10
1674.076842215032
 20
2364.455993422746
 30
0.0
 11
1674.076842215032
 21
2351.589924675428
 31
0.0
  0
LINE
  5
41D0
330
5431
100
AcDbEntity
  8
0
100
AcDbLine
 10
1720.876842215032
 20
2362.955993422747
 30
0.0
 11
1720.876842215033
 21
2341.455993422747
 31
0.0
  0
LINE
  5
41D1
330
5431
100
AcDbEntity
  8
0
100
AcDbLine
 10
1717.376842215032
 20
2373.455993422746
 30
0.0
 11
1717.376842215033
 21
2341.455993422747
 31
0.0
  0
LINE
  5
41D2
330
5431
100
AcDbEntity
  8
0
100
AcDbLine
 10
1712.876842215032
 20
2373.455993422746
 30
0.0
 11
1712.876842215033
 21
2341.455993422747
 31
0.0
  0
LINE
  5
41D3
330
5431
100
AcDbEntity
  8
0
100
AcDbLine
 10
1728.376842215032
 20
2361.455993422747
 30
0.0
 11
1728.376842215032
 21
2341.455993422747
 31
0.0
  0
LINE
  5
41D4
330
5431
100
AcDbEntity
  8
0
100
AcDbLine
 10
1701.737320215032
 20
2334.527777027441
 30
0.0
 11
1712.876842215032
 21
2334.527777027441
 31
0.0
  0
LINE
  5
41D5
330
5431
100
AcDbEntity
  8
0
100
AcDbLine
 10
1701.737320215032
 20
2355.312377027441
 30
0.0
 11
1712.876842215032
 21
2355.312377027441
 31
0.0
  0
LINE
  5
41D6
330
5431
100
AcDbEntity
  8
0
100
AcDbLine
 10
1701.737320215032
 20
2348.384197027441
 30
0.0
 11
1712.876842215032
 21
2348.384197027441
 31
0.0
  0
ARC
  5
41D7
330
5431
100
AcDbEntity
  8
0
100
AcDbCircle
 10
1705.467308215032
 20
2351.848287027441
 30
0.0
 40
5.090450299999996
100
AcDbArc
 50
137.1166799999828
 51
222.8833600000157
  0
LINE
  5
41D8
330
5431
100
AcDbEntity
  8
0
100
AcDbLine
 10
1720.876842215032
 20
2353.255993422746
 30
0.0
 11
1717.376842215032
 21
2353.255993422746
 31
0.0
  0
ARC
  5
41D9
330
5431
100
AcDbEntity
  8
0
100
AcDbCircle
 10
1718.698022215032
 20
2341.45598702744
 30
0.0
 40
18.321183
100
AcDbArc
 50
157.7806699999961
 51
202.219289999981
  0
LINE
  5
41DA
330
5431
100
AcDbEntity
  8
0
100
AcDbLine
 10
1720.876842215032
 20
2362.955993422747
 30
0.0
 11
1728.376842215032
 21
2362.955993422747
 31
0.0
  0
LINE
  5
41DB
330
5431
100
AcDbEntity
  8
0
100
AcDbLine
 10
1728.376842215032
 20
2362.955993422747
 30
0.0
 11
1728.376842215032
 21
2361.455993422747
 31
0.0
  0
ARC
  5
41DC
330
5431
100
AcDbEntity
  8
0
100
AcDbCircle
 10
1674.076842215032
 20
2366.455993422746
 30
0.0
 40
17.0
100
AcDbArc
 50
187.6622556607582
 51
262.3377443392409
  0
ARC
  5
41DD
330
5431
100
AcDbEntity
  8
0
100
AcDbCircle
 10
1659.210773467712
 20
2364.455993422746
 30
0.0
 40
2.0
100
AcDbArc
 50
90.0
 51
187.6622556607582
  0
LINE
  5
41DE
330
5431
100
AcDbEntity
  8
0
100
AcDbLine
 10
1672.076842215032
 20
2366.455993422746
 30
0.0
 11
1659.210773467712
 21
2366.455993422746
 31
0.0
  0
ARC
  5
48C1
330
5431
100
AcDbEntity
  8
0
100
AcDbCircle
 10
804.9999554229241
 20
1599.499999999608
 30
0.0
 40
1.0
100
AcDbArc
 50
270.0
 51
90.0
  0
ARC
  5
48C2
330
5431
100
AcDbEntity
  8
0
100
AcDbCircle
 10
794.9999554229241
 20
1621.243557214409
 30
0.0
 40
10.0
100
AcDbArc
 50
0.0
 51
14.32271997981884
  0
LINE
  5
48C3
330
5431
100
AcDbEntity
  8
0
100
AcDbLine
 10
804.9999554229241
 20
1590.499999999608
 30
0.0
 11
804.9999554229241
 21
1598.499999999608
 31
0.0
  0
LINE
  5
48C4
330
5431
100
AcDbEntity
  8
0
100
AcDbLine
 10
804.9999554229241
 20
1600.499999999607
 30
0.0
 11
804.9999554229241
 21
1621.243557214409
 31
0.0
  0
LINE
  5
48C5
330
5431
100
AcDbEntity
  8
0
100
AcDbLine
 10
804.6891325290241
 20
1623.717389667408
 30
0.0
 11
798.9999554222236
 21
1646.000000000009
 31
0.0
  0
ARC
  5
48C6
330
5431
100
AcDbEntity
  8
0
100
AcDbCircle
 10
797.9999554222238
 20
1647.000000000008
 30
0.0
 40
1.0
100
AcDbArc
 50
0.0
 51
90.0
  0
LINE
  5
48C7
330
5431
100
AcDbEntity
  8
0
100
AcDbLine
 10
798.9999554222236
 20
1646.000000000009
 30
0.0
 11
798.9999554222236
 21
1647.000000000008
 31
0.0
  0
LINE
  5
48C8
330
5431
100
AcDbEntity
  8
0
100
AcDbLine
 10
769.9999554235239
 20
1600.499999999607
 30
0.0
 11
804.9999554229241
 21
1600.499999999607
 31
0.0
  0
LINE
  5
48C9
330
5431
100
AcDbEntity
  8
0
100
AcDbLine
 10
769.9999554235239
 20
1598.499999999608
 30
0.0
 11
804.9999554229241
 21
1598.499999999608
 31
0.0
  0
LINE
  5
48CA
330
5431
100
AcDbEntity
  8
0
100
AcDbLine
 10
769.9999554235239
 20
1590.499999999608
 30
0.0
 11
804.9999554229241
 21
1590.499999999608
 31
0.0
  0
LINE
  5
48CB
330
5431
100
AcDbEntity
  8
0
100
AcDbLine
 10
769.9999554235239
 20
1648.000000000008
 30
0.0
 11
797.9999554222238
 21
1648.000000000008
 31
0.0
  0
LINE
  5
48CC
330
5431
100
AcDbEntity
  8
0
100
AcDbLine
 10
799.9999554239081
 20
1560.999999999999
 30
0.0
 11
769.9999554235239
 21
1560.999999999999
 31
0.0
  0
LINE
  5
48CD
330
5431
100
AcDbEntity
  8
0
100
AcDbLine
 10
799.9999554239081
 20
1560.999999999999
 30
0.0
 11
799.9999554239081
 21
1573.999999999999
 31
0.0
  0
LINE
  5
48CF
330
5431
100
AcDbEntity
  8
0
100
AcDbLine
 10
798.9999554235239
 20
1573.999999999998
 30
0.0
 11
798.9999554235239
 21
1590.500000000147
 31
0.0
  0
LINE
  5
48D0
330
5431
100
AcDbEntity
  8
0
100
AcDbLine
 10
799.9999554239081
 20
1573.999999999999
 30
0.0
 11
799.9999554239081
 21
1571.999999999999
 31
0.0
  0
LINE
  5
48D1
330
5431
100
AcDbEntity
  8
0
100
AcDbLine
 10
799.9999554239081
 20
1573.999999999999
 30
0.0
 11
769.9999554235239
 21
1573.999999999999
 31
0.0
  0
LINE
  5
48D2
330
5431
100
AcDbEntity
  8
0
100
AcDbLine
 10
769.9999554235239
 20
1590.500000000147
 30
0.0
 11
798.9999554235239
 21
1590.500000000147
 31
0.0
  0
LINE
  5
48D3
330
5431
100
AcDbEntity
  8
0
100
AcDbLine
 10
786.9999554235239
 20
1649.0
 30
0.0
 11
786.9999554235239
 21
1648.000000000008
 31
0.0
  0
LINE
  5
48D4
330
5431
100
AcDbEntity
  8
0
100
AcDbLine
 10
786.9999554235239
 20
1649.0
 30
0.0
 11
769.9999554235239
 21
1649.0
 31
0.0
  0
ARC
  5
48D5
330
5431
100
AcDbEntity
  8
0
100
AcDbCircle
 10
734.9999554241244
 20
1599.499999999608
 30
0.0
 40
1.0
100
AcDbArc
 50
90.0
 51
270.0
  0
ARC
  5
48D6
330
5431
100
AcDbEntity
  8
0
100
AcDbCircle
 10
744.9999554241244
 20
1621.243557214409
 30
0.0
 40
10.0
100
AcDbArc
 50
165.6772800201811
 51
180.0
  0
LINE
  5
48D7
330
5431
100
AcDbEntity
  8
0
100
AcDbLine
 10
734.9999554241244
 20
1590.499999999608
 30
0.0
 11
734.9999554241244
 21
1598.499999999608
 31
0.0
  0
LINE
  5
48D8
330
5431
100
AcDbEntity
  8
0
100
AcDbLine
 10
734.9999554241244
 20
1600.499999999607
 30
0.0
 11
734.9999554241244
 21
1621.243557214409
 31
0.0
  0
LINE
  5
48D9
330
5431
100
AcDbEntity
  8
0
100
AcDbLine
 10
735.3107783180247
 20
1623.717389667408
 30
0.0
 11
740.9999554248241
 21
1646.000000000009
 31
0.0
  0
ARC
  5
48DA
330
5431
100
AcDbEntity
  8
0
100
AcDbCircle
 10
741.9999554248238
 20
1647.000000000008
 30
0.0
 40
1.0
100
AcDbArc
 50
90.0
 51
180.0
  0
LINE
  5
48DB
330
5431
100
AcDbEntity
  8
0
100
AcDbLine
 10
740.9999554248241
 20
1646.000000000009
 30
0.0
 11
740.9999554248241
 21
1647.000000000008
 31
0.0
  0
LINE
  5
48DC
330
5431
100
AcDbEntity
  8
0
100
AcDbLine
 10
769.9999554235239
 20
1600.499999999607
 30
0.0
 11
734.9999554241244
 21
1600.499999999607
 31
0.0
  0
LINE
  5
48DD
330
5431
100
AcDbEntity
  8
0
100
AcDbLine
 10
769.9999554235239
 20
1598.499999999608
 30
0.0
 11
734.9999554241244
 21
1598.499999999608
 31
0.0
  0
LINE
  5
48DE
330
5431
100
AcDbEntity
  8
0
100
AcDbLine
 10
769.9999554235239
 20
1590.499999999608
 30
0.0
 11
734.9999554241244
 21
1590.499999999608
 31
0.0
  0
LINE
  5
48DF
330
5431
100
AcDbEntity
  8
0
100
AcDbLine
 10
769.9999554235239
 20
1648.000000000008
 30
0.0
 11
741.9999554248238
 21
1648.000000000008
 31
0.0
  0
LINE
  5
48E0
330
5431
100
AcDbEntity
  8
0
100
AcDbLine
 10
739.9999554231404
 20
1560.999999999999
 30
0.0
 11
769.9999554235239
 21
1560.999999999999
 31
0.0
  0
LINE
  5
48E1
330
5431
100
AcDbEntity
  8
0
100
AcDbLine
 10
739.9999554231404
 20
1560.999999999999
 30
0.0
 11
739.9999554231404
 21
1573.999999999999
 31
0.0
  0
LINE
  5
48E3
330
5431
100
AcDbEntity
  8
0
100
AcDbLine
 10
740.9999554235239
 20
1573.999999999999
 30
0.0
 11
740.9999554235239
 21
1590.500000000147
 31
0.0
  0
LINE
  5
48E4
330
5431
100
AcDbEntity
  8
0
100
AcDbLine
 10
739.9999554231404
 20
1573.999999999999
 30
0.0
 11
739.9999554231404
 21
1571.999999999999
 31
0.0
  0
LINE
  5
48E5
330
5431
100
AcDbEntity
  8
0
100
AcDbLine
 10
739.9999554231404
 20
1573.999999999999
 30
0.0
 11
769.9999554235239
 21
1573.999999999999
 31
0.0
  0
LINE
  5
48E6
330
5431
100
AcDbEntity
  8
0
100
AcDbLine
 10
769.9999554235239
 20
1590.500000000147
 30
0.0
 11
740.9999554235239
 21
1590.500000000147
 31
0.0
  0
LINE
  5
48E7
330
5431
100
AcDbEntity
  8
0
100
AcDbLine
 10
752.9999554235239
 20
1649.0
 30
0.0
 11
752.9999554235239
 21
1648.000000000008
 31
0.0
  0
LINE
  5
48E8
330
5431
100
AcDbEntity
  8
0
100
AcDbLine
 10
752.9999554235239
 20
1649.0
 30
0.0
 11
769.9999554235239
 21
1649.0
 31
0.0
  0
ARC
  5
48E9
330
5431
100
AcDbEntity
  8
0
100
AcDbCircle
 10
1334.999955422924
 20
1599.499999999608
 30
0.0
 40
1.0
100
AcDbArc
 50
270.0
 51
90.0
  0
ARC
  5
48EA
330
5431
100
AcDbEntity
  8
0
100
AcDbCircle
 10
1324.999955422924
 20
1621.243557214409
 30
0.0
 40
10.0
100
AcDbArc
 50
0.0
 51
14.32271997981884
  0
LINE
  5
48EB
330
5431
100
AcDbEntity
  8
0
100
AcDbLine
 10
1334.999955422924
 20
1590.499999999608
 30
0.0
 11
1334.999955422924
 21
1598.499999999608
 31
0.0
  0
LINE
  5
48EC
330
5431
100
AcDbEntity
  8
0
100
AcDbLine
 10
1334.999955422924
 20
1600.499999999607
 30
0.0
 11
1334.999955422924
 21
1621.243557214409
 31
0.0
  0
LINE
  5
48ED
330
5431
100
AcDbEntity
  8
0
100
AcDbLine
 10
1334.689132529024
 20
1623.717389667408
 30
0.0
 11
1328.999955422224
 21
1646.000000000009
 31
0.0
  0
ARC
  5
48EE
330
5431
100
AcDbEntity
  8
0
100
AcDbCircle
 10
1327.999955422224
 20
1647.000000000008
 30
0.0
 40
1.0
100
AcDbArc
 50
0.0
 51
90.0
  0
LINE
  5
48EF
330
5431
100
AcDbEntity
  8
0
100
AcDbLine
 10
1328.999955422224
 20
1646.000000000009
 30
0.0
 11
1328.999955422224
 21
1647.000000000008
 31
0.0
  0
LINE
  5
48F0
330
5431
100
AcDbEntity
  8
0
100
AcDbLine
 10
1299.999955423524
 20
1600.499999999607
 30
0.0
 11
1334.999955422924
 21
1600.499999999607
 31
0.0
  0
LINE
  5
48F1
330
5431
100
AcDbEntity
  8
0
100
AcDbLine
 10
1299.999955423524
 20
1598.499999999608
 30
0.0
 11
1334.999955422924
 21
1598.499999999608
 31
0.0
  0
LINE
  5
48F2
330
5431
100
AcDbEntity
  8
0
100
AcDbLine
 10
1299.999955423524
 20
1590.499999999608
 30
0.0
 11
1334.999955422924
 21
1590.499999999608
 31
0.0
  0
LINE
  5
48F3
330
5431
100
AcDbEntity
  8
0
100
AcDbLine
 10
1299.999955423524
 20
1648.000000000008
 30
0.0
 11
1327.999955422224
 21
1648.000000000008
 31
0.0
  0
LINE
  5
48F4
330
5431
100
AcDbEntity
  8
0
100
AcDbLine
 10
1329.999955423908
 20
1560.999999999999
 30
0.0
 11
1299.999955423524
 21
1560.999999999999
 31
0.0
  0
LINE
  5
48F5
330
5431
100
AcDbEntity
  8
0
100
AcDbLine
 10
1329.999955423908
 20
1560.999999999999
 30
0.0
 11
1329.999955423908
 21
1573.999999999999
 31
0.0
  0
LINE
  5
48F7
330
5431
100
AcDbEntity
  8
0
100
AcDbLine
 10
1328.999955423524
 20
1573.999999999998
 30
0.0
 11
1328.999955423524
 21
1590.500000000147
 31
0.0
  0
LINE
  5
48F8
330
5431
100
AcDbEntity
  8
0
100
AcDbLine
 10
1329.999955423908
 20
1573.999999999999
 30
0.0
 11
1329.999955423908
 21
1571.999999999999
 31
0.0
  0
LINE
  5
48F9
330
5431
100
AcDbEntity
  8
0
100
AcDbLine
 10
1329.999955423908
 20
1573.999999999999
 30
0.0
 11
1299.999955423524
 21
1573.999999999999
 31
0.0
  0
LINE
  5
48FA
330
5431
100
AcDbEntity
  8
0
100
AcDbLine
 10
1299.999955423524
 20
1590.500000000147
 30
0.0
 11
1328.999955423524
 21
1590.500000000147
 31
0.0
  0
LINE
  5
48FB
330
5431
100
AcDbEntity
  8
0
100
AcDbLine
 10
1316.999955423524
 20
1649.0
 30
0.0
 11
1316.999955423524
 21
1648.000000000008
 31
0.0
  0
LINE
  5
48FC
330
5431
100
AcDbEntity
  8
0
100
AcDbLine
 10
1316.999955423524
 20
1649.0
 30
0.0
 11
1299.999955423524
 21
1649.0
 31
0.0
  0
ARC
  5
48FD
330
5431
100
AcDbEntity
  8
0
100
AcDbCircle
 10
1264.999955424125
 20
1599.499999999608
 30
0.0
 40
1.0
100
AcDbArc
 50
90.0
 51
270.0
  0
ARC
  5
48FE
330
5431
100
AcDbEntity
  8
0
100
AcDbCircle
 10
1274.999955424125
 20
1621.243557214409
 30
0.0
 40
10.0
100
AcDbArc
 50
165.6772800201811
 51
180.0
  0
LINE
  5
48FF
330
5431
100
AcDbEntity
  8
0
100
AcDbLine
 10
1264.999955424125
 20
1590.499999999608
 30
0.0
 11
1264.999955424125
 21
1598.499999999608
 31
0.0
  0
LINE
  5
4900
330
5431
100
AcDbEntity
  8
0
100
AcDbLine
 10
1264.999955424125
 20
1600.499999999607
 30
0.0
 11
1264.999955424125
 21
1621.243557214409
 31
0.0
  0
LINE
  5
4901
330
5431
100
AcDbEntity
  8
0
100
AcDbLine
 10
1265.310778318024
 20
1623.717389667408
 30
0.0
 11
1270.999955424824
 21
1646.000000000009
 31
0.0
  0
ARC
  5
4902
330
5431
100
AcDbEntity
  8
0
100
AcDbCircle
 10
1271.999955424824
 20
1647.000000000008
 30
0.0
 40
1.0
100
AcDbArc
 50
90.0
 51
180.0
  0
LINE
  5
4903
330
5431
100
AcDbEntity
  8
0
100
AcDbLine
 10
1270.999955424824
 20
1646.000000000009
 30
0.0
 11
1270.999955424824
 21
1647.000000000008
 31
0.0
  0
LINE
  5
4904
330
5431
100
AcDbEntity
  8
0
100
AcDbLine
 10
1299.999955423524
 20
1600.499999999607
 30
0.0
 11
1264.999955424125
 21
1600.499999999607
 31
0.0
  0
LINE
  5
4905
330
5431
100
AcDbEntity
  8
0
100
AcDbLine
 10
1299.999955423524
 20
1598.499999999608
 30
0.0
 11
1264.999955424125
 21
1598.499999999608
 31
0.0
  0
LINE
  5
4906
330
5431
100
AcDbEntity
  8
0
100
AcDbLine
 10
1299.999955423524
 20
1590.499999999608
 30
0.0
 11
1264.999955424125
 21
1590.499999999608
 31
0.0
  0
LINE
  5
4907
330
5431
100
AcDbEntity
  8
0
100
AcDbLine
 10
1299.999955423524
 20
1648.000000000008
 30
0.0
 11
1271.999955424824
 21
1648.000000000008
 31
0.0
  0
LINE
  5
4908
330
5431
100
AcDbEntity
  8
0
100
AcDbLine
 10
1269.99995542314
 20
1560.999999999999
 30
0.0
 11
1299.999955423524
 21
1560.999999999999
 31
0.0
  0
LINE
  5
4909
330
5431
100
AcDbEntity
  8
0
100
AcDbLine
 10
1269.99995542314
 20
1560.999999999999
 30
0.0
 11
1269.99995542314
 21
1573.999999999999
 31
0.0
  0
LINE
  5
490B
330
5431
100
AcDbEntity
  8
0
100
AcDbLine
 10
1270.999955423524
 20
1573.999999999999
 30
0.0
 11
1270.999955423524
 21
1590.500000000147
 31
0.0
  0
LINE
  5
490C
330
5431
100
AcDbEntity
  8
0
100
AcDbLine
 10
1269.99995542314
 20
1573.999999999999
 30
0.0
 11
1269.99995542314
 21
1571.999999999999
 31
0.0
  0
LINE
  5
490D
330
5431
100
AcDbEntity
  8
0
100
AcDbLine
 10
1269.99995542314
 20
1573.999999999999
 30
0.0
 11
1299.999955423524
 21
1573.999999999999
 31
0.0
  0
LINE
  5
490E
330
5431
100
AcDbEntity
  8
0
100
AcDbLine
 10
1299.999955423524
 20
1590.500000000147
 30
0.0
 11
1270.999955423524
 21
1590.500000000147
 31
0.0
  0
LINE
  5
490F
330
5431
100
AcDbEntity
  8
0
100
AcDbLine
 10
1282.999955423524
 20
1649.0
 30
0.0
 11
1282.999955423524
 21
1648.000000000008
 31
0.0
  0
LINE
  5
4910
330
5431
100
AcDbEntity
  8
0
100
AcDbLine
 10
1282.999955423524
 20
1649.0
 30
0.0
 11
1299.999955423524
 21
1649.0
 31
0.0
  0
LINE
  5
4911
330
5431
100
AcDbEntity
  8
0
100
AcDbLine
 10
799.9999554239081
 20
1571.999999999999
 30
0.0
 11
1073.011085968566
 21
1571.999999999999
 31
0.0
  0
LINE
  5
4912
330
5431
100
AcDbEntity
  8
0
100
AcDbLine
 10
799.9999554239081
 20
1571.999999999999
 30
0.0
 11
1269.99995542314
 21
1571.999999999999
 31
0.0
  0
LINE
  5
4913
330
5431
100
AcDbEntity
  8
0
100
AcDbLine
 10
1329.999955423908
 20
1571.999999999999
 30
0.0
 11
1366.32067995239
 21
1571.999999999999
 31
0.0
  0
LINE
  5
4914
330
5431
100
AcDbEntity
  8
0
100
AcDbLine
 10
1229.883402611331
 20
1918.129981214576
 30
0.0
 11
1298.757282862682
 21
1918.129981214576
 31
0.0
  0
LINE
  5
4915
330
5431
100
AcDbEntity
  8
0
100
AcDbLine
 10
1229.883402611331
 20
1938.129981214576
 30
0.0
 11
1298.757282862682
 21
1938.129981214576
 31
0.0
  0
LINE
  5
4916
330
5431
100
AcDbEntity
  8
0
100
AcDbLine
 10
1229.883402611331
 20
1938.129981214576
 30
0.0
 11
1229.883402611331
 21
1918.129981214576
 31
0.0
  0
LINE
  5
4917
330
5431
100
AcDbEntity
  8
0
100
AcDbLine
 10
1298.757282862682
 20
1938.129981214576
 30
0.0
 11
1298.757282862682
 21
1918.129981214576
 31
0.0
  0
LINE
  5
4C9C
330
5431
100
AcDbEntity
  8
0
100
AcDbLine
 10
80.0
 20
2808.0
 30
0.0
 11
1880.0
 21
2808.0
 31
0.0
  0
LINE
  5
4C9E
330
5431
100
AcDbEntity
  8
0
100
AcDbLine
 10
80.0
 20
2808.0
 30
0.0
 11
80.0
 21
-0.0000000000000089
 31
0.0
  0
LINE
  5
4D6D
330
5431
100
AcDbEntity
  8
0
100
AcDbLine
 10
1880.0
 20
2808.0
 30
0.0
 11
1880.0
 21
-0.000000000000453
 31
0.0
  0
LINE
  5
4D79
330
5431
100
AcDbEntity
  8
0
100
AcDbLine
 10
80.0
 20
0.0
 30
0.0
 11
1880.0
 21
0.0
 31
0.0
  0
LINE
  5
4D7A
330
5431
100
AcDbEntity
  8
0
100
AcDbLine
 10
80.0
 20
0.0
 30
0.0
 11
1880.0
 21
0.0
 31
0.0
  0
LINE
  5
4F05
330
5431
100
AcDbEntity
  8
0
100
AcDbLine
 10
592.0641859485519
 20
684.7630370407721
 30
0.0
 11
183.3171661603773
 21
684.7630370407726
 31
0.0
  0
LINE
  5
4F06
330
5431
100
AcDbEntity
  8
0
100
AcDbLine
 10
592.0641859485519
 20
1094.763103074452
 30
0.0
 11
183.3171661603774
 21
1094.763103074452
 31
0.0
  0
LINE
  5
4F07
330
5431
100
AcDbEntity
  8
0
100
AcDbLine
 10
201.3171661603773
 20
704.7630370407721
 30
0.0
 11
201.3171661603774
 21
1074.763103074452
 31
0.0
  0
LINE
  5
4F0B
330
5431
100
AcDbEntity
  8
0
100
AcDbLine
 10
1184.999963880076
 20
1117.698815061514
 30
0.0
 11
1184.999963880076
 21
1208.402375075308
 31
0.0
  0
LINE
  5
4F0C
330
5431
100
AcDbEntity
  8
0
100
AcDbLine
 10
614.999963880076
 20
1117.698815061514
 30
0.0
 11
614.999963880076
 21
1208.402375075308
 31
0.0
  0
LINE
  5
4F0D
330
5431
100
AcDbEntity
  8
0
100
AcDbLine
 10
1164.999963880076
 20
1190.402375075308
 30
0.0
 11
634.9999638800762
 21
1190.402375075308
 31
0.0
  0
LINE
  5
4F13
330
5431
100
AcDbEntity
  8
0
100
AcDbLine
 10
617.5989805623397
 20
664.2212790913178
 30
0.0
 11
614.999963880076
 21
684.7630370407721
 31
0.0
  0
LINE
  5
4F14
330
5431
100
AcDbEntity
  8
0
100
AcDbLine
 10
614.999963880076
 20
684.7630370407721
 30
0.0
 11
627.5216572516947
 21
668.2728611024804
 31
0.0
  0
LINE
  5
4F15
330
5431
100
AcDbEntity
  8
0
100
AcDbLine
 10
614.999963880076
 20
684.7630370407721
 30
0.0
 11
622.560318907017
 21
666.2470700968987
 31
0.0
  0
LINE
  5
4F16
330
5431
100
AcDbEntity
  8
0
100
AcDbLine
 10
1240.918608890497
 20
1903.612279330873
 30
0.0
 11
1251.138813279105
 21
1921.619670303021
 31
0.0
  0
LINE
  5
4F17
330
5431
100
AcDbEntity
  8
0
100
AcDbLine
 10
1251.138813279105
 20
1921.619670303021
 30
0.0
 11
1251.291552038846
 21
1900.914710070264
 31
0.0
  0
LINE
  5
4F18
330
5431
100
AcDbEntity
  8
0
100
AcDbLine
 10
1251.138813279105
 20
1921.619670303021
 30
0.0
 11
1246.10508046467
 21
1902.263494700569
 31
0.0
  0
LINE
  5
4F19
330
5431
100
AcDbEntity
  8
0
100
AcDbLine
 10
349.0000000000003
 20
1571.999999999998
 30
0.0
 11
231.9999554235244
 21
1571.999999999998
 31
0.0
  0
LINE
  5
4F1A
330
5431
100
AcDbEntity
  8
0
100
AcDbLine
 10
248.9999554235243
 20
1541.999999999999
 30
0.0
 11
231.9999554235244
 21
1541.999999999999
 31
0.0
  0
LINE
  5
4F1B
330
5431
100
AcDbEntity
  8
0
100
AcDbLine
 10
249.9999554235244
 20
1571.999999999998
 30
0.0
 11
249.9999554235244
 21
1541.999999999999
 31
0.0
  0
LINE
  5
4F1F
330
5431
100
AcDbEntity
  8
0
100
AcDbLine
 10
349.0000000000003
 20
1649.0
 30
0.0
 11
231.9999554235244
 21
1649.0
 31
0.0
  0
LINE
  5
4F20
330
5431
100
AcDbEntity
  8
0
100
AcDbLine
 10
248.9999554235244
 20
1679.0
 30
0.0
 11
231.9999554235244
 21
1679.0
 31
0.0
  0
LINE
  5
4F21
330
5431
100
AcDbEntity
  8
0
100
AcDbLine
 10
249.9999554235244
 20
1649.0
 30
0.0
 11
249.9999554235244
 21
1679.0
 31
0.0
  0
LINE
  5
4F22
330
5431
100
AcDbEntity
  8
0
100
AcDbLine
 10
249.9999554235244
 20
1679.0
 30
0.0
 11
249.9999554235244
 21
1736.5
 31
0.0
  0
LINE
  5
4F26
330
5431
100
AcDbEntity
  8
0
100
AcDbLine
 10
349.0000000000003
 20
1679.0
 30
0.0
 11
131.9999554235242
 21
1679.0
 31
0.0
  0
LINE
  5
4F27
330
5431
100
AcDbEntity
  8
0
100
AcDbLine
 10
349.0000000000003
 20
1541.999999999999
 30
0.0
 11
131.9999554235242
 21
1541.999999999999
 31
0.0
  0
LINE
  5
4F28
330
5431
100
AcDbEntity
  8
0
100
AcDbLine
 10
149.9999554235242
 20
1659.0
 30
0.0
 11
149.9999554235242
 21
1561.999999999999
 31
0.0
  0
LINE
  5
4F32
330
5431
100
AcDbEntity
  8
0
100
AcDbLine
 10
372.9999791759801
 20
2373.456
 30
0.0
 11
131.9999554235244
 21
2373.456
 31
0.0
  0
LINE
  5
4F33
330
5431
100
AcDbEntity
  8
0
100
AcDbLine
 10
372.4999791759795
 20
1903.456164039523
 30
0.0
 11
131.9999554235243
 21
1903.456164039523
 31
0.0
  0
LINE
  5
4F34
330
5431
100
AcDbEntity
  8
0
100
AcDbLine
 10
149.9999554235244
 20
2353.456000000001
 30
0.0
 11
149.9999554235243
 21
1923.456164039523
 31
0.0
  0
LINE
  5
4F38
330
5431
100
AcDbEntity
  8
0
100
AcDbLine
 10
1449.99997629755
 20
2350.955911358386
 30
0.0
 11
1449.99997629755
 21
2591.455949101932
 31
0.0
  0
LINE
  5
4F39
330
5431
100
AcDbEntity
  8
0
100
AcDbLine
 10
350.0000000000003
 20
2350.95600000001
 30
0.0
 11
350.0000000000003
 21
2591.455949101932
 31
0.0
  0
LINE
  5
4F3A
330
5431
100
AcDbEntity
  8
0
100
AcDbLine
 10
1429.99997629755
 20
2573.455949101932
 30
0.0
 11
370.0000000000001
 21
2573.455949101932
 31
0.0
  0
CIRCLE
  5
4F3E
330
5431
100
AcDbEntity
  8
0
100
AcDbCircle
 10
1417.99997629755
 20
2341.45595292228
 30
0.0
 40
12.0000000000005
  0
CIRCLE
  5
4F40
330
5431
100
AcDbEntity
  8
0
100
AcDbCircle
 10
1417.99997629755
 20
1935.456033834
 30
0.0
 40
12.0000000000005
  0
CIRCLE
  5
4F42
330
5431
100
AcDbEntity
  8
0
100
AcDbCircle
 10
382.0000000000001
 20
2341.456041563903
 30
0.0
 40
12.0000000000005
  0
CIRCLE
  5
4F44
330
5431
100
AcDbEntity
  8
0
100
AcDbCircle
 10
382.0000000000001
 20
1935.456122475622
 30
0.0
 40
12.0000000000005
  0
TEXT
  5
4F46
330
5431
100
AcDbEntity
  8
0
100
AcDbText
 10
671.3871266602033
 20
602.1910208239151
 30
0.0
 40
25.0
  1
4-∅20
100
AcDbText
  0
LINE
  5
4F47
330
5431
100
AcDbEntity
  8
0
100
AcDbLine
 10
388.9282032302757
 20
1947.456122475622
 30
0.0
 11
395.8564064605512
 21
1935.456122475622
 31
0.0
  0
LINE
  5
4F48
330
5431
100
AcDbEntity
  8
0
100
AcDbLine
 10
395.8564064605512
 20
1935.456122475622
 30
0.0
 11
388.9282032302757
 21
1923.456122475622
 31
0.0
  0
LINE
  5
4F49
330
5431
100
AcDbEntity
  8
0
100
AcDbLine
 10
388.9282032302757
 20
1923.456122475622
 30
0.0
 11
375.0717967697247
 21
1923.456122475622
 31
0.0
  0
LINE
  5
4F4A
330
5431
100
AcDbEntity
  8
0
100
AcDbLine
 10
375.0717967697247
 20
1923.456122475622
 30
0.0
 11
368.1435935394492
 21
1935.456122475622
 31
0.0
  0
LINE
  5
4F4B
330
5431
100
AcDbEntity
  8
0
100
AcDbLine
 10
368.1435935394492
 20
1935.456122475622
 30
0.0
 11
375.0717967697247
 21
1947.456122475622
 31
0.0
  0
LINE
  5
4F4C
330
5431
100
AcDbEntity
  8
0
100
AcDbLine
 10
375.0717967697247
 20
1947.456122475622
 30
0.0
 11
388.9282032302757
 21
1947.456122475622
 31
0.0
  0
LINE
  5
4F4D
330
5431
100
AcDbEntity
  8
0
100
AcDbLine
 10
1411.071773067275
 20
2329.45595292228
 30
0.0
 11
1404.143569836999
 21
2341.45595292228
 31
0.0
  0
LINE
  5
4F4E
330
5431
100
AcDbEntity
  8
0
100
AcDbLine
 10
1404.143569836999
 20
2341.45595292228
 30
0.0
 11
1411.071773067275
 21
2353.45595292228
 31
0.0
  0
LINE
  5
4F4F
330
5431
100
AcDbEntity
  8
0
100
AcDbLine
 10
1411.071773067275
 20
2353.45595292228
 30
0.0
 11
1424.928179527826
 21
2353.45595292228
 31
0.0
  0
LINE
  5
4F50
330
5431
100
AcDbEntity
  8
0
100
AcDbLine
 10
1424.928179527826
 20
2353.45595292228
 30
0.0
 11
1431.856382758101
 21
2341.45595292228
 31
0.0
  0
LINE
  5
4F51
330
5431
100
AcDbEntity
  8
0
100
AcDbLine
 10
1431.856382758101
 20
2341.45595292228
 30
0.0
 11
1424.928179527826
 21
2329.45595292228
 31
0.0
  0
LINE
  5
4F52
330
5431
100
AcDbEntity
  8
0
100
AcDbLine
 10
1424.928179527826
 20
2329.45595292228
 30
0.0
 11
1411.071773067275
 21
2329.45595292228
 31
0.0
  0
TEXT
  5
4F53
330
5431
100
AcDbEntity
  8
0
100
AcDbText
 10
188.8171661603772
 20
862.6797367242785
 30
0.0
 40
25.0
  1
410
 50
90.0
100
AcDbText
  0
LINE
  5
4F54
330
5431
100
AcDbEntity
  8
0
100
AcDbLine
 10
201.3171661603774
 20
1094.763103074452
 30
0.0
 11
206.6761500089995
 21
1074.763103074452
 31
0.0
  0
LINE
  5
4F55
330
5431
100
AcDbEntity
  8
0
100
AcDbLine
 10
201.3171661603774
 20
1094.763103074452
 30
0.0
 11
195.9581823117552
 21
1074.763103074452
 31
0.0
  0
LINE
  5
4F56
330
5431
100
AcDbEntity
  8
0
100
AcDbLine
 10
201.3171661603774
 20
1074.763103074452
 30
0.0
 11
201.3171661603774
 21
1094.763103074452
 31
0.0
  0
LINE
  5
4F57
330
5431
100
AcDbEntity
  8
0
100
AcDbLine
 10
201.3171661603773
 20
684.7630370407726
 30
0.0
 11
195.9581823117551
 21
704.7630370407721
 31
0.0
  0
LINE
  5
4F58
330
5431
100
AcDbEntity
  8
0
100
AcDbLine
 10
201.3171661603773
 20
684.7630370407726
 30
0.0
 11
206.6761500089994
 21
704.7630370407721
 31
0.0
  0
LINE
  5
4F59
330
5431
100
AcDbEntity
  8
0
100
AcDbLine
 10
201.3171661603773
 20
704.7630370407721
 30
0.0
 11
201.3171661603773
 21
684.7630370407726
 31
0.0
  0
TEXT
  5
4F5A
330
5431
100
AcDbEntity
  8
0
100
AcDbText
 10
868.7499638800762
 20
1202.902375075308
 30
0.0
 40
25.0
  1
570
100
AcDbText
  0
LINE
  5
4F5B
330
5431
100
AcDbEntity
  8
0
100
AcDbLine
 10
614.999963880076
 20
1190.402375075308
 30
0.0
 11
634.9999638800762
 21
1195.761358923929
 31
0.0
  0
LINE
  5
4F5C
330
5431
100
AcDbEntity
  8
0
100
AcDbLine
 10
614.999963880076
 20
1190.402375075308
 30
0.0
 11
634.9999638800762
 21
1185.043391226686
 31
0.0
  0
LINE
  5
4F5D
330
5431
100
AcDbEntity
  8
0
100
AcDbLine
 10
634.9999638800762
 20
1190.402375075308
 30
0.0
 11
614.999963880076
 21
1190.402375075308
 31
0.0
  0
LINE
  5
4F5E
330
5431
100
AcDbEntity
  8
0
100
AcDbLine
 10
1184.999963880076
 20
1190.402375075308
 30
0.0
 11
1164.999963880076
 21
1185.043391226686
 31
0.0
  0
LINE
  5
4F5F
330
5431
100
AcDbEntity
  8
0
100
AcDbLine
 10
1184.999963880076
 20
1190.402375075308
 30
0.0
 11
1164.999963880076
 21
1195.761358923929
 31
0.0
  0
LINE
  5
4F60
330
5431
100
AcDbEntity
  8
0
100
AcDbLine
 10
1164.999963880076
 20
1190.402375075308
 30
0.0
 11
1184.999963880076
 21
1190.402375075308
 31
0.0
  0
LINE
  5
4F61
330
5431
100
AcDbEntity
  8
0
100
AcDbLine
 10
626.4710213290112
 20
2364.839391342144
 30
0.0
 11
702.520598573816
 21
2473.455973998448
 31
0.0
1001
ACAD
1000
DSTYLE
1002
{
1070
   147
1040
1.5
1070
    77
1070
     0
1002
}
  0
LINE
  5
4F62
330
5431
100
AcDbEntity
  8
0
100
AcDbLine
 10
630.860930696078
 20
2361.765728524332
 30
0.0
 11
614.9999554235241
 21
2348.456026394979
 31
0.0
  0
LINE
  5
4F63
330
5431
100
AcDbEntity
  8
0
100
AcDbLine
 10
614.9999554235241
 20
2348.456026394979
 30
0.0
 11
622.0811119619439
 21
2367.913054159956
 31
0.0
  0
LINE
  5
4F64
330
5431
100
AcDbEntity
  8
0
100
AcDbLine
 10
614.9999554235241
 20
2348.456026394979
 30
0.0
 11
626.4710213290112
 21
2364.839391342144
 31
0.0
  0
TEXT
  5
4F67
330
5431
100
AcDbEntity
  8
0
100
AcDbText
 10
237.8359159768387
 20
1487.584516102295
 30
0.0
 40
25.0
  1
30
 50
90.0
100
AcDbText
  0
TEXT
  5
4F68
330
5431
100
AcDbEntity
  8
0
100
AcDbText
 10
237.4999554235242
 20
1699.0
 30
0.0
 40
25.0
  1
30
 50
90.0
100
AcDbText
  0
LINE
  5
4F6B
330
5431
100
AcDbEntity
  8
0
100
AcDbLine
 10
149.9999554235242
 20
1541.999999999999
 30
0.0
 11
144.640971574902
 21
1561.999999999999
 31
0.0
  0
LINE
  5
4F6C
330
5431
100
AcDbEntity
  8
0
100
AcDbLine
 10
149.9999554235242
 20
1541.999999999999
 30
0.0
 11
155.3589392721463
 21
1561.999999999999
 31
0.0
  0
LINE
  5
4F6D
330
5431
100
AcDbEntity
  8
0
100
AcDbLine
 10
149.9999554235242
 20
1561.999999999999
 30
0.0
 11
149.9999554235242
 21
1541.999999999999
 31
0.0
  0
LINE
  5
4F6E
330
5431
100
AcDbEntity
  8
0
100
AcDbLine
 10
149.9999554235242
 20
1679.0
 30
0.0
 11
155.3589392721463
 21
1659.0
 31
0.0
  0
LINE
  5
4F6F
330
5431
100
AcDbEntity
  8
0
100
AcDbLine
 10
149.9999554235242
 20
1679.0
 30
0.0
 11
144.6409715749022
 21
1659.0
 31
0.0
  0
LINE
  5
4F70
330
5431
100
AcDbEntity
  8
0
100
AcDbLine
 10
149.9999554235242
 20
1659.0
 30
0.0
 11
149.9999554235242
 21
1679.0
 31
0.0
  0
TEXT
  5
4F71
330
5431
100
AcDbEntity
  8
0
100
AcDbText
 10
131.999955423524
 20
1508.595238095238
 30
0.0
 40
25.0
  1
据付時約 137
 50
90.0
100
AcDbText
  0
TEXT
  5
4F79
330
5431
100
AcDbEntity
  8
0
100
AcDbText
 10
137.499955423524
 20
2107.206082019762
 30
0.0
 40
25.0
  1
470
 50
90.0
100
AcDbText
  0
LINE
  5
4F7A
330
5431
100
AcDbEntity
  8
0
100
AcDbLine
 10
149.9999554235243
 20
1903.456164039523
 30
0.0
 11
144.6409715749022
 21
1923.456164039523
 31
0.0
  0
LINE
  5
4F7B
330
5431
100
AcDbEntity
  8
0
100
AcDbLine
 10
149.9999554235243
 20
1903.456164039523
 30
0.0
 11
155.3589392721464
 21
1923.456164039523
 31
0.0
  0
LINE
  5
4F7C
330
5431
100
AcDbEntity
  8
0
100
AcDbLine
 10
149.9999554235243
 20
1923.456164039523
 30
0.0
 11
149.9999554235243
 21
1903.456164039523
 31
0.0
  0
LINE
  5
4F7D
330
5431
100
AcDbEntity
  8
0
100
AcDbLine
 10
149.9999554235244
 20
2373.456
 30
0.0
 11
155.3589392721464
 21
2353.456000000001
 31
0.0
  0
LINE
  5
4F7E
330
5431
100
AcDbEntity
  8
0
100
AcDbLine
 10
149.9999554235244
 20
2373.456
 30
0.0
 11
144.6409715749024
 21
2353.456000000001
 31
0.0
  0
LINE
  5
4F7F
330
5431
100
AcDbEntity
  8
0
100
AcDbLine
 10
149.9999554235244
 20
2353.456000000001
 30
0.0
 11
149.9999554235244
 21
2373.456
 31
0.0
  0
TEXT
  5
4F80
330
5431
100
AcDbEntity
  8
0
100
AcDbText
 10
866.6666548154417
 20
2585.955949101932
 30
0.0
 40
25.0
  1
1100
100
AcDbText
  0
LINE
  5
4F81
330
5431
100
AcDbEntity
  8
0
100
AcDbLine
 10
350.0000000000003
 20
2573.455949101932
 30
0.0
 11
370.0000000000001
 21
2578.814932950555
 31
0.0
  0
LINE
  5
4F82
330
5431
100
AcDbEntity
  8
0
100
AcDbLine
 10
350.0000000000003
 20
2573.455949101932
 30
0.0
 11
370.0000000000001
 21
2568.096965253311
 31
0.0
  0
LINE
  5
4F83
330
5431
100
AcDbEntity
  8
0
100
AcDbLine
 10
370.0000000000001
 20
2573.455949101932
 30
0.0
 11
350.0000000000003
 21
2573.455949101932
 31
0.0
  0
LINE
  5
4F84
330
5431
100
AcDbEntity
  8
0
100
AcDbLine
 10
1449.99997629755
 20
2573.455949101932
 30
0.0
 11
1429.99997629755
 21
2568.096965253311
 31
0.0
  0
LINE
  5
4F85
330
5431
100
AcDbEntity
  8
0
100
AcDbLine
 10
1449.99997629755
 20
2573.455949101932
 30
0.0
 11
1429.99997629755
 21
2578.814932950555
 31
0.0
  0
LINE
  5
4F86
330
5431
100
AcDbEntity
  8
0
100
AcDbLine
 10
1429.99997629755
 20
2573.455949101932
 30
0.0
 11
1449.99997629755
 21
2573.455949101932
 31
0.0
  0
LINE
  5
4F87
330
5431
100
AcDbEntity
  8
0
100
AcDbLine
 10
1411.071773067275
 20
1947.456033833999
 30
0.0
 11
1404.143569836999
 21
1935.456033834
 31
0.0
  0
LINE
  5
4F88
330
5431
100
AcDbEntity
  8
0
100
AcDbLine
 10
1404.143569836999
 20
1935.456033834
 30
0.0
 11
1411.071773067275
 21
1923.456033833999
 31
0.0
  0
LINE
  5
4F89
330
5431
100
AcDbEntity
  8
0
100
AcDbLine
 10
1411.071773067275
 20
1923.456033833999
 30
0.0
 11
1424.928179527826
 21
1923.456033833999
 31
0.0
  0
LINE
  5
4F8A
330
5431
100
AcDbEntity
  8
0
100
AcDbLine
 10
1424.928179527826
 20
1923.456033833999
 30
0.0
 11
1431.856382758101
 21
1935.456033834
 31
0.0
  0
LINE
  5
4F8B
330
5431
100
AcDbEntity
  8
0
100
AcDbLine
 10
1431.856382758101
 20
1935.456033834
 30
0.0
 11
1424.928179527826
 21
1947.456033833999
 31
0.0
  0
LINE
  5
4F8C
330
5431
100
AcDbEntity
  8
0
100
AcDbLine
 10
1424.928179527826
 20
1947.456033833999
 30
0.0
 11
1411.071773067275
 21
1947.456033833999
 31
0.0
  0
LINE
  5
4F8D
330
5431
100
AcDbEntity
  8
0
100
AcDbLine
 10
388.9282032302757
 20
2329.456041563902
 30
0.0
 11
395.8564064605512
 21
2341.456041563903
 31
0.0
  0
LINE
  5
4F8E
330
5431
100
AcDbEntity
  8
0
100
AcDbLine
 10
395.8564064605512
 20
2341.456041563903
 30
0.0
 11
388.9282032302757
 21
2353.456041563902
 31
0.0
  0
LINE
  5
4F8F
330
5431
100
AcDbEntity
  8
0
100
AcDbLine
 10
388.9282032302757
 20
2353.456041563902
 30
0.0
 11
375.0717967697247
 21
2353.456041563902
 31
0.0
  0
LINE
  5
4F90
330
5431
100
AcDbEntity
  8
0
100
AcDbLine
 10
375.0717967697247
 20
2353.456041563902
 30
0.0
 11
368.1435935394492
 21
2341.456041563903
 31
0.0
  0
LINE
  5
4F91
330
5431
100
AcDbEntity
  8
0
100
AcDbLine
 10
368.1435935394492
 20
2341.456041563903
 30
0.0
 11
375.0717967697247
 21
2329.456041563902
 31
0.0
  0
LINE
  5
4F92
330
5431
100
AcDbEntity
  8
0
100
AcDbLine
 10
375.0717967697247
 20
2329.456041563902
 30
0.0
 11
388.9282032302757
 21
2329.456041563902
 31
0.0
  0
ARC
  5
4F93
330
5431
100
AcDbEntity
  8
0
100
AcDbCircle
 10
249.9999554235244
 20
1541.999999999999
 30
0.0
 40
1.25
100
AcDbArc
 50
90.0
 51
270.0
  0
ARC
  5
4F94
330
5431
100
AcDbEntity
  8
0
100
AcDbCircle
 10
249.9999554235244
 20
1541.999999999999
 30
0.0
 40
1.25
100
AcDbArc
 50
270.0
 51
90.0
  0
ARC
  5
4F95
330
5431
100
AcDbEntity
  8
0
100
AcDbCircle
 10
249.9999554235244
 20
1571.999999999998
 30
0.0
 40
1.25
100
AcDbArc
 50
270.0
 51
90.0
  0
ARC
  5
4F96
330
5431
100
AcDbEntity
  8
0
100
AcDbCircle
 10
249.9999554235244
 20
1571.999999999998
 30
0.0
 40
1.25
100
AcDbArc
 50
90.0
 51
270.0
  0
ARC
  5
4F97
330
5431
100
AcDbEntity
  8
0
100
AcDbCircle
 10
249.9999554235244
 20
1679.0
 30
0.0
 40
1.25
100
AcDbArc
 50
270.0
 51
90.0
  0
ARC
  5
4F98
330
5431
100
AcDbEntity
  8
0
100
AcDbCircle
 10
249.9999554235244
 20
1679.0
 30
0.0
 40
1.25
100
AcDbArc
 50
90.0
 51
270.0
  0
ARC
  5
4F99
330
5431
100
AcDbEntity
  8
0
100
AcDbCircle
 10
249.9999554235244
 20
1649.0
 30
0.0
 40
1.25
100
AcDbArc
 50
90.0
 51
270.0
  0
ARC
  5
4F9A
330
5431
100
AcDbEntity
  8
0
100
AcDbCircle
 10
249.9999554235244
 20
1649.0
 30
0.0
 40
1.25
100
AcDbArc
 50
270.0
 51
90.0
  0
TEXT
  5
51F3
330
5431
100
AcDbEntity
  8
0
100
AcDbText
 10
377.7292227675844
 20
1438.706542636803
 30
0.0
 40
30.0
  1
※搭載機器や施工状況等によって、据付高さは若干異なる可能性があります。
100
AcDbText
  0
LINE
  5
5566
330
5431
100
AcDbEntity
  8
0
100
AcDbLine
 10
614.999963880076
 20
1126.698881005976
 30
0.0
 11
614.999963880076
 21
1208.402375075308
 31
0.0
  0
LINE
  5
5567
330
5431
100
AcDbEntity
  8
0
100
AcDbLine
 10
349.9999706694226
 20
1134.763121701212
 30
0.0
 11
349.9999706694226
 21
1208.402375075308
 31
0.0
  0
LINE
  5
5568
330
5431
100
AcDbEntity
  8
0
100
AcDbLine
 10
594.999963880076
 20
1190.402375075308
 30
0.0
 11
369.9999706694226
 21
1190.402375075308
 31
0.0
  0
LINE
  5
556C
330
5431
100
AcDbEntity
  8
0
100
AcDbLine
 10
1184.999977458756
 20
1126.698881005976
 30
0.0
 11
1184.999977458756
 21
1208.402375075308
 31
0.0
  0
LINE
  5
556D
330
5431
100
AcDbEntity
  8
0
100
AcDbLine
 10
1449.99997066941
 20
1134.763121701212
 30
0.0
 11
1449.99997066941
 21
1208.402375075308
 31
0.0
  0
LINE
  5
556E
330
5431
100
AcDbEntity
  8
0
100
AcDbLine
 10
1204.999977458757
 20
1190.402375075308
 30
0.0
 11
1429.99997066941
 21
1190.402375075308
 31
0.0
  0
LINE
  5
5572
330
5431
100
AcDbEntity
  8
0
  6
ByBlock
100
AcDbLine
 10
594.999963880076
 20
1195.761358875308
 30
0.0
 11
614.999963880076
 21
1190.402375075308
 31
0.0
  0
LINE
  5
5573
330
5431
100
AcDbEntity
  8
0
  6
ByBlock
100
AcDbLine
 10
614.999963880076
 20
1190.402375075308
 30
0.0
 11
594.999963880076
 21
1185.043391275308
 31
0.0
  0
LINE
  5
5574
330
5431
100
AcDbEntity
  8
0
  6
ByBlock
100
AcDbLine
 10
614.999963880076
 20
1190.402375075308
 30
0.0
 11
594.999963880076
 21
1190.402375075308
 31
0.0
  0
LINE
  5
5575
330
5431
100
AcDbEntity
  8
0
  6
ByBlock
100
AcDbLine
 10
369.9999706694226
 20
1185.043391275308
 30
0.0
 11
349.9999706694226
 21
1190.402375075308
 31
0.0
  0
LINE
  5
5576
330
5431
100
AcDbEntity
  8
0
  6
ByBlock
100
AcDbLine
 10
349.9999706694226
 20
1190.402375075308
 30
0.0
 11
369.9999706694226
 21
1195.761358875308
 31
0.0
  0
LINE
  5
5577
330
5431
100
AcDbEntity
  8
0
  6
ByBlock
100
AcDbLine
 10
349.9999706694226
 20
1190.402375075308
 30
0.0
 11
369.9999706694226
 21
1190.402375075308
 31
0.0
  0
TEXT
  5
5578
330
5431
100
AcDbEntity
  8
0
100
AcDbText
 10
449.166633941416
 20
1205.402375075308
 30
0.0
 40
25.0
  1
265
100
AcDbText
  0
LINE
  5
5579
330
5431
100
AcDbEntity
  8
0
  6
ByBlock
100
AcDbLine
 10
1204.999977458757
 20
1185.043391275308
 30
0.0
 11
1184.999977458756
 21
1190.402375075308
 31
0.0
  0
LINE
  5
557A
330
5431
100
AcDbEntity
  8
0
  6
ByBlock
100
AcDbLine
 10
1184.999977458756
 20
1190.402375075308
 30
0.0
 11
1204.999977458757
 21
1195.761358875308
 31
0.0
  0
LINE
  5
557B
330
5431
100
AcDbEntity
  8
0
  6
ByBlock
100
AcDbLine
 10
1184.999977458756
 20
1190.402375075308
 30
0.0
 11
1204.999977458757
 21
1190.402375075308
 31
0.0
  0
LINE
  5
557C
330
5431
100
AcDbEntity
  8
0
  6
ByBlock
100
AcDbLine
 10
1429.99997066941
 20
1195.761358875308
 30
0.0
 11
1449.99997066941
 21
1190.402375075308
 31
0.0
  0
LINE
  5
557D
330
5431
100
AcDbEntity
  8
0
  6
ByBlock
100
AcDbLine
 10
1449.99997066941
 20
1190.402375075308
 30
0.0
 11
1429.99997066941
 21
1185.043391275308
 31
0.0
  0
LINE
  5
557E
330
5431
100
AcDbEntity
  8
0
  6
ByBlock
100
AcDbLine
 10
1449.99997066941
 20
1190.402375075308
 30
0.0
 11
1429.99997066941
 21
1190.402375075308
 31
0.0
  0
TEXT
  5
557F
330
5431
100
AcDbEntity
  8
0
100
AcDbText
 10
1284.16664073075
 20
1205.402375075308
 30
0.0
 40
25.0
  1
265
100
AcDbText
  0
ENDSEC
  0
SECTION
  2
OBJECTS
  0
DICTIONARY
  5
53CE
330
0
100
AcDbDictionary
281
     1
  3
ACAD_CIP_PREVIOUS_PRODUCT_INFO
350
5491
  3
ACAD_COLOR
350
5424
  3
ACAD_DETAILVIEWSTYLE
350
542B
  3
ACAD_FIELDLIST
350
54D9
  3
ACAD_GROUP
350
53CF
  3
ACAD_LAYOUT
350
5423
  3
ACAD_MATERIAL
350
53D2
  3
ACAD_MLEADERSTYLE
350
5427
  3
ACAD_MLINESTYLE
350
5420
  3
ACAD_PLOTSETTINGS
350
5422
  3
ACAD_PLOTSTYLENAME
350
53D0
  3
ACAD_SCALELIST
350
5404
  3
ACAD_SECTIONVIEWSTYLE
350
5429
  3
ACAD_TABLESTYLE
350
5425
  3
ACAD_VISUALSTYLE
350
53EB
  3
ACDB_RECOMPOSE_DATA
350
5591
  3
AcDbVariableDictionary
350
5584
  3
AcmDictionary
350
54B7
  3
AMG
350
5492
  3
AMGSNAPSETTINGS
350
54EE
  0
DICTIONARY
  5
5580
330
5416
100
AcDbDictionary
280
     1
281
     1
  3
ADSK_XREC_LAYER_RECONCILED
360
5581
  0
DICTIONARY
  5
5582
330
5445
100
AcDbDictionary
280
     1
281
     1
  3
ADSK_XREC_LAYER_RECONCILED
360
5583
  0
DICTIONARY
  5
5564
330
5431
100
AcDbDictionary
280
     1
281
     1
  3
ACAD_SORTENTS
360
5565
  0
XRECORD
  5
5491
102
{ACAD_REACTORS
330
53CE
102
}
330
53CE
100
AcDbXrecord
280
     1
300
AMECH_PP
300
2021
300
87400AMECH_PP_2021_0F
  0
DICTIONARY
  5
5424
102
{ACAD_REACTORS
330
53CE
102
}
330
53CE
100
AcDbDictionary
281
     1
  0
DICTIONARY
  5
542B
102
{ACAD_REACTORS
330
53CE
102
}
330
53CE
100
AcDbDictionary
281
     1
  3
Imperial24
350
542C
  0
FIELDLIST
  5
54D9
102
{ACAD_REACTORS
330
53CE
102
}
330
53CE
100
AcDbIdSet
 90
        8
330
54D7
330
54D8
330
54DA
330
54DB
330
54DF
330
54E0
330
54E1
330
54E2
100
AcDbFieldList
  0
DICTIONARY
  5
53CF
102
{ACAD_REACTORS
330
53CE
102
}
330
53CE
100
AcDbDictionary
281
     1
  0
DICTIONARY
  5
5423
102
{ACAD_REACTORS
330
53CE
102
}
330
53CE
100
AcDbDictionary
281
     1
  3
Model
350
5434
  3
レイアウト1
350
5430
  0
DICTIONARY
  5
53D2
102
{ACAD_REACTORS
330
53CE
102
}
330
53CE
100
AcDbDictionary
281
     1
  3
ByBlock
350
53DB
  3
ByLayer
350
53D3
  3
Global
350
53E3
  0
DICTIONARY
  5
5427
102
{ACAD_REACTORS
330
53CE
102
}
330
53CE
100
AcDbDictionary
281
     1
  3
Standard
350
5428
  0
DICTIONARY
  5
5420
102
{ACAD_REACTORS
330
53CE
102
}
330
53CE
100
AcDbDictionary
281
     1
  3
Standard
350
5421
  0
DICTIONARY
  5
5422
102
{ACAD_REACTORS
330
53CE
102
}
330
53CE
100
AcDbDictionary
281
     1
  0
ACDBDICTIONARYWDFLT
  5
53D0
102
{ACAD_REACTORS
330
53CE
102
}
330
53CE
100
AcDbDictionary
281
     1
  3
Normal
350
53D1
100
AcDbDictionaryWithDefault
340
53D1
  0
DICTIONARY
  5
5404
102
{ACAD_REACTORS
330
53CE
102
}
330
53CE
100
AcDbDictionary
281
     1
  3
A0
350
5405
  3
A1
350
5406
  3
A2
350
5407
  3
A3
350
5408
  3
A4
350
5409
  3
A5
350
540A
  3
A6
350
540B
  3
A7
350
540C
  3
A8
350
540D
  3
A9
350
540E
  3
B0
350
540F
  3
B1
350
5410
  3
B2
350
5411
  3
B3
350
5412
  3
B4
350
5413
  3
B5
350
5414
  3
B6
350
5415
  0
DICTIONARY
  5
5429
102
{ACAD_REACTORS
330
53CE
102
}
330
53CE
100
AcDbDictionary
281
     1
  3
Imperial24
350
542A
  0
DICTIONARY
  5
5425
102
{ACAD_REACTORS
330
53CE
102
}
330
53CE
100
AcDbDictionary
281
     1
  3
Standard
350
5426
  0
DICTIONARY
  5
53EB
102
{ACAD_REACTORS
330
53CE
102
}
330
53CE
100
AcDbDictionary
281
     1
  3
2dWireframe
350
53F1
  3
Basic
350
53F0
  3
Brighten
350
53F7
  3
ColorChange
350
53FB
  3
Conceptual
350
53F4
  3
Dim
350
53F6
  3
EdgeColorOff
350
5403
  3
Facepattern
350
53FA
  3
Flat
350
53EC
  3
FlatWithEdges
350
53ED
  3
Gouraud
350
53EE
  3
GouraudWithEdges
350
53EF
  3
Hidden
350
53F3
  3
JitterOff
350
5401
  3
Linepattern
350
53F9
  3
OverhangOff
350
5402
  3
Realistic
350
53F5
  3
Shaded
350
5400
  3
Shaded with edges
350
53FF
  3
Shades of Gray
350
53FC
  3
Sketchy
350
53FD
  3
Thicken
350
53F8
  3
Wireframe
350
53F2
  3
X-Ray
350
53FE
  0
XRECORD
  5
5591
102
{ACAD_REACTORS
330
53CE
102
}
330
53CE
100
AcDbXrecord
280
     1
 90
        1
330
5426
  0
DICTIONARY
  5
5584
102
{ACAD_REACTORS
330
53CE
102
}
330
53CE
100
AcDbDictionary
281
     1
  3
CANNOSCALE
350
558A
  3
CMLEADERSTYLE
350
5586
  3
CTABLESTYLE
350
5585
  3
CVIEWDETAILSTYLE
350
5587
  3
CVIEWSECTIONSTYLE
350
5588
  3
LAYEREVAL
350
558C
  3
LAYERNOTIFY
350
558D
  3
LIGHTINGUNITS
350
558B
  3
MSLTSCALE
350
5589
  3
XCLIPFRAME
350
558E
  0
DICTIONARY
  5
54B7
102
{ACAD_REACTORS
330
53CE
102
}
330
53CE
100
AcDbDictionary
281
     1
  3
AcmStdDictionary
350
54BE
  0
DICTIONARY
  5
5492
102
{ACAD_REACTORS
330
53CE
102
}
330
53CE
100
AcDbDictionary
281
     1
  0
DICTIONARY
  5
54EE
102
{ACAD_REACTORS
330
53CE
102
}
330
53CE
100
AcDbDictionary
281
     1
  0
XRECORD
  5
5581
102
{ACAD_REACTORS
330
5580
102
}
330
5580
100
AcDbXrecord
280
     1
290
     1
  0
XRECORD
  5
5583
102
{ACAD_REACTORS
330
5582
102
}
330
5582
100
AcDbXrecord
280
     1
290
     1
  0
SORTENTSTABLE
  5
5565
102
{ACAD_REACTORS
330
5564
102
}
330
5564
100
AcDbSortentsTable
330
5431
331
556C
  5
5576
331
556D
  5
5577
331
556E
  5
5578
331
5572
  5
556C
331
5573
  5
556D
331
5574
  5
556E
331
5575
  5
5572
331
5576
  5
5573
331
5577
  5
5574
331
5578
  5
5575
  0
ACDBDETAILVIEWSTYLE
  5
542C
102
{ACAD_XDICTIONARY
360
55C4
102
}
102
{ACAD_REACTORS
330
542B
330
54D3
102
}
330
542B
100
AcDbModelDocViewStyle
 70
     0
  3
Imperial24
290
     0
100
AcDbDetailViewStyle
 70
     0
 71
     0
 90
        3
 71
     1
340
5417
 62
   256
 40
0.24
340
0
 62
   256
 40
0.24
300

 40
0.36
280
     3
 71
     2
340
541E
 90
       25
 62
   256
 71
     3
340
5417
 62
   256
 40
0.24
 90
        1
 40
0.75
 90
        1
300
%<\AcVar ViewType \f "%tc1">% %<\AcVar ViewDetailId>%\PSCALE %<\AcVar ViewScale \f "%sn">%
 71
     4
340
541E
 90
       25
 62
   256
340
541E
 90
       25
 62
   256
280
     0
  0
LAYOUT
  5
5434
102
{ACAD_REACTORS
330
5423
102
}
330
5423
100
AcDbPlotSettings
  1

  2
産機2F_DocuPrint 4050
  4

  6

 40
0.0
 41
0.0
 42
0.0
 43
0.0
 44
0.0
 45
0.0
 46
0.0
 47
0.0
 48
0.0
 49
0.0
140
0.0
141
0.0
142
1.0
143
1.0
 70
  1712
 72
     0
 73
     0
 74
     0
  7

 75
     0
147
1.0
 76
     0
 77
     2
 78
   300
148
0.0
149
0.0
100
AcDbLayout
  1
Model
 70
     1
 71
     0
 10
0.0
 20
0.0
 11
12.0
 21
9.0
 12
0.0
 22
0.0
 32
0.0
 14
0.0
 24
0.0
 34
0.0
 15
0.0
 25
0.0
 35
0.0
146
0.0
 13
0.0
 23
0.0
 33
0.0
 16
1.0
 26
0.0
 36
0.0
 17
0.0
 27
1.0
 37
0.0
 76
     0
330
5431
331
5435
  0
LAYOUT
  5
5430
102
{ACAD_REACTORS
330
5423
102
}
330
5423
100
AcDbPlotSettings
  1

  2
産機2F_DocuPrint 4050
  4

  6

 40
0.0
 41
0.0
 42
0.0
 43
0.0
 44
0.0
 45
0.0
 46
0.0
 47
0.0
 48
0.0
 49
0.0
140
0.0
141
0.0
142
1.0
143
1.0
 70
   688
 72
     0
 73
     0
 74
     5
  7

 75
    16
147
1.0
 76
     0
 77
     2
 78
   300
148
0.0
149
0.0
100
AcDbLayout
  1
レイアウト1
 70
     0
 71
     1
 10
0.0
 20
0.0
 11
12.0
 21
9.0
 12
0.0
 22
0.0
 32
0.0
 14
1.000000000000000E+20
 24
1.000000000000000E+20
 34
1.000000000000000E+20
 15
-1.000000000000000E+20
 25
-1.000000000000000E+20
 35
-1.000000000000000E+20
146
0.0
 13
0.0
 23
0.0
 33
0.0
 16
1.0
 26
0.0
 36
0.0
 17
0.0
 27
1.0
 37
0.0
 76
     0
330
542D
  0
MATERIAL
  5
53DB
102
{ACAD_XDICTIONARY
360
53DC
102
}
102
{ACAD_REACTORS
330
53D2
102
}
330
53D2
100
AcDbMaterial
  1
ByBlock
 72
     0
 43
0.0208333333333333
 43
0.0
 43
0.0
 43
0.0
 43
0.0
 43
0.0208333333333333
 43
0.0
 43
0.0
 43
0.0
 43
0.0
 43
1.0
 43
0.0
 43
0.0
 43
0.0
 43
0.0
 43
1.0
 77
     0
 47
0.0208333333333333
 47
0.0
 47
0.0
 47
0.0
 47
0.0
 47
0.0208333333333333
 47
0.0
 47
0.0
 47
0.0
 47
0.0
 47
1.0
 47
0.0
 47
0.0
 47
0.0
 47
0.0
 47
1.0
171
     0
 49
0.0208333333333333
 49
0.0
 49
0.0
 49
0.0
 49
0.0
 49
0.0208333333333333
 49
0.0
 49
0.0
 49
0.0
 49
0.0
 49
1.0
 49
0.0
 49
0.0
 49
0.0
 49
0.0
 49
1.0
175
     0
142
0.0208333333333333
142
0.0
142
0.0
142
0.0
142
0.0
142
0.0208333333333333
142
0.0
142
0.0
142
0.0
142
0.0
142
1.0
142
0.0
142
0.0
142
0.0
142
0.0
142
1.0
179
     0
144
0.0208333333333333
144
0.0
144
0.0
144
0.0
144
0.0
144
0.0208333333333333
144
0.0
144
0.0
144
0.0
144
0.0
144
1.0
144
0.0
144
0.0
144
0.0
144
0.0
144
1.0
147
0.0208333333333333
147
0.0
147
0.0
147
0.0
147
0.0
147
0.0208333333333333
147
0.0
147
0.0
147
0.0
147
0.0
147
1.0
147
0.0
147
0.0
147
0.0
147
0.0
147
1.0
  0
MATERIAL
  5
53D3
102
{ACAD_XDICTIONARY
360
53D4
102
}
102
{ACAD_REACTORS
330
53D2
102
}
330
53D2
100
AcDbMaterial
  1
ByLayer
 72
     0
 43
0.0208333333333333
 43
0.0
 43
0.0
 43
0.0
 43
0.0
 43
0.0208333333333333
 43
0.0
 43
0.0
 43
0.0
 43
0.0
 43
1.0
 43
0.0
 43
0.0
 43
0.0
 43
0.0
 43
1.0
 77
     0
 47
0.0208333333333333
 47
0.0
 47
0.0
 47
0.0
 47
0.0
 47
0.0208333333333333
 47
0.0
 47
0.0
 47
0.0
 47
0.0
 47
1.0
 47
0.0
 47
0.0
 47
0.0
 47
0.0
 47
1.0
171
     0
 49
0.0208333333333333
 49
0.0
 49
0.0
 49
0.0
 49
0.0
 49
0.0208333333333333
 49
0.0
 49
0.0
 49
0.0
 49
0.0
 49
1.0
 49
0.0
 49
0.0
 49
0.0
 49
0.0
 49
1.0
175
     0
142
0.0208333333333333
142
0.0
142
0.0
142
0.0
142
0.0
142
0.0208333333333333
142
0.0
142
0.0
142
0.0
142
0.0
142
1.0
142
0.0
142
0.0
142
0.0
142
0.0
142
1.0
179
     0
144
0.0208333333333333
144
0.0
144
0.0
144
0.0
144
0.0
144
0.0208333333333333
144
0.0
144
0.0
144
0.0
144
0.0
144
1.0
144
0.0
144
0.0
144
0.0
144
0.0
144
1.0
147
0.0208333333333333
147
0.0
147
0.0
147
0.0
147
0.0
147
0.0208333333333333
147
0.0
147
0.0
147
0.0
147
0.0
147
1.0
147
0.0
147
0.0
147
0.0
147
0.0
147
1.0
  0
MATERIAL
  5
53E3
102
{ACAD_XDICTIONARY
360
53E4
102
}
102
{ACAD_REACTORS
330
53D2
102
}
330
53D2
100
AcDbMaterial
  1
Global
 72
     0
 43
0.0208333333333333
 43
0.0
 43
0.0
 43
0.0
 43
0.0
 43
0.0208333333333333
 43
0.0
 43
0.0
 43
0.0
 43
0.0
 43
1.0
 43
0.0
 43
0.0
 43
0.0
 43
0.0
 43
1.0
 77
     0
 47
0.0208333333333333
 47
0.0
 47
0.0
 47
0.0
 47
0.0
 47
0.0208333333333333
 47
0.0
 47
0.0
 47
0.0
 47
0.0
 47
1.0
 47
0.0
 47
0.0
 47
0.0
 47
0.0
 47
1.0
171
     0
 49
0.0208333333333333
 49
0.0
 49
0.0
 49
0.0
 49
0.0
 49
0.0208333333333333
 49
0.0
 49
0.0
 49
0.0
 49
0.0
 49
1.0
 49
0.0
 49
0.0
 49
0.0
 49
0.0
 49
1.0
175
     0
142
0.0208333333333333
142
0.0
142
0.0
142
0.0
142
0.0
142
0.0208333333333333
142
0.0
142
0.0
142
0.0
142
0.0
142
1.0
142
0.0
142
0.0
142
0.0
142
0.0
142
1.0
179
     0
144
0.0208333333333333
144
0.0
144
0.0
144
0.0
144
0.0
144
0.0208333333333333
144
0.0
144
0.0
144
0.0
144
0.0
144
1.0
144
0.0
144
0.0
144
0.0
144
0.0
144
1.0
147
0.0208333333333333
147
0.0
147
0.0
147
0.0
147
0.0
147
0.0208333333333333
147
0.0
147
0.0
147
0.0
147
0.0
147
1.0
147
0.0
147
0.0
147
0.0
147
0.0
147
1.0
  0
MLEADERSTYLE
  5
5428
102
{ACAD_REACTORS
330
5427
102
}
330
5427
100
AcDbMLeaderStyle
170
     2
171
     1
172
     0
 90
        2
 40
0.0
 41
0.0
173
     1
 91
-1056964608
340
541C
 92
       -2
290
     1
 42
0.09
291
     1
 43
0.36
  3
Standard
 44
0.18
300

342
5417
174
     1
178
     6
175
     1
176
     0
 93
-1056964608
 45
0.18
292
     0
297
     0
 46
0.18
 94
-1056964608
 47
1.0
 49
1.0
140
1.0
293
     1
141
0.0
294
     1
177
     0
142
1.0
295
     0
296
     0
143
0.125
1001
ACAD_MLEADERVER
1070
     2
  0
MLINESTYLE
  5
5421
102
{ACAD_REACTORS
330
5420
102
}
330
5420
100
AcDbMlineStyle
  2
STANDARD
 70
     0
  3

 62
   256
 51
90.0
 52
90.0
 71
     2
 49
0.5
 62
   256
  6
BYLAYER
 49
-0.5
 62
   256
  6
BYLAYER
  0
ACDBPLACEHOLDER
  5
53D1
102
{ACAD_REACTORS
330
53D0
102
}
330
53D0
  0
SCALE
  5
5405
102
{ACAD_REACTORS
330
5404
102
}
330
5404
100
AcDbScale
 70
     0
300
1:1
140
1.0
141
1.0
290
     1
  0
SCALE
  5
5406
102
{ACAD_REACTORS
330
5404
102
}
330
5404
100
AcDbScale
 70
     0
300
1/128" = 1'-0"
140
0.0078125
141
12.0
290
     0
  0
SCALE
  5
5407
102
{ACAD_REACTORS
330
5404
102
}
330
5404
100
AcDbScale
 70
     0
300
1/64" = 1'-0"
140
0.015625
141
12.0
290
     0
  0
SCALE
  5
5408
102
{ACAD_REACTORS
330
5404
102
}
330
5404
100
AcDbScale
 70
     0
300
1/32" = 1'-0"
140
0.03125
141
12.0
290
     0
  0
SCALE
  5
5409
102
{ACAD_REACTORS
330
5404
102
}
330
5404
100
AcDbScale
 70
     0
300
1/16" = 1'-0"
140
0.0625
141
12.0
290
     0
  0
SCALE
  5
540A
102
{ACAD_REACTORS
330
5404
102
}
330
5404
100
AcDbScale
 70
     0
300
3/32" = 1'-0"
140
0.09375
141
12.0
290
     0
  0
SCALE
  5
540B
102
{ACAD_REACTORS
330
5404
102
}
330
5404
100
AcDbScale
 70
     0
300
1/8" = 1'-0"
140
0.125
141
12.0
290
     0
  0
SCALE
  5
540C
102
{ACAD_REACTORS
330
5404
102
}
330
5404
100
AcDbScale
 70
     0
300
3/16" = 1'-0"
140
0.1875
141
12.0
290
     0
  0
SCALE
  5
540D
102
{ACAD_REACTORS
330
5404
102
}
330
5404
100
AcDbScale
 70
     0
300
1/4" = 1'-0"
140
0.25
141
12.0
290
     0
  0
SCALE
  5
540E
102
{ACAD_REACTORS
330
5404
102
}
330
5404
100
AcDbScale
 70
     0
300
3/8" = 1'-0"
140
0.375
141
12.0
290
     0
  0
SCALE
  5
540F
102
{ACAD_REACTORS
330
5404
102
}
330
5404
100
AcDbScale
 70
     0
300
1/2" = 1'-0"
140
0.5
141
12.0
290
     0
  0
SCALE
  5
5410
102
{ACAD_REACTORS
330
5404
102
}
330
5404
100
AcDbScale
 70
     0
300
3/4" = 1'-0"
140
0.75
141
12.0
290
     0
  0
SCALE
  5
5411
102
{ACAD_REACTORS
330
5404
102
}
330
5404
100
AcDbScale
 70
     0
300
1" = 1'-0"
140
1.0
141
12.0
290
     0
  0
SCALE
  5
5412
102
{ACAD_REACTORS
330
5404
102
}
330
5404
100
AcDbScale
 70
     0
300
1-1/2" = 1'-0"
140
1.5
141
12.0
290
     0
  0
SCALE
  5
5413
102
{ACAD_REACTORS
330
5404
102
}
330
5404
100
AcDbScale
 70
     0
300
3" = 1'-0"
140
3.0
141
12.0
290
     0
  0
SCALE
  5
5414
102
{ACAD_REACTORS
330
5404
102
}
330
5404
100
AcDbScale
 70
     0
300
6" = 1'-0"
140
6.0
141
12.0
290
     0
  0
SCALE
  5
5415
102
{ACAD_REACTORS
330
5404
102
}
330
5404
100
AcDbScale
 70
     0
300
1'-0" = 1'-0"
140
12.0
141
12.0
290
     0
  0
ACDBSECTIONVIEWSTYLE
  5
542A
102
{ACAD_XDICTIONARY
360
55C2
102
}
102
{ACAD_REACTORS
330
5429
330
54D2
102
}
330
5429
100
AcDbModelDocViewStyle
 70
     0
  3
Imperial24
290
     0
100
AcDbSectionViewStyle
 70
     0
 71
     0
 90
       78
 71
     1
340
5417
 62
   256
 40
0.24
340
0
340
0
 62
   256
 40
0.24
300
I, O, Q, S, X, Z
 40
0.48
 90
        3
 40
0.18
 90
        1
 71
     2
340
541E
 90
       25
 62
   256
340
541E
 90
       50
 62
   256
 40
0.24
 40
0.0
 40
0.24
 71
     3
340
5417
 62
   256
 40
0.24
 90
        1
 40
0.75
 90
        1
300
%<\AcVar ViewType \f "%tc1">% %<\AcVar ViewSectionStartId>%-%<\AcVar ViewSectionEndId>%\PSCALE %<\AcVar ViewScale \f "%sn">%
 71
     4
 62
   256
 62
   257
300
ANSI31
 40
1.0
 90
        0
290
     0
290
     0
 90
        6
 40
0.0
 40
1.570796326794896
 40
0.2617993877991494
 40
1.308996938995747
 40
-0.2617993877991494
 40
1.832595714594046
  0
TABLESTYLE
  5
5426
102
{ACAD_XDICTIONARY
360
558F
102
}
102
{ACAD_REACTORS
330
5425
102
}
330
5425
100
AcDbTableStyle
  3
Standard
 70
     0
 71
     0
 40
0.06
 41
0.06
280
     0
281
     0
  7
STANDARD
140
0.18
170
     2
 62
     0
 63
     7
283
     0
 90
      512
 91
        0
  1

274
    -2
284
     1
 64
     0
275
    -2
285
     1
 65
     0
276
    -2
286
     1
 66
     0
277
    -2
287
     1
 67
     0
278
    -2
288
     1
 68
     0
279
    -2
289
     1
 69
     0
  7
STANDARD
140
0.25
170
     5
 62
     0
 63
     7
283
     0
 90
      512
 91
        0
  1

274
    -2
284
     1
 64
     0
275
    -2
285
     1
 65
     0
276
    -2
286
     1
 66
     0
277
    -2
287
     1
 67
     0
278
    -2
288
     1
 68
     0
279
    -2
289
     1
 69
     0
  7
STANDARD
140
0.18
170
     5
 62
     0
 63
     7
283
     0
 90
      512
 91
        0
  1

274
    -2
284
     1
 64
     0
275
    -2
285
     1
 65
     0
276
    -2
286
     1
 66
     0
277
    -2
287
     1
 67
     0
278
    -2
288
     1
 68
     0
279
    -2
289
     1
 69
     0
  0
VISUALSTYLE
  5
53F1
102
{ACAD_XDICTIONARY
360
559C
102
}
102
{ACAD_REACTORS
330
53EB
102
}
330
53EB
100
AcDbVisualStyle
  2
2dWireframe
 70
     4
 71
     0
 72
     2
 73
     0
 90
        0
 40
-0.6
 41
-30.0
 62
     5
 63
     7
421
 16777215
 74
     1
 91
        4
 64
     7
 65
   257
 75
     1
175
     1
 42
1.0
 92
        0
 66
   257
 43
1.0
 76
     1
 77
     6
 78
     2
 67
     7
 79
     5
170
     0
171
     0
290
     0
174
     0
 93
        1
 44
0.0
173
     0
291
     0
 45
0.0
1001
ACAD
1000
AcDbSavedByObjectVersion
1070
     0
  0
VISUALSTYLE
  5
53F0
102
{ACAD_XDICTIONARY
360
559A
102
}
102
{ACAD_REACTORS
330
53EB
102
}
330
53EB
100
AcDbVisualStyle
  2
Basic
 70
     7
 71
     1
 72
     0
 73
     1
 90
        0
 40
-0.6
 41
-30.0
 62
     5
 63
     7
421
 16777215
 74
     0
 91
        4
 64
     7
 65
   257
 75
     1
175
     1
 42
1.0
 92
        8
 66
     7
 43
1.0
 76
     1
 77
     6
 78
     2
 67
     7
 79
     5
170
     0
171
     0
290
     0
174
     0
 93
        1
 44
0.0
173
     0
291
     1
 45
0.0
1001
ACAD
1000
AcDbSavedByObjectVersion
1070
     0
  0
VISUALSTYLE
  5
53F7
102
{ACAD_XDICTIONARY
360
55A8
102
}
102
{ACAD_REACTORS
330
53EB
102
}
330
53EB
100
AcDbVisualStyle
  2
Brighten
 70
    12
 71
     2
 72
     2
 73
     0
 90
        0
 40
-0.6
 41
-30.0
 62
     5
 63
     7
421
 16777215
 74
     1
 91
        4
 64
     7
 65
   257
 75
     1
175
     1
 42
1.0
 92
        8
 66
     7
 43
1.0
 76
     1
 77
     6
 78
     2
 67
     7
 79
     5
170
     0
171
     0
290
     0
174
     0
 93
        1
 44
50.0
173
     0
291
     1
 45
0.0
1001
ACAD
1000
AcDbSavedByObjectVersion
1070
     0
  0
VISUALSTYLE
  5
53FB
102
{ACAD_XDICTIONARY
360
55B0
102
}
102
{ACAD_REACTORS
330
53EB
102
}
330
53EB
100
AcDbVisualStyle
  2
ColorChange
 70
    16
 71
     2
 72
     2
 73
     3
 90
        0
 40
-0.6
 41
-30.0
 62
     5
 63
     8
421
  8421504
 74
     1
 91
        4
 64
     7
 65
   257
 75
     1
175
     1
 42
1.0
 92
        8
 66
     8
424
  8421504
 43
1.0
 76
     1
 77
     6
 78
     2
 67
     7
 79
     5
170
     0
171
     0
290
     0
174
     0
 93
        1
 44
0.0
173
     0
291
     1
 45
0.0
1001
ACAD
1000
AcDbSavedByObjectVersion
1070
     0
  0
VISUALSTYLE
  5
53F4
102
{ACAD_XDICTIONARY
360
55A2
102
}
102
{ACAD_REACTORS
330
53EB
102
}
330
53EB
100
AcDbVisualStyle
  2
Conceptual
 70
     9
 71
     3
 72
     2
 73
     0
 90
        0
 40
-0.6
 41
-30.0
 62
     5
 63
     7
421
 16777215
 74
     2
 91
        2
 64
     7
 65
   257
 75
     1
175
     1
 42
179.0
 92
        8
 66
     7
 43
1.0
 76
     1
 77
     6
 78
     2
 67
     7
 79
     3
170
     0
171
     0
290
     0
174
     0
 93
        1
 44
0.0
173
     0
291
     0
 45
0.0
1001
ACAD
1000
AcDbSavedByObjectVersion
1070
     0
  0
VISUALSTYLE
  5
53F6
102
{ACAD_XDICTIONARY
360
55A6
102
}
102
{ACAD_REACTORS
330
53EB
102
}
330
53EB
100
AcDbVisualStyle
  2
Dim
 70
    11
 71
     2
 72
     2
 73
     0
 90
        0
 40
-0.6
 41
-30.0
 62
     5
 63
     7
421
 16777215
 74
     1
 91
        4
 64
     7
 65
   257
 75
     1
175
     1
 42
1.0
 92
        8
 66
     7
 43
1.0
 76
     1
 77
     6
 78
     2
 67
     7
 79
     5
170
     0
171
     0
290
     0
174
     0
 93
        1
 44
-50.0
173
     0
291
     1
 45
0.0
1001
ACAD
1000
AcDbSavedByObjectVersion
1070
     0
  0
VISUALSTYLE
  5
5403
102
{ACAD_XDICTIONARY
360
55C0
102
}
102
{ACAD_REACTORS
330
53EB
102
}
330
53EB
100
AcDbVisualStyle
  2
EdgeColorOff
 70
    22
 71
     2
 72
     2
 73
     0
 90
        0
 40
-0.6
 41
-30.0
 62
     5
 63
     7
421
 16777215
 74
     1
 91
        4
 64
     7
 65
   257
 75
     1
175
     1
 42
1.0
 92
        8
 66
     7
 43
1.0
 76
     1
 77
     6
 78
     2
 67
     7
 79
     5
170
     0
171
     0
290
     0
174
     0
 93
        1
 44
0.0
173
     0
291
     1
 45
0.0
1001
ACAD
1000
AcDbSavedByObjectVersion
1070
     0
  0
VISUALSTYLE
  5
53FA
102
{ACAD_XDICTIONARY
360
55AE
102
}
102
{ACAD_REACTORS
330
53EB
102
}
330
53EB
100
AcDbVisualStyle
  2
Facepattern
 70
    15
 71
     2
 72
     2
 73
     0
 90
        0
 40
-0.6
 41
-30.0
 62
     5
 63
     7
421
 16777215
 74
     1
 91
        4
 64
     7
 65
   257
 75
     1
175
     1
 42
1.0
 92
        8
 66
     7
 43
1.0
 76
     1
 77
     6
 78
     2
 67
     7
 79
     5
170
     0
171
     0
290
     0
174
     0
 93
        1
 44
0.0
173
     0
291
     1
 45
0.0
1001
ACAD
1000
AcDbSavedByObjectVersion
1070
     0
  0
VISUALSTYLE
  5
53EC
102
{ACAD_XDICTIONARY
360
5592
102
}
102
{ACAD_REACTORS
330
53EB
102
}
330
53EB
100
AcDbVisualStyle
  2
Flat
 70
     0
 71
     2
 72
     1
 73
     1
 90
        2
 40
-0.6
 41
30.0
 62
     5
 63
     7
421
 16777215
 74
     0
 91
        0
 64
     7
 65
   257
 75
     1
175
     1
 42
1.0
 92
        8
 66
     7
 43
1.0
 76
     1
 77
     6
 78
     2
 67
     7
 79
     5
170
     0
171
     0
290
     0
174
     0
 93
       13
 44
0.0
173
     0
291
     1
 45
0.0
1001
ACAD
1000
AcDbSavedByObjectVersion
1070
     0
  0
VISUALSTYLE
  5
53ED
102
{ACAD_XDICTIONARY
360
5594
102
}
102
{ACAD_REACTORS
330
53EB
102
}
330
53EB
100
AcDbVisualStyle
  2
FlatWithEdges
 70
     1
 71
     2
 72
     1
 73
     1
 90
        2
 40
-0.6
 41
30.0
 62
     5
 63
     7
421
 16777215
 74
     1
 91
        0
 64
     7
 65
   257
 75
     1
175
     1
 42
1.0
 92
        0
 66
   257
 43
1.0
 76
     1
 77
     6
 78
     2
 67
     7
 79
     5
170
     0
171
     0
290
     0
174
     0
 93
       13
 44
0.0
173
     0
291
     1
 45
0.0
1001
ACAD
1000
AcDbSavedByObjectVersion
1070
     0
  0
VISUALSTYLE
  5
53EE
102
{ACAD_XDICTIONARY
360
5596
102
}
102
{ACAD_REACTORS
330
53EB
102
}
330
53EB
100
AcDbVisualStyle
  2
Gouraud
 70
     2
 71
     2
 72
     2
 73
     1
 90
        2
 40
-0.6
 41
30.0
 62
     5
 63
     7
421
 16777215
 74
     0
 91
        0
 64
     7
 65
   257
 75
     1
175
     1
 42
1.0
 92
        0
 66
     7
 43
1.0
 76
     1
 77
     6
 78
     2
 67
     7
 79
     5
170
     0
171
     0
290
     0
174
     0
 93
       13
 44
0.0
173
     0
291
     1
 45
0.0
1001
ACAD
1000
AcDbSavedByObjectVersion
1070
     0
  0
VISUALSTYLE
  5
53EF
102
{ACAD_XDICTIONARY
360
5598
102
}
102
{ACAD_REACTORS
330
53EB
102
}
330
53EB
100
AcDbVisualStyle
  2
GouraudWithEdges
 70
     3
 71
     2
 72
     2
 73
     1
 90
        2
 40
-0.6
 41
30.0
 62
     5
 63
     7
421
 16777215
 74
     1
 91
        0
 64
     7
 65
   257
 75
     1
175
     1
 42
1.0
 92
        0
 66
   257
 43
1.0
 76
     1
 77
     6
 78
     2
 67
     7
 79
     5
170
     0
171
     0
290
     0
174
     0
 93
       13
 44
0.0
173
     0
291
     1
 45
0.0
1001
ACAD
1000
AcDbSavedByObjectVersion
1070
     0
  0
VISUALSTYLE
  5
53F3
102
{ACAD_XDICTIONARY
360
55A0
102
}
102
{ACAD_REACTORS
330
53EB
102
}
330
53EB
100
AcDbVisualStyle
  2
Hidden
 70
     6
 71
     1
 72
     2
 73
     2
 90
        0
 40
-0.6
 41
-30.0
 62
     5
 63
     7
421
 16777215
 74
     2
 91
        2
 64
     7
 65
   257
 75
     2
175
     1
 42
40.0
 92
        0
 66
   257
 43
1.0
 76
     1
 77
     6
 78
     2
 67
     7
 79
     3
170
     0
171
     0
290
     0
174
     0
 93
        1
 44
0.0
173
     0
291
     0
 45
0.0
1001
ACAD
1000
AcDbSavedByObjectVersion
1070
     0
  0
VISUALSTYLE
  5
5401
102
{ACAD_XDICTIONARY
360
55BC
102
}
102
{ACAD_REACTORS
330
53EB
102
}
330
53EB
100
AcDbVisualStyle
  2
JitterOff
 70
    20
 71
     2
 72
     2
 73
     0
 90
        0
 40
-0.6
 41
-30.0
 62
     5
 63
     7
421
 16777215
 74
     1
 91
        4
 64
     7
 65
   257
 75
     1
175
     1
 42
1.0
 92
       10
 66
     7
 43
1.0
 76
     1
 77
     6
 78
     2
 67
     7
 79
     5
170
     0
171
     0
290
     0
174
     0
 93
        1
 44
0.0
173
     0
291
     1
 45
0.0
1001
ACAD
1000
AcDbSavedByObjectVersion
1070
     0
  0
VISUALSTYLE
  5
53F9
102
{ACAD_XDICTIONARY
360
55AC
102
}
102
{ACAD_REACTORS
330
53EB
102
}
330
53EB
100
AcDbVisualStyle
  2
Linepattern
 70
    14
 71
     2
 72
     2
 73
     0
 90
        0
 40
-0.6
 41
-30.0
 62
     5
 63
     7
421
 16777215
 74
     1
 91
        4
 64
     7
 65
   257
 75
     7
175
     7
 42
1.0
 92
        8
 66
     7
 43
1.0
 76
     1
 77
     6
 78
     2
 67
     7
 79
     5
170
     0
171
     0
290
     0
174
     0
 93
        1
 44
0.0
173
     0
291
     1
 45
0.0
1001
ACAD
1000
AcDbSavedByObjectVersion
1070
     0
  0
VISUALSTYLE
  5
5402
102
{ACAD_XDICTIONARY
360
55BE
102
}
102
{ACAD_REACTORS
330
53EB
102
}
330
53EB
100
AcDbVisualStyle
  2
OverhangOff
 70
    21
 71
     2
 72
     2
 73
     0
 90
        0
 40
-0.6
 41
-30.0
 62
     5
 63
     7
421
 16777215
 74
     1
 91
        4
 64
     7
 65
   257
 75
     1
175
     1
 42
1.0
 92
        9
 66
     7
 43
1.0
 76
     1
 77
     6
 78
     2
 67
     7
 79
     5
170
     0
171
     0
290
     0
174
     0
 93
        1
 44
0.0
173
     0
291
     1
 45
0.0
1001
ACAD
1000
AcDbSavedByObjectVersion
1070
     0
  0
VISUALSTYLE
  5
53F5
102
{ACAD_XDICTIONARY
360
55A4
102
}
102
{ACAD_REACTORS
330
53EB
102
}
330
53EB
100
AcDbVisualStyle
  2
Realistic
 70
     8
 71
     2
 72
     3
 73
     0
 90
        2
 40
-0.6
 41
30.0
 62
     5
 63
     7
421
 16777215
 74
     0
 91
        0
 64
     7
 65
   257
 75
     1
175
     1
 42
1.0
 92
        8
 66
   257
 43
1.0
 76
     1
 77
     6
 78
     2
 67
     7
 79
     3
170
     0
171
     0
290
     0
174
     0
 93
       13
 44
0.0
173
     0
291
     0
 45
0.0
1001
ACAD
1000
AcDbSavedByObjectVersion
1070
     0
  0
VISUALSTYLE
  5
5400
102
{ACAD_XDICTIONARY
360
55BA
102
}
102
{ACAD_REACTORS
330
53EB
102
}
330
53EB
100
AcDbVisualStyle
  2
Shaded
 70
    27
 71
     2
 72
     2
 73
     1
 90
        2
 40
-0.6
 41
30.0
 62
     5
 63
     7
421
 16777215
 74
     0
 91
        4
 64
     7
 65
   257
 75
     1
175
     1
 42
1.0
 92
        8
 66
   257
 43
1.0
 76
     1
 77
     6
 78
     2
 67
     8
425
  7895160
 79
     3
170
     0
171
     0
290
     0
174
     0
 93
        5
 44
0.0
173
     0
291
     0
 45
0.0
1001
ACAD
1000
AcDbSavedByObjectVersion
1070
     0
  0
VISUALSTYLE
  5
53FF
102
{ACAD_XDICTIONARY
360
55B8
102
}
102
{ACAD_REACTORS
330
53EB
102
}
330
53EB
100
AcDbVisualStyle
  2
Shaded with edges
 70
    26
 71
     2
 72
     2
 73
     1
 90
        2
 40
-0.6
 41
30.0
 62
     5
 63
     7
421
 16777215
 74
     1
 91
        2
 64
     7
 65
   257
 75
     2
175
     1
 42
1.0
 92
        8
 66
   257
 43
1.0
 76
     1
 77
     6
 78
     2
 67
     7
 79
     3
170
     0
171
     0
290
     0
174
     0
 93
        5
 44
0.0
173
     0
291
     0
 45
0.0
1001
ACAD
1000
AcDbSavedByObjectVersion
1070
     0
  0
VISUALSTYLE
  5
53FC
102
{ACAD_XDICTIONARY
360
55B2
102
}
102
{ACAD_REACTORS
330
53EB
102
}
330
53EB
100
AcDbVisualStyle
  2
Shades of Gray
 70
    23
 71
     2
 72
     2
 73
     3
 90
        0
 40
-0.6
 41
-30.0
 62
     5
 63
     7
421
 16777215
 74
     2
 91
        2
 64
     7
 65
     7
 75
     1
175
     1
 42
40.0
 92
        8
 66
     7
 43
1.0
 76
     1
 77
     6
 78
     2
 67
     7
 79
     3
170
     0
171
     0
290
     0
174
     0
 93
        1
 44
0.0
173
     0
291
     0
 45
0.0
1001
ACAD
1000
AcDbSavedByObjectVersion
1070
     0
  0
VISUALSTYLE
  5
53FD
102
{ACAD_XDICTIONARY
360
55B4
102
}
102
{ACAD_REACTORS
330
53EB
102
}
330
53EB
100
AcDbVisualStyle
  2
Sketchy
 70
    24
 71
     1
 72
     2
 73
     2
 90
        0
 40
-0.6
 41
-30.0
 62
     5
 63
     7
421
 16777215
 74
     2
 91
        2
 64
     7
 65
     7
 75
     1
175
     1
 42
40.0
 92
       11
 66
     7
 43
1.0
 76
     1
 77
     6
 78
     2
 67
     7
 79
     6
170
     0
171
     0
290
     0
174
     0
 93
        1
 44
0.0
173
     0
291
     0
 45
0.0
1001
ACAD
1000
AcDbSavedByObjectVersion
1070
     0
  0
VISUALSTYLE
  5
53F8
102
{ACAD_XDICTIONARY
360
55AA
102
}
102
{ACAD_REACTORS
330
53EB
102
}
330
53EB
100
AcDbVisualStyle
  2
Thicken
 70
    13
 71
     2
 72
     2
 73
     0
 90
        0
 40
-0.6
 41
-30.0
 62
     5
 63
     7
421
 16777215
 74
     1
 91
        4
 64
     7
 65
   257
 75
     1
175
     1
 42
1.0
 92
       12
 66
     7
 43
1.0
 76
     1
 77
     6
 78
     2
 67
     7
 79
     5
170
     0
171
     0
290
     0
174
     0
 93
        1
 44
0.0
173
     0
291
     1
 45
0.0
1001
ACAD
1000
AcDbSavedByObjectVersion
1070
     0
  0
VISUALSTYLE
  5
53F2
102
{ACAD_XDICTIONARY
360
559E
102
}
102
{ACAD_REACTORS
330
53EB
102
}
330
53EB
100
AcDbVisualStyle
  2
Wireframe
 70
     5
 71
     0
 72
     2
 73
     0
 90
        0
 40
-0.6
 41
-30.0
 62
     5
 63
     7
421
 16777215
 74
     1
 91
        4
 64
     7
 65
   257
 75
     1
175
     1
 42
1.0
 92
        0
 66
   257
 43
1.0
 76
     1
 77
     6
 78
     2
 67
     7
 79
     3
170
     0
171
     0
290
     0
174
     0
 93
        1
 44
0.0
173
     0
291
     0
 45
0.0
1001
ACAD
1000
AcDbSavedByObjectVersion
1070
     0
  0
VISUALSTYLE
  5
53FE
102
{ACAD_XDICTIONARY
360
55B6
102
}
102
{ACAD_REACTORS
330
53EB
102
}
330
53EB
100
AcDbVisualStyle
  2
X-Ray
 70
    25
 71
     2
 72
     2
 73
     1
 90
        1
 40
0.5
 41
-30.0
 62
     5
 63
     7
421
 16777215
 74
     1
 91
        0
 64
     7
 65
   257
 75
     1
175
     1
 42
1.0
 92
        8
 66
     7
 43
1.0
 76
     1
 77
     6
 78
     2
 67
     7
 79
     3
170
     0
171
     0
290
     0
174
     0
 93
       13
 44
0.0
173
     0
291
     0
 45
0.0
1001
ACAD
1000
AcDbSavedByObjectVersion
1070
     0
  0
DICTIONARYVAR
  5
558A
102
{ACAD_REACTORS
330
5584
102
}
330
5584
100
DictionaryVariables
280
     0
  1
1:1
  0
DICTIONARYVAR
  5
5586
102
{ACAD_REACTORS
330
5584
102
}
330
5584
100
DictionaryVariables
280
     0
  1
STANDARD
  0
DICTIONARYVAR
  5
5585
102
{ACAD_REACTORS
330
5584
102
}
330
5584
100
DictionaryVariables
280
     0
  1
STANDARD
  0
DICTIONARYVAR
  5
5587
102
{ACAD_REACTORS
330
5584
102
}
330
5584
100
DictionaryVariables
280
     0
  1
Imperial24
  0
DICTIONARYVAR
  5
5588
102
{ACAD_REACTORS
330
5584
102
}
330
5584
100
DictionaryVariables
280
     0
  1
Imperial24
  0
DICTIONARYVAR
  5
558C
102
{ACAD_REACTORS
330
5584
102
}
330
5584
100
DictionaryVariables
280
     0
  1
1
  0
DICTIONARYVAR
  5
558D
102
{ACAD_REACTORS
330
5584
102
}
330
5584
100
DictionaryVariables
280
     0
  1
15
  0
DICTIONARYVAR
  5
558B
102
{ACAD_REACTORS
330
5584
102
}
330
5584
100
DictionaryVariables
280
     0
  1
0
  0
DICTIONARYVAR
  5
5589
102
{ACAD_REACTORS
330
5584
102
}
330
5584
100
DictionaryVariables
280
     0
  1
0
  0
DICTIONARYVAR
  5
558E
102
{ACAD_REACTORS
330
5584
102
}
330
5584
100
DictionaryVariables
280
     0
  1
2
  0
DICTIONARY
  5
54BE
102
{ACAD_REACTORS
330
54B7
102
}
330
54B7
100
AcDbDictionary
281
     1
  0
DICTIONARY
  5
55C4
330
542C
100
AcDbDictionary
280
     1
281
     1
  3
ACAD_XREC_ROUNDTRIP
360
55C5
  0
DICTIONARY
  5
53DC
330
53DB
100
AcDbDictionary
280
     1
281
     1
  3
BUMPTILE
360
53DE
  3
DIFFUSETILE
360
53DD
  3
OPACITYTILE
360
53E1
  3
REFLECTIONTILE
360
53E0
  3
REFRACTIONTILE
360
53E2
  3
SPECULARTILE
360
53DF
  0
DICTIONARY
  5
53D4
330
53D3
100
AcDbDictionary
280
     1
281
     1
  3
BUMPTILE
360
53D6
  3
DIFFUSETILE
360
53D5
  3
OPACITYTILE
360
53D9
  3
REFLECTIONTILE
360
53D8
  3
REFRACTIONTILE
360
53DA
  3
SPECULARTILE
360
53D7
  0
DICTIONARY
  5
53E4
330
53E3
100
AcDbDictionary
280
     1
281
     1
  3
BUMPTILE
360
53E6
  3
DIFFUSETILE
360
53E5
  3
OPACITYTILE
360
53E9
  3
REFLECTIONTILE
360
53E8
  3
REFRACTIONTILE
360
53EA
  3
SPECULARTILE
360
53E7
  0
DICTIONARY
  5
55C2
330
542A
100
AcDbDictionary
280
     1
281
     1
  3
ACAD_XREC_ROUNDTRIP
360
55C3
  0
DICTIONARY
  5
558F
330
5426
100
AcDbDictionary
280
     1
281
     1
  3
ACAD_ROUNDTRIP_2008_TABLESTYLE_CELLSTYLEMAP
360
5590
  0
DICTIONARY
  5
559C
330
53F1
100
AcDbDictionary
280
     1
281
     1
  3
ACAD_XREC_ROUNDTRIP
360
559D
  0
DICTIONARY
  5
559A
330
53F0
100
AcDbDictionary
280
     1
281
     1
  3
ACAD_XREC_ROUNDTRIP
360
559B
  0
DICTIONARY
  5
55A8
330
53F7
100
AcDbDictionary
280
     1
281
     1
  3
ACAD_XREC_ROUNDTRIP
360
55A9
  0
DICTIONARY
  5
55B0
330
53FB
100
AcDbDictionary
280
     1
281
     1
  3
ACAD_XREC_ROUNDTRIP
360
55B1
  0
DICTIONARY
  5
55A2
330
53F4
100
AcDbDictionary
280
     1
281
     1
  3
ACAD_XREC_ROUNDTRIP
360
55A3
  0
DICTIONARY
  5
55A6
330
53F6
100
AcDbDictionary
280
     1
281
     1
  3
ACAD_XREC_ROUNDTRIP
360
55A7
  0
DICTIONARY
  5
55C0
330
5403
100
AcDbDictionary
280
     1
281
     1
  3
ACAD_XREC_ROUNDTRIP
360
55C1
  0
DICTIONARY
  5
55AE
330
53FA
100
AcDbDictionary
280
     1
281
     1
  3
ACAD_XREC_ROUNDTRIP
360
55AF
  0
DICTIONARY
  5
5592
330
53EC
100
AcDbDictionary
280
     1
281
     1
  3
ACAD_XREC_ROUNDTRIP
360
5593
  0
DICTIONARY
  5
5594
330
53ED
100
AcDbDictionary
280
     1
281
     1
  3
ACAD_XREC_ROUNDTRIP
360
5595
  0
DICTIONARY
  5
5596
330
53EE
100
AcDbDictionary
280
     1
281
     1
  3
ACAD_XREC_ROUNDTRIP
360
5597
  0
DICTIONARY
  5
5598
330
53EF
100
AcDbDictionary
280
     1
281
     1
  3
ACAD_XREC_ROUNDTRIP
360
5599
  0
DICTIONARY
  5
55A0
330
53F3
100
AcDbDictionary
280
     1
281
     1
  3
ACAD_XREC_ROUNDTRIP
360
55A1
  0
DICTIONARY
  5
55BC
330
5401
100
AcDbDictionary
280
     1
281
     1
  3
ACAD_XREC_ROUNDTRIP
360
55BD
  0
DICTIONARY
  5
55AC
330
53F9
100
AcDbDictionary
280
     1
281
     1
  3
ACAD_XREC_ROUNDTRIP
360
55AD
  0
DICTIONARY
  5
55BE
330
5402
100
AcDbDictionary
280
     1
281
     1
  3
ACAD_XREC_ROUNDTRIP
360
55BF
  0
DICTIONARY
  5
55A4
330
53F5
100
AcDbDictionary
280
     1
281
     1
  3
ACAD_XREC_ROUNDTRIP
360
55A5
  0
DICTIONARY
  5
55BA
330
5400
100
AcDbDictionary
280
     1
281
     1
  3
ACAD_XREC_ROUNDTRIP
360
55BB
  0
DICTIONARY
  5
55B8
330
53FF
100
AcDbDictionary
280
     1
281
     1
  3
ACAD_XREC_ROUNDTRIP
360
55B9
  0
DICTIONARY
  5
55B2
330
53FC
100
AcDbDictionary
280
     1
281
     1
  3
ACAD_XREC_ROUNDTRIP
360
55B3
  0
DICTIONARY
  5
55B4
330
53FD
100
AcDbDictionary
280
     1
281
     1
  3
ACAD_XREC_ROUNDTRIP
360
55B5
  0
DICTIONARY
  5
55AA
330
53F8
100
AcDbDictionary
280
     1
281
     1
  3
ACAD_XREC_ROUNDTRIP
360
55AB
  0
DICTIONARY
  5
559E
330
53F2
100
AcDbDictionary
280
     1
281
     1
  3
ACAD_XREC_ROUNDTRIP
360
559F
  0
DICTIONARY
  5
55B6
330
53FE
100
AcDbDictionary
280
     1
281
     1
  3
ACAD_XREC_ROUNDTRIP
360
55B7
  0
XRECORD
  5
55C5
102
{ACAD_REACTORS
330
55C4
102
}
330
55C4
100
AcDbXrecord
280
     1
102
DISPLAYNAME
  1
Imperial24
102
FLAGS
 90
        0
  0
XRECORD
  5
53DE
102
{ACAD_REACTORS
330
53DC
102
}
330
53DC
100
AcDbXrecord
280
     1
270
     1
271
     1
  0
XRECORD
  5
53DD
102
{ACAD_REACTORS
330
53DC
102
}
330
53DC
100
AcDbXrecord
280
     1
270
     1
271
     1
  0
XRECORD
  5
53E1
102
{ACAD_REACTORS
330
53DC
102
}
330
53DC
100
AcDbXrecord
280
     1
270
     1
271
     1
  0
XRECORD
  5
53E0
102
{ACAD_REACTORS
330
53DC
102
}
330
53DC
100
AcDbXrecord
280
     1
270
     1
271
     1
  0
XRECORD
  5
53E2
102
{ACAD_REACTORS
330
53DC
102
}
330
53DC
100
AcDbXrecord
280
     1
270
     1
271
     1
  0
XRECORD
  5
53DF
102
{ACAD_REACTORS
330
53DC
102
}
330
53DC
100
AcDbXrecord
280
     1
270
     1
271
     1
  0
XRECORD
  5
53D6
102
{ACAD_REACTORS
330
53D4
102
}
330
53D4
100
AcDbXrecord
280
     1
270
     1
271
     1
  0
XRECORD
  5
53D5
102
{ACAD_REACTORS
330
53D4
102
}
330
53D4
100
AcDbXrecord
280
     1
270
     1
271
     1
  0
XRECORD
  5
53D9
102
{ACAD_REACTORS
330
53D4
102
}
330
53D4
100
AcDbXrecord
280
     1
270
     1
271
     1
  0
XRECORD
  5
53D8
102
{ACAD_REACTORS
330
53D4
102
}
330
53D4
100
AcDbXrecord
280
     1
270
     1
271
     1
  0
XRECORD
  5
53DA
102
{ACAD_REACTORS
330
53D4
102
}
330
53D4
100
AcDbXrecord
280
     1
270
     1
271
     1
  0
XRECORD
  5
53D7
102
{ACAD_REACTORS
330
53D4
102
}
330
53D4
100
AcDbXrecord
280
     1
270
     1
271
     1
  0
XRECORD
  5
53E6
102
{ACAD_REACTORS
330
53E4
102
}
330
53E4
100
AcDbXrecord
280
     1
270
     1
271
     1
  0
XRECORD
  5
53E5
102
{ACAD_REACTORS
330
53E4
102
}
330
53E4
100
AcDbXrecord
280
     1
270
     1
271
     1
  0
XRECORD
  5
53E9
102
{ACAD_REACTORS
330
53E4
102
}
330
53E4
100
AcDbXrecord
280
     1
270
     1
271
     1
  0
XRECORD
  5
53E8
102
{ACAD_REACTORS
330
53E4
102
}
330
53E4
100
AcDbXrecord
280
     1
270
     1
271
     1
  0
XRECORD
  5
53EA
102
{ACAD_REACTORS
330
53E4
102
}
330
53E4
100
AcDbXrecord
280
     1
270
     1
271
     1
  0
XRECORD
  5
53E7
102
{ACAD_REACTORS
330
53E4
102
}
330
53E4
100
AcDbXrecord
280
     1
270
     1
271
     1
  0
XRECORD
  5
55C3
102
{ACAD_REACTORS
330
55C2
102
}
330
55C2
100
AcDbXrecord
280
     1
102
DISPLAYNAME
  1
Imperial24
102
FLAGS
 90
        0
  0
CELLSTYLEMAP
  5
5590
102
{ACAD_REACTORS
330
558F
102
}
330
558F
100
AcDbCellStyleMap
 90
        3
300
CELLSTYLE
  1
TABLEFORMAT_BEGIN
 90
        5
170
     1
 91
        0
 92
    32768
 62
   257
 93
        1
300
CONTENTFORMAT
  1
CONTENTFORMAT_BEGIN
 90
        0
 91
        0
 92
      512
 93
        0
300

 40
0.0
140
1.0
 94
        5
 62
     0
340
5417
144
0.25
309
CONTENTFORMAT_END
171
     0
 94
        0
309
TABLEFORMAT_END
  1
CELLSTYLE_BEGIN
 90
        1
 91
        1
300
_TITLE
309
CELLSTYLE_END
300
CELLSTYLE
  1
TABLEFORMAT_BEGIN
 90
        5
170
     1
 91
        0
 92
        0
 62
   257
 93
        1
300
CONTENTFORMAT
  1
CONTENTFORMAT_BEGIN
 90
        0
 91
        0
 92
      512
 93
        0
300

 40
0.0
140
1.0
 94
        5
 62
     0
340
5417
144
0.18
309
CONTENTFORMAT_END
171
     0
 94
        0
309
TABLEFORMAT_END
  1
CELLSTYLE_BEGIN
 90
        2
 91
        1
300
_HEADER
309
CELLSTYLE_END
300
CELLSTYLE
  1
TABLEFORMAT_BEGIN
 90
        5
170
     1
 91
        0
 92
        0
 62
   257
 93
        1
300
CONTENTFORMAT
  1
CONTENTFORMAT_BEGIN
 90
        0
 91
        0
 92
      512
 93
        0
300

 40
0.0
140
1.0
 94
        2
 62
     0
340
5417
144
0.18
309
CONTENTFORMAT_END
171
     0
 94
        0
309
TABLEFORMAT_END
  1
CELLSTYLE_BEGIN
 90
        3
 91
        2
300
_DATA
309
CELLSTYLE_END
  0
XRECORD
  5
559D
102
{ACAD_REACTORS
330
559C
102
}
330
559C
100
AcDbXrecord
280
     1
102
RTVSPost2010Prop28
280
     1
102
RTVSPost2010PropOp28
 70
     1
102
RTVSPost2010Prop29
280
     1
102
RTVSPost2010PropOp29
 70
     1
102
RTVSPost2010Prop30
280
     0
102
RTVSPost2010PropOp30
 70
     1
102
RTVSPost2010Prop31
280
     0
102
RTVSPost2010PropOp31
 70
     1
102
RTVSPost2010Prop32
280
     0
102
RTVSPost2010PropOp32
 70
     1
102
RTVSPost2010Prop33
280
     0
102
RTVSPost2010PropOp33
 70
     1
102
RTVSPost2010Prop34
280
     0
102
RTVSPost2010PropOp34
 70
     1
102
RTVSPost2010Prop35
280
     0
102
RTVSPost2010PropOp35
 70
     1
102
RTVSPost2010Prop36
280
     0
102
RTVSPost2010PropOp36
 70
     1
102
RTVSPost2010Prop37
 90
       50
102
RTVSPost2010PropOp37
 70
     1
102
RTVSPost2010Prop38
140
0.0
102
RTVSPost2010PropOp38
 70
     1
102
RTVSPost2010Prop39
140
1.0
102
RTVSPost2010PropOp39
 70
     1
102
RTVSPost2010Prop40
 90
        0
102
RTVSPost2010PropOp40
 70
     1
102
RTVSPost2010Prop41ColorIndex
 90
       18
102
RTVSPost2010Prop41ColorRGB
 90
        0
102
RTVSPost2010PropOp41
 70
     1
102
RTVSPost2010Prop42
 90
       50
102
RTVSPost2010PropOp42
 70
     1
102
RTVSPost2010Prop43
 90
        3
102
RTVSPost2010PropOp43
 70
     1
102
RTVSPost2010Prop44ColorIndex
 90
        5
102
RTVSPost2010Prop44ColorRGB
 90
      255
102
RTVSPost2010PropOp44
 70
     1
102
RTVSPost2010Prop45
280
     0
102
RTVSPost2010PropOp45
 70
     1
102
RTVSPost2010Prop46
 90
       50
102
RTVSPost2010PropOp46
 70
     1
102
RTVSPost2010Prop47
 90
       50
102
RTVSPost2010PropOp47
 70
     1
102
RTVSPost2010Prop48
 90
       50
102
RTVSPost2010PropOp48
 70
     1
102
RTVSPost2010Prop49
280
     0
102
RTVSPost2010PropOp49
 70
     1
102
RTVSPost2010Prop50
 90
       50
102
RTVSPost2010PropOp50
 70
     1
102
RTVSPost2010Prop51ColorIndex
 90
      256
102
RTVSPost2010Prop51ColorRGB
 90
-16777216
102
RTVSPost2010PropOp51
 70
     0
102
RTVSPost2010Prop52
140
1.0
102
RTVSPost2010PropOp52
 70
     0
102
RTVSPost2010Prop53
 90
        2
102
RTVSPost2010PropOp53
 70
     1
102
RTVSPost2010Prop54
  1
strokes_ogs.tif
102
RTVSPost2010PropOp54
 70
     1
102
RTVSPost2010Prop55
280
     0
102
RTVSPost2010PropOp55
 70
     1
102
RTVSPost2010Prop56
140
1.0
102
RTVSPost2010PropOp56
 70
     1
102
RTVSPost2010Prop57
140
1.0
102
RTVSPost2010PropOp57
 70
     1
102
RTVSPropertyOp0
 70
     1
102
RTVSPropertyOp1
 70
     1
102
RTVSPropertyOp2
 70
     1
102
RTVSPropertyOp3
 70
     1
102
RTVSPropertyOp4
 70
     1
102
RTVSPropertyOp5
 70
     1
102
RTVSPropertyOp6
 70
     1
102
RTVSPropertyOp7
 70
     1
102
RTVSPropertyOp8
 70
     1
102
RTVSPropertyOp9
 70
     1
102
RTVSPropertyOp10
 70
     1
102
RTVSPropertyOp11
 70
     1
102
RTVSPropertyOp12
 70
     1
102
RTVSPropertyOp13
 70
     1
102
RTVSPropertyOp14
 70
     1
102
RTVSPropertyOp15
 70
     1
102
RTVSPropertyOp16
 70
     1
102
RTVSPropertyOp17
 70
     1
102
RTVSPropertyOp18
 70
     1
102
RTVSPropertyOp19
 70
     1
102
RTVSPropertyOp20
 70
     1
102
RTVSPropertyOp21
 70
     1
102
RTVSPropertyOp22
 70
     1
102
RTVSPropertyOp23
 70
     1
102
RTVSPropertyOp24
 70
     1
102
RTVSPropertyOp25
 70
     1
102
RTVSPropertyOp26
 70
     1
102
RTVSPropertyOp27
 70
     1
102
RTVSPropertyOp28
 70
     1
102
RTVSPropertyOp29
 70
     1
102
RTVSPropertyOp30
 70
     1
102
RTVSPropertyOp31
 70
     1
102
RTVSPropertyOp32
 70
     1
102
RTVSPropertyOp33
 70
     1
102
RTVSPropertyOp34
 70
     1
102
RTVSPropertyOp35
 70
     1
102
RTVSPropertyOp36
 70
     1
102
RTVSPropertyOp37
 70
     1
102
RTVSPropertyOp38
 70
     1
102
RTVSPropertyOp39
 70
     1
102
RTVSPropertyOp40
 70
     1
102
RTVSPropertyOp41
 70
     1
102
RTVSPropertyOp42
 70
     1
102
RTVSPropertyOp43
 70
     1
102
RTVSPropertyOp44
 70
     1
102
RTVSPropertyOp45
 70
     1
102
RTVSPropertyOp46
 70
     1
102
RTVSPropertyOp47
 70
     1
102
RTVSPropertyOp48
 70
     1
102
RTVSPropertyOp49
 70
     1
102
RTVSPropertyOp50
 70
     1
102
RTVSPropertyOp51
 70
     0
102
RTVSPropertyOp52
 70
     0
102
RTVSPropertyOp53
 70
     1
102
RTVSPropertyOp54
 70
     1
102
RTVSPropertyOp55
 70
     1
102
RTVSPropertyOp56
 70
     1
102
RTVSPropertyOp57
 70
     1
102
RTVSPropertyOp58
 70
     1
102
RTVSPropertyOp59
 70
     1
102
RTVSPropertyOp60
 70
     1
102
RTVSPropertyOp61
 70
     1
102
RTVSPropertyOp62
 70
     1
  0
XRECORD
  5
559B
102
{ACAD_REACTORS
330
559A
102
}
330
559A
100
AcDbXrecord
280
     1
102
RTVSPost2010Prop28
280
     0
102
RTVSPost2010PropOp28
 70
     1
102
RTVSPost2010Prop29
280
     1
102
RTVSPost2010PropOp29
 70
     1
102
RTVSPost2010Prop30
280
     1
102
RTVSPost2010PropOp30
 70
     1
102
RTVSPost2010Prop31
280
     0
102
RTVSPost2010PropOp31
 70
     1
102
RTVSPost2010Prop32
280
     0
102
RTVSPost2010PropOp32
 70
     1
102
RTVSPost2010Prop33
280
     0
102
RTVSPost2010PropOp33
 70
     1
102
RTVSPost2010Prop34
280
     0
102
RTVSPost2010PropOp34
 70
     1
102
RTVSPost2010Prop35
280
     0
102
RTVSPost2010PropOp35
 70
     1
102
RTVSPost2010Prop36
280
     0
102
RTVSPost2010PropOp36
 70
     1
102
RTVSPost2010Prop37
 90
       50
102
RTVSPost2010PropOp37
 70
     1
102
RTVSPost2010Prop38
140
0.0
102
RTVSPost2010PropOp38
 70
     1
102
RTVSPost2010Prop39
140
1.0
102
RTVSPost2010PropOp39
 70
     1
102
RTVSPost2010Prop40
 90
        0
102
RTVSPost2010PropOp40
 70
     1
102
RTVSPost2010Prop41ColorIndex
 90
       18
102
RTVSPost2010Prop41ColorRGB
 90
        0
102
RTVSPost2010PropOp41
 70
     1
102
RTVSPost2010Prop42
 90
       50
102
RTVSPost2010PropOp42
 70
     1
102
RTVSPost2010Prop43
 90
        3
102
RTVSPost2010PropOp43
 70
     1
102
RTVSPost2010Prop44ColorIndex
 90
        5
102
RTVSPost2010Prop44ColorRGB
 90
      255
102
RTVSPost2010PropOp44
 70
     1
102
RTVSPost2010Prop45
280
     0
102
RTVSPost2010PropOp45
 70
     1
102
RTVSPost2010Prop46
 90
       50
102
RTVSPost2010PropOp46
 70
     1
102
RTVSPost2010Prop47
 90
       50
102
RTVSPost2010PropOp47
 70
     1
102
RTVSPost2010Prop48
 90
       50
102
RTVSPost2010PropOp48
 70
     1
102
RTVSPost2010Prop49
280
     0
102
RTVSPost2010PropOp49
 70
     1
102
RTVSPost2010Prop50
 90
       50
102
RTVSPost2010PropOp50
 70
     1
102
RTVSPost2010Prop51ColorIndex
 90
      256
102
RTVSPost2010Prop51ColorRGB
 90
-16777216
102
RTVSPost2010PropOp51
 70
     0
102
RTVSPost2010Prop52
140
1.0
102
RTVSPost2010PropOp52
 70
     0
102
RTVSPost2010Prop53
 90
        2
102
RTVSPost2010PropOp53
 70
     1
102
RTVSPost2010Prop54
  1
strokes_ogs.tif
102
RTVSPost2010PropOp54
 70
     1
102
RTVSPost2010Prop55
280
     0
102
RTVSPost2010PropOp55
 70
     1
102
RTVSPost2010Prop56
140
1.0
102
RTVSPost2010PropOp56
 70
     1
102
RTVSPost2010Prop57
140
1.0
102
RTVSPost2010PropOp57
 70
     1
102
RTVSPropertyOp0
 70
     1
102
RTVSPropertyOp1
 70
     1
102
RTVSPropertyOp2
 70
     1
102
RTVSPropertyOp3
 70
     1
102
RTVSPropertyOp4
 70
     1
102
RTVSPropertyOp5
 70
     1
102
RTVSPropertyOp6
 70
     1
102
RTVSPropertyOp7
 70
     1
102
RTVSPropertyOp8
 70
     1
102
RTVSPropertyOp9
 70
     1
102
RTVSPropertyOp10
 70
     1
102
RTVSPropertyOp11
 70
     1
102
RTVSPropertyOp12
 70
     1
102
RTVSPropertyOp13
 70
     1
102
RTVSPropertyOp14
 70
     1
102
RTVSPropertyOp15
 70
     1
102
RTVSPropertyOp16
 70
     1
102
RTVSPropertyOp17
 70
     1
102
RTVSPropertyOp18
 70
     1
102
RTVSPropertyOp19
 70
     1
102
RTVSPropertyOp20
 70
     1
102
RTVSPropertyOp21
 70
     1
102
RTVSPropertyOp22
 70
     1
102
RTVSPropertyOp23
 70
     1
102
RTVSPropertyOp24
 70
     1
102
RTVSPropertyOp25
 70
     1
102
RTVSPropertyOp26
 70
     1
102
RTVSPropertyOp27
 70
     1
102
RTVSPropertyOp28
 70
     1
102
RTVSPropertyOp29
 70
     1
102
RTVSPropertyOp30
 70
     1
102
RTVSPropertyOp31
 70
     1
102
RTVSPropertyOp32
 70
     1
102
RTVSPropertyOp33
 70
     1
102
RTVSPropertyOp34
 70
     1
102
RTVSPropertyOp35
 70
     1
102
RTVSPropertyOp36
 70
     1
102
RTVSPropertyOp37
 70
     1
102
RTVSPropertyOp38
 70
     1
102
RTVSPropertyOp39
 70
     1
102
RTVSPropertyOp40
 70
     1
102
RTVSPropertyOp41
 70
     1
102
RTVSPropertyOp42
 70
     1
102
RTVSPropertyOp43
 70
     1
102
RTVSPropertyOp44
 70
     1
102
RTVSPropertyOp45
 70
     1
102
RTVSPropertyOp46
 70
     1
102
RTVSPropertyOp47
 70
     1
102
RTVSPropertyOp48
 70
     1
102
RTVSPropertyOp49
 70
     1
102
RTVSPropertyOp50
 70
     1
102
RTVSPropertyOp51
 70
     0
102
RTVSPropertyOp52
 70
     0
102
RTVSPropertyOp53
 70
     1
102
RTVSPropertyOp54
 70
     1
102
RTVSPropertyOp55
 70
     1
102
RTVSPropertyOp56
 70
     1
102
RTVSPropertyOp57
 70
     1
102
RTVSPropertyOp58
 70
     1
102
RTVSPropertyOp59
 70
     1
102
RTVSPropertyOp60
 70
     1
102
RTVSPropertyOp61
 70
     1
102
RTVSPropertyOp62
 70
     1
  0
XRECORD
  5
55A9
102
{ACAD_REACTORS
330
55A8
102
}
330
55A8
100
AcDbXrecord
280
     1
102
RTVSPost2010Prop28
280
     0
102
RTVSPost2010PropOp28
 70
     1
102
RTVSPost2010Prop29
280
     1
102
RTVSPost2010PropOp29
 70
     1
102
RTVSPost2010Prop30
280
     1
102
RTVSPost2010PropOp30
 70
     1
102
RTVSPost2010Prop31
280
     0
102
RTVSPost2010PropOp31
 70
     1
102
RTVSPost2010Prop32
280
     0
102
RTVSPost2010PropOp32
 70
     1
102
RTVSPost2010Prop33
280
     0
102
RTVSPost2010PropOp33
 70
     1
102
RTVSPost2010Prop34
280
     0
102
RTVSPost2010PropOp34
 70
     1
102
RTVSPost2010Prop35
280
     0
102
RTVSPost2010PropOp35
 70
     1
102
RTVSPost2010Prop36
280
     0
102
RTVSPost2010PropOp36
 70
     1
102
RTVSPost2010Prop37
 90
       50
102
RTVSPost2010PropOp37
 70
     1
102
RTVSPost2010Prop38
140
0.0
102
RTVSPost2010PropOp38
 70
     1
102
RTVSPost2010Prop39
140
1.0
102
RTVSPost2010PropOp39
 70
     1
102
RTVSPost2010Prop40
 90
        0
102
RTVSPost2010PropOp40
 70
     1
102
RTVSPost2010Prop41ColorIndex
 90
       18
102
RTVSPost2010Prop41ColorRGB
 90
        0
102
RTVSPost2010PropOp41
 70
     1
102
RTVSPost2010Prop42
 90
       50
102
RTVSPost2010PropOp42
 70
     1
102
RTVSPost2010Prop43
 90
        3
102
RTVSPost2010PropOp43
 70
     1
102
RTVSPost2010Prop44ColorIndex
 90
        5
102
RTVSPost2010Prop44ColorRGB
 90
      255
102
RTVSPost2010PropOp44
 70
     1
102
RTVSPost2010Prop45
280
     0
102
RTVSPost2010PropOp45
 70
     1
102
RTVSPost2010Prop46
 90
       50
102
RTVSPost2010PropOp46
 70
     1
102
RTVSPost2010Prop47
 90
       50
102
RTVSPost2010PropOp47
 70
     1
102
RTVSPost2010Prop48
 90
       50
102
RTVSPost2010PropOp48
 70
     1
102
RTVSPost2010Prop49
280
     0
102
RTVSPost2010PropOp49
 70
     1
102
RTVSPost2010Prop50
 90
       50
102
RTVSPost2010PropOp50
 70
     1
102
RTVSPost2010Prop51ColorIndex
 90
      256
102
RTVSPost2010Prop51ColorRGB
 90
-16777216
102
RTVSPost2010PropOp51
 70
     0
102
RTVSPost2010Prop52
140
1.0
102
RTVSPost2010PropOp52
 70
     0
102
RTVSPost2010Prop53
 90
        2
102
RTVSPost2010PropOp53
 70
     1
102
RTVSPost2010Prop54
  1
strokes_ogs.tif
102
RTVSPost2010PropOp54
 70
     1
102
RTVSPost2010Prop55
280
     0
102
RTVSPost2010PropOp55
 70
     1
102
RTVSPost2010Prop56
140
1.0
102
RTVSPost2010PropOp56
 70
     1
102
RTVSPost2010Prop57
140
1.0
102
RTVSPost2010PropOp57
 70
     1
102
RTVSPropertyOp0
 70
     1
102
RTVSPropertyOp1
 70
     1
102
RTVSPropertyOp2
 70
     1
102
RTVSPropertyOp3
 70
     1
102
RTVSPropertyOp4
 70
     1
102
RTVSPropertyOp5
 70
     1
102
RTVSPropertyOp6
 70
     1
102
RTVSPropertyOp7
 70
     1
102
RTVSPropertyOp8
 70
     1
102
RTVSPropertyOp9
 70
     1
102
RTVSPropertyOp10
 70
     1
102
RTVSPropertyOp11
 70
     1
102
RTVSPropertyOp12
 70
     1
102
RTVSPropertyOp13
 70
     1
102
RTVSPropertyOp14
 70
     1
102
RTVSPropertyOp15
 70
     1
102
RTVSPropertyOp16
 70
     1
102
RTVSPropertyOp17
 70
     1
102
RTVSPropertyOp18
 70
     1
102
RTVSPropertyOp19
 70
     1
102
RTVSPropertyOp20
 70
     1
102
RTVSPropertyOp21
 70
     1
102
RTVSPropertyOp22
 70
     1
102
RTVSPropertyOp23
 70
     1
102
RTVSPropertyOp24
 70
     1
102
RTVSPropertyOp25
 70
     1
102
RTVSPropertyOp26
 70
     1
102
RTVSPropertyOp27
 70
     1
102
RTVSPropertyOp28
 70
     1
102
RTVSPropertyOp29
 70
     1
102
RTVSPropertyOp30
 70
     1
102
RTVSPropertyOp31
 70
     1
102
RTVSPropertyOp32
 70
     1
102
RTVSPropertyOp33
 70
     1
102
RTVSPropertyOp34
 70
     1
102
RTVSPropertyOp35
 70
     1
102
RTVSPropertyOp36
 70
     1
102
RTVSPropertyOp37
 70
     1
102
RTVSPropertyOp38
 70
     1
102
RTVSPropertyOp39
 70
     1
102
RTVSPropertyOp40
 70
     1
102
RTVSPropertyOp41
 70
     1
102
RTVSPropertyOp42
 70
     1
102
RTVSPropertyOp43
 70
     1
102
RTVSPropertyOp44
 70
     1
102
RTVSPropertyOp45
 70
     1
102
RTVSPropertyOp46
 70
     1
102
RTVSPropertyOp47
 70
     1
102
RTVSPropertyOp48
 70
     1
102
RTVSPropertyOp49
 70
     1
102
RTVSPropertyOp50
 70
     1
102
RTVSPropertyOp51
 70
     0
102
RTVSPropertyOp52
 70
     0
102
RTVSPropertyOp53
 70
     1
102
RTVSPropertyOp54
 70
     1
102
RTVSPropertyOp55
 70
     1
102
RTVSPropertyOp56
 70
     1
102
RTVSPropertyOp57
 70
     1
102
RTVSPropertyOp58
 70
     1
102
RTVSPropertyOp59
 70
     1
102
RTVSPropertyOp60
 70
     1
102
RTVSPropertyOp61
 70
     1
102
RTVSPropertyOp62
 70
     1
  0
XRECORD
  5
55B1
102
{ACAD_REACTORS
330
55B0
102
}
330
55B0
100
AcDbXrecord
280
     1
102
RTVSPost2010Prop28
280
     0
102
RTVSPost2010PropOp28
 70
     1
102
RTVSPost2010Prop29
280
     1
102
RTVSPost2010PropOp29
 70
     1
102
RTVSPost2010Prop30
280
     1
102
RTVSPost2010PropOp30
 70
     1
102
RTVSPost2010Prop31
280
     0
102
RTVSPost2010PropOp31
 70
     1
102
RTVSPost2010Prop32
280
     0
102
RTVSPost2010PropOp32
 70
     1
102
RTVSPost2010Prop33
280
     0
102
RTVSPost2010PropOp33
 70
     1
102
RTVSPost2010Prop34
280
     0
102
RTVSPost2010PropOp34
 70
     1
102
RTVSPost2010Prop35
280
     0
102
RTVSPost2010PropOp35
 70
     1
102
RTVSPost2010Prop36
280
     0
102
RTVSPost2010PropOp36
 70
     1
102
RTVSPost2010Prop37
 90
       50
102
RTVSPost2010PropOp37
 70
     1
102
RTVSPost2010Prop38
140
0.0
102
RTVSPost2010PropOp38
 70
     1
102
RTVSPost2010Prop39
140
1.0
102
RTVSPost2010PropOp39
 70
     1
102
RTVSPost2010Prop40
 90
        0
102
RTVSPost2010PropOp40
 70
     1
102
RTVSPost2010Prop41ColorIndex
 90
       18
102
RTVSPost2010Prop41ColorRGB
 90
        0
102
RTVSPost2010PropOp41
 70
     1
102
RTVSPost2010Prop42
 90
       50
102
RTVSPost2010PropOp42
 70
     1
102
RTVSPost2010Prop43
 90
        3
102
RTVSPost2010PropOp43
 70
     1
102
RTVSPost2010Prop44ColorIndex
 90
        5
102
RTVSPost2010Prop44ColorRGB
 90
      255
102
RTVSPost2010PropOp44
 70
     1
102
RTVSPost2010Prop45
280
     0
102
RTVSPost2010PropOp45
 70
     1
102
RTVSPost2010Prop46
 90
       50
102
RTVSPost2010PropOp46
 70
     1
102
RTVSPost2010Prop47
 90
       50
102
RTVSPost2010PropOp47
 70
     1
102
RTVSPost2010Prop48
 90
       50
102
RTVSPost2010PropOp48
 70
     1
102
RTVSPost2010Prop49
280
     0
102
RTVSPost2010PropOp49
 70
     1
102
RTVSPost2010Prop50
 90
       50
102
RTVSPost2010PropOp50
 70
     1
102
RTVSPost2010Prop51ColorIndex
 90
      256
102
RTVSPost2010Prop51ColorRGB
 90
-16777216
102
RTVSPost2010PropOp51
 70
     0
102
RTVSPost2010Prop52
140
1.0
102
RTVSPost2010PropOp52
 70
     0
102
RTVSPost2010Prop53
 90
        2
102
RTVSPost2010PropOp53
 70
     1
102
RTVSPost2010Prop54
  1
strokes_ogs.tif
102
RTVSPost2010PropOp54
 70
     1
102
RTVSPost2010Prop55
280
     0
102
RTVSPost2010PropOp55
 70
     1
102
RTVSPost2010Prop56
140
1.0
102
RTVSPost2010PropOp56
 70
     1
102
RTVSPost2010Prop57
140
1.0
102
RTVSPost2010PropOp57
 70
     1
102
RTVSPropertyOp0
 70
     1
102
RTVSPropertyOp1
 70
     1
102
RTVSPropertyOp2
 70
     1
102
RTVSPropertyOp3
 70
     1
102
RTVSPropertyOp4
 70
     1
102
RTVSPropertyOp5
 70
     1
102
RTVSPropertyOp6
 70
     1
102
RTVSPropertyOp7
 70
     1
102
RTVSPropertyOp8
 70
     1
102
RTVSPropertyOp9
 70
     1
102
RTVSPropertyOp10
 70
     1
102
RTVSPropertyOp11
 70
     1
102
RTVSPropertyOp12
 70
     1
102
RTVSPropertyOp13
 70
     1
102
RTVSPropertyOp14
 70
     1
102
RTVSPropertyOp15
 70
     1
102
RTVSPropertyOp16
 70
     1
102
RTVSPropertyOp17
 70
     1
102
RTVSPropertyOp18
 70
     1
102
RTVSPropertyOp19
 70
     1
102
RTVSPropertyOp20
 70
     1
102
RTVSPropertyOp21
 70
     1
102
RTVSPropertyOp22
 70
     1
102
RTVSPropertyOp23
 70
     1
102
RTVSPropertyOp24
 70
     1
102
RTVSPropertyOp25
 70
     1
102
RTVSPropertyOp26
 70
     1
102
RTVSPropertyOp27
 70
     1
102
RTVSPropertyOp28
 70
     1
102
RTVSPropertyOp29
 70
     1
102
RTVSPropertyOp30
 70
     1
102
RTVSPropertyOp31
 70
     1
102
RTVSPropertyOp32
 70
     1
102
RTVSPropertyOp33
 70
     1
102
RTVSPropertyOp34
 70
     1
102
RTVSPropertyOp35
 70
     1
102
RTVSPropertyOp36
 70
     1
102
RTVSPropertyOp37
 70
     1
102
RTVSPropertyOp38
 70
     1
102
RTVSPropertyOp39
 70
     1
102
RTVSPropertyOp40
 70
     1
102
RTVSPropertyOp41
 70
     1
102
RTVSPropertyOp42
 70
     1
102
RTVSPropertyOp43
 70
     1
102
RTVSPropertyOp44
 70
     1
102
RTVSPropertyOp45
 70
     1
102
RTVSPropertyOp46
 70
     1
102
RTVSPropertyOp47
 70
     1
102
RTVSPropertyOp48
 70
     1
102
RTVSPropertyOp49
 70
     1
102
RTVSPropertyOp50
 70
     1
102
RTVSPropertyOp51
 70
     0
102
RTVSPropertyOp52
 70
     0
102
RTVSPropertyOp53
 70
     1
102
RTVSPropertyOp54
 70
     1
102
RTVSPropertyOp55
 70
     1
102
RTVSPropertyOp56
 70
     1
102
RTVSPropertyOp57
 70
     1
102
RTVSPropertyOp58
 70
     1
102
RTVSPropertyOp59
 70
     1
102
RTVSPropertyOp60
 70
     1
102
RTVSPropertyOp61
 70
     1
102
RTVSPropertyOp62
 70
     1
  0
XRECORD
  5
55A3
102
{ACAD_REACTORS
330
55A2
102
}
330
55A2
100
AcDbXrecord
280
     1
102
RTVSPost2010Prop28
280
     0
102
RTVSPost2010PropOp28
 70
     1
102
RTVSPost2010Prop29
280
     1
102
RTVSPost2010PropOp29
 70
     1
102
RTVSPost2010Prop30
280
     1
102
RTVSPost2010PropOp30
 70
     1
102
RTVSPost2010Prop31
280
     0
102
RTVSPost2010PropOp31
 70
     1
102
RTVSPost2010Prop32
280
     0
102
RTVSPost2010PropOp32
 70
     1
102
RTVSPost2010Prop33
280
     0
102
RTVSPost2010PropOp33
 70
     1
102
RTVSPost2010Prop34
280
     0
102
RTVSPost2010PropOp34
 70
     1
102
RTVSPost2010Prop35
280
     0
102
RTVSPost2010PropOp35
 70
     1
102
RTVSPost2010Prop36
280
     0
102
RTVSPost2010PropOp36
 70
     1
102
RTVSPost2010Prop37
 90
       50
102
RTVSPost2010PropOp37
 70
     1
102
RTVSPost2010Prop38
140
0.0
102
RTVSPost2010PropOp38
 70
     1
102
RTVSPost2010Prop39
140
1.0
102
RTVSPost2010PropOp39
 70
     1
102
RTVSPost2010Prop40
 90
        0
102
RTVSPost2010PropOp40
 70
     1
102
RTVSPost2010Prop41ColorIndex
 90
       18
102
RTVSPost2010Prop41ColorRGB
 90
        0
102
RTVSPost2010PropOp41
 70
     1
102
RTVSPost2010Prop42
 90
       50
102
RTVSPost2010PropOp42
 70
     1
102
RTVSPost2010Prop43
 90
        3
102
RTVSPost2010PropOp43
 70
     1
102
RTVSPost2010Prop44ColorIndex
 90
        5
102
RTVSPost2010Prop44ColorRGB
 90
      255
102
RTVSPost2010PropOp44
 70
     1
102
RTVSPost2010Prop45
280
     0
102
RTVSPost2010PropOp45
 70
     1
102
RTVSPost2010Prop46
 90
       50
102
RTVSPost2010PropOp46
 70
     1
102
RTVSPost2010Prop47
 90
       50
102
RTVSPost2010PropOp47
 70
     1
102
RTVSPost2010Prop48
 90
       50
102
RTVSPost2010PropOp48
 70
     1
102
RTVSPost2010Prop49
280
     0
102
RTVSPost2010PropOp49
 70
     1
102
RTVSPost2010Prop50
 90
       50
102
RTVSPost2010PropOp50
 70
     1
102
RTVSPost2010Prop51ColorIndex
 90
      256
102
RTVSPost2010Prop51ColorRGB
 90
-16777216
102
RTVSPost2010PropOp51
 70
     0
102
RTVSPost2010Prop52
140
1.0
102
RTVSPost2010PropOp52
 70
     0
102
RTVSPost2010Prop53
 90
        2
102
RTVSPost2010PropOp53
 70
     1
102
RTVSPost2010Prop54
  1
strokes_ogs.tif
102
RTVSPost2010PropOp54
 70
     1
102
RTVSPost2010Prop55
280
     0
102
RTVSPost2010PropOp55
 70
     1
102
RTVSPost2010Prop56
140
1.0
102
RTVSPost2010PropOp56
 70
     1
102
RTVSPost2010Prop57
140
1.0
102
RTVSPost2010PropOp57
 70
     1
102
RTVSPropertyOp0
 70
     1
102
RTVSPropertyOp1
 70
     1
102
RTVSPropertyOp2
 70
     1
102
RTVSPropertyOp3
 70
     1
102
RTVSPropertyOp4
 70
     1
102
RTVSPropertyOp5
 70
     1
102
RTVSPropertyOp6
 70
     1
102
RTVSPropertyOp7
 70
     1
102
RTVSPropertyOp8
 70
     1
102
RTVSPropertyOp9
 70
     1
102
RTVSPropertyOp10
 70
     1
102
RTVSPropertyOp11
 70
     1
102
RTVSPropertyOp12
 70
     1
102
RTVSPropertyOp13
 70
     1
102
RTVSPropertyOp14
 70
     1
102
RTVSPropertyOp15
 70
     1
102
RTVSPropertyOp16
 70
     1
102
RTVSPropertyOp17
 70
     1
102
RTVSPropertyOp18
 70
     1
102
RTVSPropertyOp19
 70
     1
102
RTVSPropertyOp20
 70
     1
102
RTVSPropertyOp21
 70
     1
102
RTVSPropertyOp22
 70
     1
102
RTVSPropertyOp23
 70
     1
102
RTVSPropertyOp24
 70
     1
102
RTVSPropertyOp25
 70
     1
102
RTVSPropertyOp26
 70
     1
102
RTVSPropertyOp27
 70
     1
102
RTVSPropertyOp28
 70
     1
102
RTVSPropertyOp29
 70
     1
102
RTVSPropertyOp30
 70
     1
102
RTVSPropertyOp31
 70
     1
102
RTVSPropertyOp32
 70
     1
102
RTVSPropertyOp33
 70
     1
102
RTVSPropertyOp34
 70
     1
102
RTVSPropertyOp35
 70
     1
102
RTVSPropertyOp36
 70
     1
102
RTVSPropertyOp37
 70
     1
102
RTVSPropertyOp38
 70
     1
102
RTVSPropertyOp39
 70
     1
102
RTVSPropertyOp40
 70
     1
102
RTVSPropertyOp41
 70
     1
102
RTVSPropertyOp42
 70
     1
102
RTVSPropertyOp43
 70
     1
102
RTVSPropertyOp44
 70
     1
102
RTVSPropertyOp45
 70
     1
102
RTVSPropertyOp46
 70
     1
102
RTVSPropertyOp47
 70
     1
102
RTVSPropertyOp48
 70
     1
102
RTVSPropertyOp49
 70
     1
102
RTVSPropertyOp50
 70
     1
102
RTVSPropertyOp51
 70
     0
102
RTVSPropertyOp52
 70
     0
102
RTVSPropertyOp53
 70
     1
102
RTVSPropertyOp54
 70
     1
102
RTVSPropertyOp55
 70
     1
102
RTVSPropertyOp56
 70
     1
102
RTVSPropertyOp57
 70
     1
102
RTVSPropertyOp58
 70
     1
102
RTVSPropertyOp59
 70
     1
102
RTVSPropertyOp60
 70
     1
102
RTVSPropertyOp61
 70
     1
102
RTVSPropertyOp62
 70
     1
  0
XRECORD
  5
55A7
102
{ACAD_REACTORS
330
55A6
102
}
330
55A6
100
AcDbXrecord
280
     1
102
RTVSPost2010Prop28
280
     0
102
RTVSPost2010PropOp28
 70
     1
102
RTVSPost2010Prop29
280
     1
102
RTVSPost2010PropOp29
 70
     1
102
RTVSPost2010Prop30
280
     1
102
RTVSPost2010PropOp30
 70
     1
102
RTVSPost2010Prop31
280
     0
102
RTVSPost2010PropOp31
 70
     1
102
RTVSPost2010Prop32
280
     0
102
RTVSPost2010PropOp32
 70
     1
102
RTVSPost2010Prop33
280
     0
102
RTVSPost2010PropOp33
 70
     1
102
RTVSPost2010Prop34
280
     0
102
RTVSPost2010PropOp34
 70
     1
102
RTVSPost2010Prop35
280
     0
102
RTVSPost2010PropOp35
 70
     1
102
RTVSPost2010Prop36
280
     0
102
RTVSPost2010PropOp36
 70
     1
102
RTVSPost2010Prop37
 90
       50
102
RTVSPost2010PropOp37
 70
     1
102
RTVSPost2010Prop38
140
0.0
102
RTVSPost2010PropOp38
 70
     1
102
RTVSPost2010Prop39
140
1.0
102
RTVSPost2010PropOp39
 70
     1
102
RTVSPost2010Prop40
 90
        0
102
RTVSPost2010PropOp40
 70
     1
102
RTVSPost2010Prop41ColorIndex
 90
       18
102
RTVSPost2010Prop41ColorRGB
 90
        0
102
RTVSPost2010PropOp41
 70
     1
102
RTVSPost2010Prop42
 90
       50
102
RTVSPost2010PropOp42
 70
     1
102
RTVSPost2010Prop43
 90
        3
102
RTVSPost2010PropOp43
 70
     1
102
RTVSPost2010Prop44ColorIndex
 90
        5
102
RTVSPost2010Prop44ColorRGB
 90
      255
102
RTVSPost2010PropOp44
 70
     1
102
RTVSPost2010Prop45
280
     0
102
RTVSPost2010PropOp45
 70
     1
102
RTVSPost2010Prop46
 90
       50
102
RTVSPost2010PropOp46
 70
     1
102
RTVSPost2010Prop47
 90
       50
102
RTVSPost2010PropOp47
 70
     1
102
RTVSPost2010Prop48
 90
       50
102
RTVSPost2010PropOp48
 70
     1
102
RTVSPost2010Prop49
280
     0
102
RTVSPost2010PropOp49
 70
     1
102
RTVSPost2010Prop50
 90
       50
102
RTVSPost2010PropOp50
 70
     1
102
RTVSPost2010Prop51ColorIndex
 90
      256
102
RTVSPost2010Prop51ColorRGB
 90
-16777216
102
RTVSPost2010PropOp51
 70
     0
102
RTVSPost2010Prop52
140
1.0
102
RTVSPost2010PropOp52
 70
     0
102
RTVSPost2010Prop53
 90
        2
102
RTVSPost2010PropOp53
 70
     1
102
RTVSPost2010Prop54
  1
strokes_ogs.tif
102
RTVSPost2010PropOp54
 70
     1
102
RTVSPost2010Prop55
280
     0
102
RTVSPost2010PropOp55
 70
     1
102
RTVSPost2010Prop56
140
1.0
102
RTVSPost2010PropOp56
 70
     1
102
RTVSPost2010Prop57
140
1.0
102
RTVSPost2010PropOp57
 70
     1
102
RTVSPropertyOp0
 70
     1
102
RTVSPropertyOp1
 70
     1
102
RTVSPropertyOp2
 70
     1
102
RTVSPropertyOp3
 70
     1
102
RTVSPropertyOp4
 70
     1
102
RTVSPropertyOp5
 70
     1
102
RTVSPropertyOp6
 70
     1
102
RTVSPropertyOp7
 70
     1
102
RTVSPropertyOp8
 70
     1
102
RTVSPropertyOp9
 70
     1
102
RTVSPropertyOp10
 70
     1
102
RTVSPropertyOp11
 70
     1
102
RTVSPropertyOp12
 70
     1
102
RTVSPropertyOp13
 70
     1
102
RTVSPropertyOp14
 70
     1
102
RTVSPropertyOp15
 70
     1
102
RTVSPropertyOp16
 70
     1
102
RTVSPropertyOp17
 70
     1
102
RTVSPropertyOp18
 70
     1
102
RTVSPropertyOp19
 70
     1
102
RTVSPropertyOp20
 70
     1
102
RTVSPropertyOp21
 70
     1
102
RTVSPropertyOp22
 70
     1
102
RTVSPropertyOp23
 70
     1
102
RTVSPropertyOp24
 70
     1
102
RTVSPropertyOp25
 70
     1
102
RTVSPropertyOp26
 70
     1
102
RTVSPropertyOp27
 70
     1
102
RTVSPropertyOp28
 70
     1
102
RTVSPropertyOp29
 70
     1
102
RTVSPropertyOp30
 70
     1
102
RTVSPropertyOp31
 70
     1
102
RTVSPropertyOp32
 70
     1
102
RTVSPropertyOp33
 70
     1
102
RTVSPropertyOp34
 70
     1
102
RTVSPropertyOp35
 70
     1
102
RTVSPropertyOp36
 70
     1
102
RTVSPropertyOp37
 70
     1
102
RTVSPropertyOp38
 70
     1
102
RTVSPropertyOp39
 70
     1
102
RTVSPropertyOp40
 70
     1
102
RTVSPropertyOp41
 70
     1
102
RTVSPropertyOp42
 70
     1
102
RTVSPropertyOp43
 70
     1
102
RTVSPropertyOp44
 70
     1
102
RTVSPropertyOp45
 70
     1
102
RTVSPropertyOp46
 70
     1
102
RTVSPropertyOp47
 70
     1
102
RTVSPropertyOp48
 70
     1
102
RTVSPropertyOp49
 70
     1
102
RTVSPropertyOp50
 70
     1
102
RTVSPropertyOp51
 70
     0
102
RTVSPropertyOp52
 70
     0
102
RTVSPropertyOp53
 70
     1
102
RTVSPropertyOp54
 70
     1
102
RTVSPropertyOp55
 70
     1
102
RTVSPropertyOp56
 70
     1
102
RTVSPropertyOp57
 70
     1
102
RTVSPropertyOp58
 70
     1
102
RTVSPropertyOp59
 70
     1
102
RTVSPropertyOp60
 70
     1
102
RTVSPropertyOp61
 70
     1
102
RTVSPropertyOp62
 70
     1
  0
XRECORD
  5
55C1
102
{ACAD_REACTORS
330
55C0
102
}
330
55C0
100
AcDbXrecord
280
     1
102
RTVSPost2010Prop28
280
     0
102
RTVSPost2010PropOp28
 70
     1
102
RTVSPost2010Prop29
280
     1
102
RTVSPost2010PropOp29
 70
     1
102
RTVSPost2010Prop30
280
     1
102
RTVSPost2010PropOp30
 70
     1
102
RTVSPost2010Prop31
280
     0
102
RTVSPost2010PropOp31
 70
     1
102
RTVSPost2010Prop32
280
     0
102
RTVSPost2010PropOp32
 70
     1
102
RTVSPost2010Prop33
280
     0
102
RTVSPost2010PropOp33
 70
     1
102
RTVSPost2010Prop34
280
     0
102
RTVSPost2010PropOp34
 70
     1
102
RTVSPost2010Prop35
280
     0
102
RTVSPost2010PropOp35
 70
     1
102
RTVSPost2010Prop36
280
     0
102
RTVSPost2010PropOp36
 70
     1
102
RTVSPost2010Prop37
 90
       50
102
RTVSPost2010PropOp37
 70
     0
102
RTVSPost2010Prop38
140
0.0
102
RTVSPost2010PropOp38
 70
     0
102
RTVSPost2010Prop39
140
1.0
102
RTVSPost2010PropOp39
 70
     0
102
RTVSPost2010Prop40
 90
        0
102
RTVSPost2010PropOp40
 70
     0
102
RTVSPost2010Prop41ColorIndex
 90
       18
102
RTVSPost2010Prop41ColorRGB
 90
        0
102
RTVSPost2010PropOp41
 70
     0
102
RTVSPost2010Prop42
 90
       50
102
RTVSPost2010PropOp42
 70
     0
102
RTVSPost2010Prop43
 90
        3
102
RTVSPost2010PropOp43
 70
     0
102
RTVSPost2010Prop44ColorIndex
 90
        5
102
RTVSPost2010Prop44ColorRGB
 90
      255
102
RTVSPost2010PropOp44
 70
     0
102
RTVSPost2010Prop45
280
     0
102
RTVSPost2010PropOp45
 70
     1
102
RTVSPost2010Prop46
 90
       50
102
RTVSPost2010PropOp46
 70
     0
102
RTVSPost2010Prop47
 90
       50
102
RTVSPost2010PropOp47
 70
     0
102
RTVSPost2010Prop48
 90
       50
102
RTVSPost2010PropOp48
 70
     0
102
RTVSPost2010Prop49
280
     0
102
RTVSPost2010PropOp49
 70
     1
102
RTVSPost2010Prop50
 90
       50
102
RTVSPost2010PropOp50
 70
     0
102
RTVSPost2010Prop51ColorIndex
 90
      256
102
RTVSPost2010Prop51ColorRGB
 90
-16777216
102
RTVSPost2010PropOp51
 70
     0
102
RTVSPost2010Prop52
140
1.0
102
RTVSPost2010PropOp52
 70
     0
102
RTVSPost2010Prop53
 90
        2
102
RTVSPost2010PropOp53
 70
     0
102
RTVSPost2010Prop54
  1
strokes_ogs.tif
102
RTVSPost2010PropOp54
 70
     0
102
RTVSPost2010Prop55
280
     0
102
RTVSPost2010PropOp55
 70
     1
102
RTVSPost2010Prop56
140
1.0
102
RTVSPost2010PropOp56
 70
     0
102
RTVSPost2010Prop57
140
1.0
102
RTVSPost2010PropOp57
 70
     0
102
RTVSPropertyOp0
 70
     0
102
RTVSPropertyOp1
 70
     0
102
RTVSPropertyOp2
 70
     0
102
RTVSPropertyOp3
 70
     0
102
RTVSPropertyOp4
 70
     0
102
RTVSPropertyOp5
 70
     0
102
RTVSPropertyOp6
 70
     0
102
RTVSPropertyOp7
 70
     0
102
RTVSPropertyOp8
 70
     0
102
RTVSPropertyOp9
 70
     0
102
RTVSPropertyOp10
 70
     0
102
RTVSPropertyOp11
 70
     0
102
RTVSPropertyOp12
 70
     0
102
RTVSPropertyOp13
 70
     0
102
RTVSPropertyOp14
 70
     2
102
RTVSPropertyOp15
 70
     0
102
RTVSPropertyOp16
 70
     0
102
RTVSPropertyOp17
 70
     0
102
RTVSPropertyOp18
 70
     0
102
RTVSPropertyOp19
 70
     0
102
RTVSPropertyOp20
 70
     0
102
RTVSPropertyOp21
 70
     0
102
RTVSPropertyOp22
 70
     0
102
RTVSPropertyOp23
 70
     0
102
RTVSPropertyOp24
 70
     0
102
RTVSPropertyOp25
 70
     0
102
RTVSPropertyOp26
 70
     0
102
RTVSPropertyOp27
 70
     0
102
RTVSPropertyOp28
 70
     1
102
RTVSPropertyOp29
 70
     1
102
RTVSPropertyOp30
 70
     1
102
RTVSPropertyOp31
 70
     1
102
RTVSPropertyOp32
 70
     1
102
RTVSPropertyOp33
 70
     1
102
RTVSPropertyOp34
 70
     1
102
RTVSPropertyOp35
 70
     1
102
RTVSPropertyOp36
 70
     1
102
RTVSPropertyOp37
 70
     0
102
RTVSPropertyOp38
 70
     0
102
RTVSPropertyOp39
 70
     0
102
RTVSPropertyOp40
 70
     0
102
RTVSPropertyOp41
 70
     0
102
RTVSPropertyOp42
 70
     0
102
RTVSPropertyOp43
 70
     0
102
RTVSPropertyOp44
 70
     0
102
RTVSPropertyOp45
 70
     1
102
RTVSPropertyOp46
 70
     0
102
RTVSPropertyOp47
 70
     0
102
RTVSPropertyOp48
 70
     0
102
RTVSPropertyOp49
 70
     1
102
RTVSPropertyOp50
 70
     0
102
RTVSPropertyOp51
 70
     0
102
RTVSPropertyOp52
 70
     0
102
RTVSPropertyOp53
 70
     0
102
RTVSPropertyOp54
 70
     0
102
RTVSPropertyOp55
 70
     1
102
RTVSPropertyOp56
 70
     0
102
RTVSPropertyOp57
 70
     0
102
RTVSPropertyOp58
 70
     0
102
RTVSPropertyOp59
 70
     0
102
RTVSPropertyOp60
 70
     0
102
RTVSPropertyOp61
 70
     0
102
RTVSPropertyOp62
 70
     0
  0
XRECORD
  5
55AF
102
{ACAD_REACTORS
330
55AE
102
}
330
55AE
100
AcDbXrecord
280
     1
102
RTVSPost2010Prop28
280
     0
102
RTVSPost2010PropOp28
 70
     1
102
RTVSPost2010Prop29
280
     1
102
RTVSPost2010PropOp29
 70
     1
102
RTVSPost2010Prop30
280
     1
102
RTVSPost2010PropOp30
 70
     1
102
RTVSPost2010Prop31
280
     0
102
RTVSPost2010PropOp31
 70
     1
102
RTVSPost2010Prop32
280
     0
102
RTVSPost2010PropOp32
 70
     1
102
RTVSPost2010Prop33
280
     0
102
RTVSPost2010PropOp33
 70
     1
102
RTVSPost2010Prop34
280
     0
102
RTVSPost2010PropOp34
 70
     1
102
RTVSPost2010Prop35
280
     0
102
RTVSPost2010PropOp35
 70
     1
102
RTVSPost2010Prop36
280
     0
102
RTVSPost2010PropOp36
 70
     1
102
RTVSPost2010Prop37
 90
       50
102
RTVSPost2010PropOp37
 70
     1
102
RTVSPost2010Prop38
140
0.0
102
RTVSPost2010PropOp38
 70
     1
102
RTVSPost2010Prop39
140
1.0
102
RTVSPost2010PropOp39
 70
     1
102
RTVSPost2010Prop40
 90
        0
102
RTVSPost2010PropOp40
 70
     1
102
RTVSPost2010Prop41ColorIndex
 90
       18
102
RTVSPost2010Prop41ColorRGB
 90
        0
102
RTVSPost2010PropOp41
 70
     1
102
RTVSPost2010Prop42
 90
       50
102
RTVSPost2010PropOp42
 70
     1
102
RTVSPost2010Prop43
 90
        3
102
RTVSPost2010PropOp43
 70
     1
102
RTVSPost2010Prop44ColorIndex
 90
        5
102
RTVSPost2010Prop44ColorRGB
 90
      255
102
RTVSPost2010PropOp44
 70
     1
102
RTVSPost2010Prop45
280
     0
102
RTVSPost2010PropOp45
 70
     1
102
RTVSPost2010Prop46
 90
       50
102
RTVSPost2010PropOp46
 70
     1
102
RTVSPost2010Prop47
 90
       50
102
RTVSPost2010PropOp47
 70
     1
102
RTVSPost2010Prop48
 90
       50
102
RTVSPost2010PropOp48
 70
     1
102
RTVSPost2010Prop49
280
     0
102
RTVSPost2010PropOp49
 70
     1
102
RTVSPost2010Prop50
 90
       50
102
RTVSPost2010PropOp50
 70
     1
102
RTVSPost2010Prop51ColorIndex
 90
      256
102
RTVSPost2010Prop51ColorRGB
 90
-16777216
102
RTVSPost2010PropOp51
 70
     0
102
RTVSPost2010Prop52
140
1.0
102
RTVSPost2010PropOp52
 70
     0
102
RTVSPost2010Prop53
 90
        2
102
RTVSPost2010PropOp53
 70
     1
102
RTVSPost2010Prop54
  1
strokes_ogs.tif
102
RTVSPost2010PropOp54
 70
     1
102
RTVSPost2010Prop55
280
     0
102
RTVSPost2010PropOp55
 70
     1
102
RTVSPost2010Prop56
140
1.0
102
RTVSPost2010PropOp56
 70
     1
102
RTVSPost2010Prop57
140
1.0
102
RTVSPost2010PropOp57
 70
     1
102
RTVSPropertyOp0
 70
     1
102
RTVSPropertyOp1
 70
     1
102
RTVSPropertyOp2
 70
     1
102
RTVSPropertyOp3
 70
     1
102
RTVSPropertyOp4
 70
     1
102
RTVSPropertyOp5
 70
     1
102
RTVSPropertyOp6
 70
     1
102
RTVSPropertyOp7
 70
     1
102
RTVSPropertyOp8
 70
     1
102
RTVSPropertyOp9
 70
     1
102
RTVSPropertyOp10
 70
     1
102
RTVSPropertyOp11
 70
     1
102
RTVSPropertyOp12
 70
     1
102
RTVSPropertyOp13
 70
     1
102
RTVSPropertyOp14
 70
     1
102
RTVSPropertyOp15
 70
     1
102
RTVSPropertyOp16
 70
     1
102
RTVSPropertyOp17
 70
     1
102
RTVSPropertyOp18
 70
     1
102
RTVSPropertyOp19
 70
     1
102
RTVSPropertyOp20
 70
     1
102
RTVSPropertyOp21
 70
     1
102
RTVSPropertyOp22
 70
     1
102
RTVSPropertyOp23
 70
     1
102
RTVSPropertyOp24
 70
     1
102
RTVSPropertyOp25
 70
     1
102
RTVSPropertyOp26
 70
     1
102
RTVSPropertyOp27
 70
     1
102
RTVSPropertyOp28
 70
     1
102
RTVSPropertyOp29
 70
     1
102
RTVSPropertyOp30
 70
     1
102
RTVSPropertyOp31
 70
     1
102
RTVSPropertyOp32
 70
     1
102
RTVSPropertyOp33
 70
     1
102
RTVSPropertyOp34
 70
     1
102
RTVSPropertyOp35
 70
     1
102
RTVSPropertyOp36
 70
     1
102
RTVSPropertyOp37
 70
     1
102
RTVSPropertyOp38
 70
     1
102
RTVSPropertyOp39
 70
     1
102
RTVSPropertyOp40
 70
     1
102
RTVSPropertyOp41
 70
     1
102
RTVSPropertyOp42
 70
     1
102
RTVSPropertyOp43
 70
     1
102
RTVSPropertyOp44
 70
     1
102
RTVSPropertyOp45
 70
     1
102
RTVSPropertyOp46
 70
     1
102
RTVSPropertyOp47
 70
     1
102
RTVSPropertyOp48
 70
     1
102
RTVSPropertyOp49
 70
     1
102
RTVSPropertyOp50
 70
     1
102
RTVSPropertyOp51
 70
     0
102
RTVSPropertyOp52
 70
     0
102
RTVSPropertyOp53
 70
     1
102
RTVSPropertyOp54
 70
     1
102
RTVSPropertyOp55
 70
     1
102
RTVSPropertyOp56
 70
     1
102
RTVSPropertyOp57
 70
     1
102
RTVSPropertyOp58
 70
     1
102
RTVSPropertyOp59
 70
     1
102
RTVSPropertyOp60
 70
     1
102
RTVSPropertyOp61
 70
     1
102
RTVSPropertyOp62
 70
     1
  0
XRECORD
  5
5593
102
{ACAD_REACTORS
330
5592
102
}
330
5592
100
AcDbXrecord
280
     1
102
RTVSPost2010Prop28
280
     0
102
RTVSPost2010PropOp28
 70
     1
102
RTVSPost2010Prop29
280
     1
102
RTVSPost2010PropOp29
 70
     1
102
RTVSPost2010Prop30
280
     1
102
RTVSPost2010PropOp30
 70
     1
102
RTVSPost2010Prop31
280
     0
102
RTVSPost2010PropOp31
 70
     1
102
RTVSPost2010Prop32
280
     0
102
RTVSPost2010PropOp32
 70
     1
102
RTVSPost2010Prop33
280
     0
102
RTVSPost2010PropOp33
 70
     1
102
RTVSPost2010Prop34
280
     0
102
RTVSPost2010PropOp34
 70
     1
102
RTVSPost2010Prop35
280
     0
102
RTVSPost2010PropOp35
 70
     1
102
RTVSPost2010Prop36
280
     0
102
RTVSPost2010PropOp36
 70
     1
102
RTVSPost2010Prop37
 90
       50
102
RTVSPost2010PropOp37
 70
     1
102
RTVSPost2010Prop38
140
0.0
102
RTVSPost2010PropOp38
 70
     1
102
RTVSPost2010Prop39
140
1.0
102
RTVSPost2010PropOp39
 70
     1
102
RTVSPost2010Prop40
 90
        0
102
RTVSPost2010PropOp40
 70
     1
102
RTVSPost2010Prop41ColorIndex
 90
       18
102
RTVSPost2010Prop41ColorRGB
 90
        0
102
RTVSPost2010PropOp41
 70
     1
102
RTVSPost2010Prop42
 90
       50
102
RTVSPost2010PropOp42
 70
     1
102
RTVSPost2010Prop43
 90
        3
102
RTVSPost2010PropOp43
 70
     1
102
RTVSPost2010Prop44ColorIndex
 90
        5
102
RTVSPost2010Prop44ColorRGB
 90
      255
102
RTVSPost2010PropOp44
 70
     1
102
RTVSPost2010Prop45
280
     0
102
RTVSPost2010PropOp45
 70
     1
102
RTVSPost2010Prop46
 90
       50
102
RTVSPost2010PropOp46
 70
     1
102
RTVSPost2010Prop47
 90
       50
102
RTVSPost2010PropOp47
 70
     1
102
RTVSPost2010Prop48
 90
       50
102
RTVSPost2010PropOp48
 70
     1
102
RTVSPost2010Prop49
280
     0
102
RTVSPost2010PropOp49
 70
     1
102
RTVSPost2010Prop50
 90
       50
102
RTVSPost2010PropOp50
 70
     1
102
RTVSPost2010Prop51ColorIndex
 90
      256
102
RTVSPost2010Prop51ColorRGB
 90
-16777216
102
RTVSPost2010PropOp51
 70
     0
102
RTVSPost2010Prop52
140
1.0
102
RTVSPost2010PropOp52
 70
     0
102
RTVSPost2010Prop53
 90
        2
102
RTVSPost2010PropOp53
 70
     1
102
RTVSPost2010Prop54
  1
strokes_ogs.tif
102
RTVSPost2010PropOp54
 70
     1
102
RTVSPost2010Prop55
280
     0
102
RTVSPost2010PropOp55
 70
     1
102
RTVSPost2010Prop56
140
1.0
102
RTVSPost2010PropOp56
 70
     1
102
RTVSPost2010Prop57
140
1.0
102
RTVSPost2010PropOp57
 70
     1
102
RTVSPropertyOp0
 70
     1
102
RTVSPropertyOp1
 70
     1
102
RTVSPropertyOp2
 70
     1
102
RTVSPropertyOp3
 70
     1
102
RTVSPropertyOp4
 70
     1
102
RTVSPropertyOp5
 70
     1
102
RTVSPropertyOp6
 70
     1
102
RTVSPropertyOp7
 70
     1
102
RTVSPropertyOp8
 70
     1
102
RTVSPropertyOp9
 70
     1
102
RTVSPropertyOp10
 70
     1
102
RTVSPropertyOp11
 70
     1
102
RTVSPropertyOp12
 70
     1
102
RTVSPropertyOp13
 70
     1
102
RTVSPropertyOp14
 70
     1
102
RTVSPropertyOp15
 70
     1
102
RTVSPropertyOp16
 70
     1
102
RTVSPropertyOp17
 70
     1
102
RTVSPropertyOp18
 70
     1
102
RTVSPropertyOp19
 70
     1
102
RTVSPropertyOp20
 70
     1
102
RTVSPropertyOp21
 70
     1
102
RTVSPropertyOp22
 70
     1
102
RTVSPropertyOp23
 70
     1
102
RTVSPropertyOp24
 70
     1
102
RTVSPropertyOp25
 70
     1
102
RTVSPropertyOp26
 70
     1
102
RTVSPropertyOp27
 70
     1
102
RTVSPropertyOp28
 70
     1
102
RTVSPropertyOp29
 70
     1
102
RTVSPropertyOp30
 70
     1
102
RTVSPropertyOp31
 70
     1
102
RTVSPropertyOp32
 70
     1
102
RTVSPropertyOp33
 70
     1
102
RTVSPropertyOp34
 70
     1
102
RTVSPropertyOp35
 70
     1
102
RTVSPropertyOp36
 70
     1
102
RTVSPropertyOp37
 70
     1
102
RTVSPropertyOp38
 70
     1
102
RTVSPropertyOp39
 70
     1
102
RTVSPropertyOp40
 70
     1
102
RTVSPropertyOp41
 70
     1
102
RTVSPropertyOp42
 70
     1
102
RTVSPropertyOp43
 70
     1
102
RTVSPropertyOp44
 70
     1
102
RTVSPropertyOp45
 70
     1
102
RTVSPropertyOp46
 70
     1
102
RTVSPropertyOp47
 70
     1
102
RTVSPropertyOp48
 70
     1
102
RTVSPropertyOp49
 70
     1
102
RTVSPropertyOp50
 70
     1
102
RTVSPropertyOp51
 70
     0
102
RTVSPropertyOp52
 70
     0
102
RTVSPropertyOp53
 70
     1
102
RTVSPropertyOp54
 70
     1
102
RTVSPropertyOp55
 70
     1
102
RTVSPropertyOp56
 70
     1
102
RTVSPropertyOp57
 70
     1
102
RTVSPropertyOp58
 70
     1
102
RTVSPropertyOp59
 70
     1
102
RTVSPropertyOp60
 70
     1
102
RTVSPropertyOp61
 70
     1
102
RTVSPropertyOp62
 70
     1
  0
XRECORD
  5
5595
102
{ACAD_REACTORS
330
5594
102
}
330
5594
100
AcDbXrecord
280
     1
102
RTVSPost2010Prop28
280
     0
102
RTVSPost2010PropOp28
 70
     1
102
RTVSPost2010Prop29
280
     1
102
RTVSPost2010PropOp29
 70
     1
102
RTVSPost2010Prop30
280
     1
102
RTVSPost2010PropOp30
 70
     1
102
RTVSPost2010Prop31
280
     0
102
RTVSPost2010PropOp31
 70
     1
102
RTVSPost2010Prop32
280
     0
102
RTVSPost2010PropOp32
 70
     1
102
RTVSPost2010Prop33
280
     0
102
RTVSPost2010PropOp33
 70
     1
102
RTVSPost2010Prop34
280
     0
102
RTVSPost2010PropOp34
 70
     1
102
RTVSPost2010Prop35
280
     0
102
RTVSPost2010PropOp35
 70
     1
102
RTVSPost2010Prop36
280
     0
102
RTVSPost2010PropOp36
 70
     1
102
RTVSPost2010Prop37
 90
       50
102
RTVSPost2010PropOp37
 70
     1
102
RTVSPost2010Prop38
140
0.0
102
RTVSPost2010PropOp38
 70
     1
102
RTVSPost2010Prop39
140
1.0
102
RTVSPost2010PropOp39
 70
     1
102
RTVSPost2010Prop40
 90
        0
102
RTVSPost2010PropOp40
 70
     1
102
RTVSPost2010Prop41ColorIndex
 90
       18
102
RTVSPost2010Prop41ColorRGB
 90
        0
102
RTVSPost2010PropOp41
 70
     1
102
RTVSPost2010Prop42
 90
       50
102
RTVSPost2010PropOp42
 70
     1
102
RTVSPost2010Prop43
 90
        3
102
RTVSPost2010PropOp43
 70
     1
102
RTVSPost2010Prop44ColorIndex
 90
        5
102
RTVSPost2010Prop44ColorRGB
 90
      255
102
RTVSPost2010PropOp44
 70
     1
102
RTVSPost2010Prop45
280
     0
102
RTVSPost2010PropOp45
 70
     1
102
RTVSPost2010Prop46
 90
       50
102
RTVSPost2010PropOp46
 70
     1
102
RTVSPost2010Prop47
 90
       50
102
RTVSPost2010PropOp47
 70
     1
102
RTVSPost2010Prop48
 90
       50
102
RTVSPost2010PropOp48
 70
     1
102
RTVSPost2010Prop49
280
     0
102
RTVSPost2010PropOp49
 70
     1
102
RTVSPost2010Prop50
 90
       50
102
RTVSPost2010PropOp50
 70
     1
102
RTVSPost2010Prop51ColorIndex
 90
      256
102
RTVSPost2010Prop51ColorRGB
 90
-16777216
102
RTVSPost2010PropOp51
 70
     0
102
RTVSPost2010Prop52
140
1.0
102
RTVSPost2010PropOp52
 70
     0
102
RTVSPost2010Prop53
 90
        2
102
RTVSPost2010PropOp53
 70
     1
102
RTVSPost2010Prop54
  1
strokes_ogs.tif
102
RTVSPost2010PropOp54
 70
     1
102
RTVSPost2010Prop55
280
     0
102
RTVSPost2010PropOp55
 70
     1
102
RTVSPost2010Prop56
140
1.0
102
RTVSPost2010PropOp56
 70
     1
102
RTVSPost2010Prop57
140
1.0
102
RTVSPost2010PropOp57
 70
     1
102
RTVSPropertyOp0
 70
     1
102
RTVSPropertyOp1
 70
     1
102
RTVSPropertyOp2
 70
     1
102
RTVSPropertyOp3
 70
     1
102
RTVSPropertyOp4
 70
     1
102
RTVSPropertyOp5
 70
     1
102
RTVSPropertyOp6
 70
     1
102
RTVSPropertyOp7
 70
     1
102
RTVSPropertyOp8
 70
     1
102
RTVSPropertyOp9
 70
     1
102
RTVSPropertyOp10
 70
     1
102
RTVSPropertyOp11
 70
     1
102
RTVSPropertyOp12
 70
     1
102
RTVSPropertyOp13
 70
     1
102
RTVSPropertyOp14
 70
     1
102
RTVSPropertyOp15
 70
     1
102
RTVSPropertyOp16
 70
     1
102
RTVSPropertyOp17
 70
     1
102
RTVSPropertyOp18
 70
     1
102
RTVSPropertyOp19
 70
     1
102
RTVSPropertyOp20
 70
     1
102
RTVSPropertyOp21
 70
     1
102
RTVSPropertyOp22
 70
     1
102
RTVSPropertyOp23
 70
     1
102
RTVSPropertyOp24
 70
     1
102
RTVSPropertyOp25
 70
     1
102
RTVSPropertyOp26
 70
     1
102
RTVSPropertyOp27
 70
     1
102
RTVSPropertyOp28
 70
     1
102
RTVSPropertyOp29
 70
     1
102
RTVSPropertyOp30
 70
     1
102
RTVSPropertyOp31
 70
     1
102
RTVSPropertyOp32
 70
     1
102
RTVSPropertyOp33
 70
     1
102
RTVSPropertyOp34
 70
     1
102
RTVSPropertyOp35
 70
     1
102
RTVSPropertyOp36
 70
     1
102
RTVSPropertyOp37
 70
     1
102
RTVSPropertyOp38
 70
     1
102
RTVSPropertyOp39
 70
     1
102
RTVSPropertyOp40
 70
     1
102
RTVSPropertyOp41
 70
     1
102
RTVSPropertyOp42
 70
     1
102
RTVSPropertyOp43
 70
     1
102
RTVSPropertyOp44
 70
     1
102
RTVSPropertyOp45
 70
     1
102
RTVSPropertyOp46
 70
     1
102
RTVSPropertyOp47
 70
     1
102
RTVSPropertyOp48
 70
     1
102
RTVSPropertyOp49
 70
     1
102
RTVSPropertyOp50
 70
     1
102
RTVSPropertyOp51
 70
     0
102
RTVSPropertyOp52
 70
     0
102
RTVSPropertyOp53
 70
     1
102
RTVSPropertyOp54
 70
     1
102
RTVSPropertyOp55
 70
     1
102
RTVSPropertyOp56
 70
     1
102
RTVSPropertyOp57
 70
     1
102
RTVSPropertyOp58
 70
     1
102
RTVSPropertyOp59
 70
     1
102
RTVSPropertyOp60
 70
     1
102
RTVSPropertyOp61
 70
     1
102
RTVSPropertyOp62
 70
     1
  0
XRECORD
  5
5597
102
{ACAD_REACTORS
330
5596
102
}
330
5596
100
AcDbXrecord
280
     1
102
RTVSPost2010Prop28
280
     0
102
RTVSPost2010PropOp28
 70
     1
102
RTVSPost2010Prop29
280
     1
102
RTVSPost2010PropOp29
 70
     1
102
RTVSPost2010Prop30
280
     1
102
RTVSPost2010PropOp30
 70
     1
102
RTVSPost2010Prop31
280
     0
102
RTVSPost2010PropOp31
 70
     1
102
RTVSPost2010Prop32
280
     0
102
RTVSPost2010PropOp32
 70
     1
102
RTVSPost2010Prop33
280
     0
102
RTVSPost2010PropOp33
 70
     1
102
RTVSPost2010Prop34
280
     0
102
RTVSPost2010PropOp34
 70
     1
102
RTVSPost2010Prop35
280
     0
102
RTVSPost2010PropOp35
 70
     1
102
RTVSPost2010Prop36
280
     0
102
RTVSPost2010PropOp36
 70
     1
102
RTVSPost2010Prop37
 90
       50
102
RTVSPost2010PropOp37
 70
     1
102
RTVSPost2010Prop38
140
0.0
102
RTVSPost2010PropOp38
 70
     1
102
RTVSPost2010Prop39
140
1.0
102
RTVSPost2010PropOp39
 70
     1
102
RTVSPost2010Prop40
 90
        0
102
RTVSPost2010PropOp40
 70
     1
102
RTVSPost2010Prop41ColorIndex
 90
       18
102
RTVSPost2010Prop41ColorRGB
 90
        0
102
RTVSPost2010PropOp41
 70
     1
102
RTVSPost2010Prop42
 90
       50
102
RTVSPost2010PropOp42
 70
     1
102
RTVSPost2010Prop43
 90
        3
102
RTVSPost2010PropOp43
 70
     1
102
RTVSPost2010Prop44ColorIndex
 90
        5
102
RTVSPost2010Prop44ColorRGB
 90
      255
102
RTVSPost2010PropOp44
 70
     1
102
RTVSPost2010Prop45
280
     0
102
RTVSPost2010PropOp45
 70
     1
102
RTVSPost2010Prop46
 90
       50
102
RTVSPost2010PropOp46
 70
     1
102
RTVSPost2010Prop47
 90
       50
102
RTVSPost2010PropOp47
 70
     1
102
RTVSPost2010Prop48
 90
       50
102
RTVSPost2010PropOp48
 70
     1
102
RTVSPost2010Prop49
280
     0
102
RTVSPost2010PropOp49
 70
     1
102
RTVSPost2010Prop50
 90
       50
102
RTVSPost2010PropOp50
 70
     1
102
RTVSPost2010Prop51ColorIndex
 90
      256
102
RTVSPost2010Prop51ColorRGB
 90
-16777216
102
RTVSPost2010PropOp51
 70
     0
102
RTVSPost2010Prop52
140
1.0
102
RTVSPost2010PropOp52
 70
     0
102
RTVSPost2010Prop53
 90
        2
102
RTVSPost2010PropOp53
 70
     1
102
RTVSPost2010Prop54
  1
strokes_ogs.tif
102
RTVSPost2010PropOp54
 70
     1
102
RTVSPost2010Prop55
280
     0
102
RTVSPost2010PropOp55
 70
     1
102
RTVSPost2010Prop56
140
1.0
102
RTVSPost2010PropOp56
 70
     1
102
RTVSPost2010Prop57
140
1.0
102
RTVSPost2010PropOp57
 70
     1
102
RTVSPropertyOp0
 70
     1
102
RTVSPropertyOp1
 70
     1
102
RTVSPropertyOp2
 70
     1
102
RTVSPropertyOp3
 70
     1
102
RTVSPropertyOp4
 70
     1
102
RTVSPropertyOp5
 70
     1
102
RTVSPropertyOp6
 70
     1
102
RTVSPropertyOp7
 70
     1
102
RTVSPropertyOp8
 70
     1
102
RTVSPropertyOp9
 70
     1
102
RTVSPropertyOp10
 70
     1
102
RTVSPropertyOp11
 70
     1
102
RTVSPropertyOp12
 70
     1
102
RTVSPropertyOp13
 70
     1
102
RTVSPropertyOp14
 70
     1
102
RTVSPropertyOp15
 70
     1
102
RTVSPropertyOp16
 70
     1
102
RTVSPropertyOp17
 70
     1
102
RTVSPropertyOp18
 70
     1
102
RTVSPropertyOp19
 70
     1
102
RTVSPropertyOp20
 70
     1
102
RTVSPropertyOp21
 70
     1
102
RTVSPropertyOp22
 70
     1
102
RTVSPropertyOp23
 70
     1
102
RTVSPropertyOp24
 70
     1
102
RTVSPropertyOp25
 70
     1
102
RTVSPropertyOp26
 70
     1
102
RTVSPropertyOp27
 70
     1
102
RTVSPropertyOp28
 70
     1
102
RTVSPropertyOp29
 70
     1
102
RTVSPropertyOp30
 70
     1
102
RTVSPropertyOp31
 70
     1
102
RTVSPropertyOp32
 70
     1
102
RTVSPropertyOp33
 70
     1
102
RTVSPropertyOp34
 70
     1
102
RTVSPropertyOp35
 70
     1
102
RTVSPropertyOp36
 70
     1
102
RTVSPropertyOp37
 70
     1
102
RTVSPropertyOp38
 70
     1
102
RTVSPropertyOp39
 70
     1
102
RTVSPropertyOp40
 70
     1
102
RTVSPropertyOp41
 70
     1
102
RTVSPropertyOp42
 70
     1
102
RTVSPropertyOp43
 70
     1
102
RTVSPropertyOp44
 70
     1
102
RTVSPropertyOp45
 70
     1
102
RTVSPropertyOp46
 70
     1
102
RTVSPropertyOp47
 70
     1
102
RTVSPropertyOp48
 70
     1
102
RTVSPropertyOp49
 70
     1
102
RTVSPropertyOp50
 70
     1
102
RTVSPropertyOp51
 70
     0
102
RTVSPropertyOp52
 70
     0
102
RTVSPropertyOp53
 70
     1
102
RTVSPropertyOp54
 70
     1
102
RTVSPropertyOp55
 70
     1
102
RTVSPropertyOp56
 70
     1
102
RTVSPropertyOp57
 70
     1
102
RTVSPropertyOp58
 70
     1
102
RTVSPropertyOp59
 70
     1
102
RTVSPropertyOp60
 70
     1
102
RTVSPropertyOp61
 70
     1
102
RTVSPropertyOp62
 70
     1
  0
XRECORD
  5
5599
102
{ACAD_REACTORS
330
5598
102
}
330
5598
100
AcDbXrecord
280
     1
102
RTVSPost2010Prop28
280
     0
102
RTVSPost2010PropOp28
 70
     1
102
RTVSPost2010Prop29
280
     1
102
RTVSPost2010PropOp29
 70
     1
102
RTVSPost2010Prop30
280
     1
102
RTVSPost2010PropOp30
 70
     1
102
RTVSPost2010Prop31
280
     0
102
RTVSPost2010PropOp31
 70
     1
102
RTVSPost2010Prop32
280
     0
102
RTVSPost2010PropOp32
 70
     1
102
RTVSPost2010Prop33
280
     0
102
RTVSPost2010PropOp33
 70
     1
102
RTVSPost2010Prop34
280
     0
102
RTVSPost2010PropOp34
 70
     1
102
RTVSPost2010Prop35
280
     0
102
RTVSPost2010PropOp35
 70
     1
102
RTVSPost2010Prop36
280
     0
102
RTVSPost2010PropOp36
 70
     1
102
RTVSPost2010Prop37
 90
       50
102
RTVSPost2010PropOp37
 70
     1
102
RTVSPost2010Prop38
140
0.0
102
RTVSPost2010PropOp38
 70
     1
102
RTVSPost2010Prop39
140
1.0
102
RTVSPost2010PropOp39
 70
     1
102
RTVSPost2010Prop40
 90
        0
102
RTVSPost2010PropOp40
 70
     1
102
RTVSPost2010Prop41ColorIndex
 90
       18
102
RTVSPost2010Prop41ColorRGB
 90
        0
102
RTVSPost2010PropOp41
 70
     1
102
RTVSPost2010Prop42
 90
       50
102
RTVSPost2010PropOp42
 70
     1
102
RTVSPost2010Prop43
 90
        3
102
RTVSPost2010PropOp43
 70
     1
102
RTVSPost2010Prop44ColorIndex
 90
        5
102
RTVSPost2010Prop44ColorRGB
 90
      255
102
RTVSPost2010PropOp44
 70
     1
102
RTVSPost2010Prop45
280
     0
102
RTVSPost2010PropOp45
 70
     1
102
RTVSPost2010Prop46
 90
       50
102
RTVSPost2010PropOp46
 70
     1
102
RTVSPost2010Prop47
 90
       50
102
RTVSPost2010PropOp47
 70
     1
102
RTVSPost2010Prop48
 90
       50
102
RTVSPost2010PropOp48
 70
     1
102
RTVSPost2010Prop49
280
     0
102
RTVSPost2010PropOp49
 70
     1
102
RTVSPost2010Prop50
 90
       50
102
RTVSPost2010PropOp50
 70
     1
102
RTVSPost2010Prop51ColorIndex
 90
      256
102
RTVSPost2010Prop51ColorRGB
 90
-16777216
102
RTVSPost2010PropOp51
 70
     0
102
RTVSPost2010Prop52
140
1.0
102
RTVSPost2010PropOp52
 70
     0
102
RTVSPost2010Prop53
 90
        2
102
RTVSPost2010PropOp53
 70
     1
102
RTVSPost2010Prop54
  1
strokes_ogs.tif
102
RTVSPost2010PropOp54
 70
     1
102
RTVSPost2010Prop55
280
     0
102
RTVSPost2010PropOp55
 70
     1
102
RTVSPost2010Prop56
140
1.0
102
RTVSPost2010PropOp56
 70
     1
102
RTVSPost2010Prop57
140
1.0
102
RTVSPost2010PropOp57
 70
     1
102
RTVSPropertyOp0
 70
     1
102
RTVSPropertyOp1
 70
     1
102
RTVSPropertyOp2
 70
     1
102
RTVSPropertyOp3
 70
     1
102
RTVSPropertyOp4
 70
     1
102
RTVSPropertyOp5
 70
     1
102
RTVSPropertyOp6
 70
     1
102
RTVSPropertyOp7
 70
     1
102
RTVSPropertyOp8
 70
     1
102
RTVSPropertyOp9
 70
     1
102
RTVSPropertyOp10
 70
     1
102
RTVSPropertyOp11
 70
     1
102
RTVSPropertyOp12
 70
     1
102
RTVSPropertyOp13
 70
     1
102
RTVSPropertyOp14
 70
     1
102
RTVSPropertyOp15
 70
     1
102
RTVSPropertyOp16
 70
     1
102
RTVSPropertyOp17
 70
     1
102
RTVSPropertyOp18
 70
     1
102
RTVSPropertyOp19
 70
     1
102
RTVSPropertyOp20
 70
     1
102
RTVSPropertyOp21
 70
     1
102
RTVSPropertyOp22
 70
     1
102
RTVSPropertyOp23
 70
     1
102
RTVSPropertyOp24
 70
     1
102
RTVSPropertyOp25
 70
     1
102
RTVSPropertyOp26
 70
     1
102
RTVSPropertyOp27
 70
     1
102
RTVSPropertyOp28
 70
     1
102
RTVSPropertyOp29
 70
     1
102
RTVSPropertyOp30
 70
     1
102
RTVSPropertyOp31
 70
     1
102
RTVSPropertyOp32
 70
     1
102
RTVSPropertyOp33
 70
     1
102
RTVSPropertyOp34
 70
     1
102
RTVSPropertyOp35
 70
     1
102
RTVSPropertyOp36
 70
     1
102
RTVSPropertyOp37
 70
     1
102
RTVSPropertyOp38
 70
     1
102
RTVSPropertyOp39
 70
     1
102
RTVSPropertyOp40
 70
     1
102
RTVSPropertyOp41
 70
     1
102
RTVSPropertyOp42
 70
     1
102
RTVSPropertyOp43
 70
     1
102
RTVSPropertyOp44
 70
     1
102
RTVSPropertyOp45
 70
     1
102
RTVSPropertyOp46
 70
     1
102
RTVSPropertyOp47
 70
     1
102
RTVSPropertyOp48
 70
     1
102
RTVSPropertyOp49
 70
     1
102
RTVSPropertyOp50
 70
     1
102
RTVSPropertyOp51
 70
     0
102
RTVSPropertyOp52
 70
     0
102
RTVSPropertyOp53
 70
     1
102
RTVSPropertyOp54
 70
     1
102
RTVSPropertyOp55
 70
     1
102
RTVSPropertyOp56
 70
     1
102
RTVSPropertyOp57
 70
     1
102
RTVSPropertyOp58
 70
     1
102
RTVSPropertyOp59
 70
     1
102
RTVSPropertyOp60
 70
     1
102
RTVSPropertyOp61
 70
     1
102
RTVSPropertyOp62
 70
     1
  0
XRECORD
  5
55A1
102
{ACAD_REACTORS
330
55A0
102
}
330
55A0
100
AcDbXrecord
280
     1
102
RTVSPost2010Prop28
280
     0
102
RTVSPost2010PropOp28
 70
     1
102
RTVSPost2010Prop29
280
     1
102
RTVSPost2010PropOp29
 70
     1
102
RTVSPost2010Prop30
280
     1
102
RTVSPost2010PropOp30
 70
     1
102
RTVSPost2010Prop31
280
     0
102
RTVSPost2010PropOp31
 70
     1
102
RTVSPost2010Prop32
280
     0
102
RTVSPost2010PropOp32
 70
     1
102
RTVSPost2010Prop33
280
     0
102
RTVSPost2010PropOp33
 70
     1
102
RTVSPost2010Prop34
280
     0
102
RTVSPost2010PropOp34
 70
     1
102
RTVSPost2010Prop35
280
     0
102
RTVSPost2010PropOp35
 70
     1
102
RTVSPost2010Prop36
280
     0
102
RTVSPost2010PropOp36
 70
     1
102
RTVSPost2010Prop37
 90
       50
102
RTVSPost2010PropOp37
 70
     1
102
RTVSPost2010Prop38
140
0.0
102
RTVSPost2010PropOp38
 70
     1
102
RTVSPost2010Prop39
140
1.0
102
RTVSPost2010PropOp39
 70
     1
102
RTVSPost2010Prop40
 90
        0
102
RTVSPost2010PropOp40
 70
     1
102
RTVSPost2010Prop41ColorIndex
 90
       18
102
RTVSPost2010Prop41ColorRGB
 90
        0
102
RTVSPost2010PropOp41
 70
     1
102
RTVSPost2010Prop42
 90
       50
102
RTVSPost2010PropOp42
 70
     1
102
RTVSPost2010Prop43
 90
        3
102
RTVSPost2010PropOp43
 70
     1
102
RTVSPost2010Prop44ColorIndex
 90
        5
102
RTVSPost2010Prop44ColorRGB
 90
      255
102
RTVSPost2010PropOp44
 70
     1
102
RTVSPost2010Prop45
280
     0
102
RTVSPost2010PropOp45
 70
     1
102
RTVSPost2010Prop46
 90
       50
102
RTVSPost2010PropOp46
 70
     1
102
RTVSPost2010Prop47
 90
       50
102
RTVSPost2010PropOp47
 70
     1
102
RTVSPost2010Prop48
 90
       50
102
RTVSPost2010PropOp48
 70
     1
102
RTVSPost2010Prop49
280
     0
102
RTVSPost2010PropOp49
 70
     1
102
RTVSPost2010Prop50
 90
       50
102
RTVSPost2010PropOp50
 70
     1
102
RTVSPost2010Prop51ColorIndex
 90
      256
102
RTVSPost2010Prop51ColorRGB
 90
-16777216
102
RTVSPost2010PropOp51
 70
     0
102
RTVSPost2010Prop52
140
1.0
102
RTVSPost2010PropOp52
 70
     0
102
RTVSPost2010Prop53
 90
        2
102
RTVSPost2010PropOp53
 70
     1
102
RTVSPost2010Prop54
  1
strokes_ogs.tif
102
RTVSPost2010PropOp54
 70
     1
102
RTVSPost2010Prop55
280
     0
102
RTVSPost2010PropOp55
 70
     1
102
RTVSPost2010Prop56
140
1.0
102
RTVSPost2010PropOp56
 70
     1
102
RTVSPost2010Prop57
140
1.0
102
RTVSPost2010PropOp57
 70
     1
102
RTVSPropertyOp0
 70
     1
102
RTVSPropertyOp1
 70
     1
102
RTVSPropertyOp2
 70
     1
102
RTVSPropertyOp3
 70
     1
102
RTVSPropertyOp4
 70
     1
102
RTVSPropertyOp5
 70
     1
102
RTVSPropertyOp6
 70
     1
102
RTVSPropertyOp7
 70
     1
102
RTVSPropertyOp8
 70
     1
102
RTVSPropertyOp9
 70
     1
102
RTVSPropertyOp10
 70
     1
102
RTVSPropertyOp11
 70
     1
102
RTVSPropertyOp12
 70
     1
102
RTVSPropertyOp13
 70
     1
102
RTVSPropertyOp14
 70
     1
102
RTVSPropertyOp15
 70
     1
102
RTVSPropertyOp16
 70
     1
102
RTVSPropertyOp17
 70
     1
102
RTVSPropertyOp18
 70
     1
102
RTVSPropertyOp19
 70
     1
102
RTVSPropertyOp20
 70
     1
102
RTVSPropertyOp21
 70
     1
102
RTVSPropertyOp22
 70
     1
102
RTVSPropertyOp23
 70
     1
102
RTVSPropertyOp24
 70
     1
102
RTVSPropertyOp25
 70
     1
102
RTVSPropertyOp26
 70
     1
102
RTVSPropertyOp27
 70
     1
102
RTVSPropertyOp28
 70
     1
102
RTVSPropertyOp29
 70
     1
102
RTVSPropertyOp30
 70
     1
102
RTVSPropertyOp31
 70
     1
102
RTVSPropertyOp32
 70
     1
102
RTVSPropertyOp33
 70
     1
102
RTVSPropertyOp34
 70
     1
102
RTVSPropertyOp35
 70
     1
102
RTVSPropertyOp36
 70
     1
102
RTVSPropertyOp37
 70
     1
102
RTVSPropertyOp38
 70
     1
102
RTVSPropertyOp39
 70
     1
102
RTVSPropertyOp40
 70
     1
102
RTVSPropertyOp41
 70
     1
102
RTVSPropertyOp42
 70
     1
102
RTVSPropertyOp43
 70
     1
102
RTVSPropertyOp44
 70
     1
102
RTVSPropertyOp45
 70
     1
102
RTVSPropertyOp46
 70
     1
102
RTVSPropertyOp47
 70
     1
102
RTVSPropertyOp48
 70
     1
102
RTVSPropertyOp49
 70
     1
102
RTVSPropertyOp50
 70
     1
102
RTVSPropertyOp51
 70
     0
102
RTVSPropertyOp52
 70
     0
102
RTVSPropertyOp53
 70
     1
102
RTVSPropertyOp54
 70
     1
102
RTVSPropertyOp55
 70
     1
102
RTVSPropertyOp56
 70
     1
102
RTVSPropertyOp57
 70
     1
102
RTVSPropertyOp58
 70
     1
102
RTVSPropertyOp59
 70
     1
102
RTVSPropertyOp60
 70
     1
102
RTVSPropertyOp61
 70
     1
102
RTVSPropertyOp62
 70
     1
  0
XRECORD
  5
55BD
102
{ACAD_REACTORS
330
55BC
102
}
330
55BC
100
AcDbXrecord
280
     1
102
RTVSPost2010Prop28
280
     0
102
RTVSPost2010PropOp28
 70
     1
102
RTVSPost2010Prop29
280
     1
102
RTVSPost2010PropOp29
 70
     1
102
RTVSPost2010Prop30
280
     1
102
RTVSPost2010PropOp30
 70
     1
102
RTVSPost2010Prop31
280
     0
102
RTVSPost2010PropOp31
 70
     1
102
RTVSPost2010Prop32
280
     0
102
RTVSPost2010PropOp32
 70
     1
102
RTVSPost2010Prop33
280
     0
102
RTVSPost2010PropOp33
 70
     1
102
RTVSPost2010Prop34
280
     0
102
RTVSPost2010PropOp34
 70
     1
102
RTVSPost2010Prop35
280
     0
102
RTVSPost2010PropOp35
 70
     1
102
RTVSPost2010Prop36
280
     0
102
RTVSPost2010PropOp36
 70
     1
102
RTVSPost2010Prop37
 90
       50
102
RTVSPost2010PropOp37
 70
     0
102
RTVSPost2010Prop38
140
0.0
102
RTVSPost2010PropOp38
 70
     0
102
RTVSPost2010Prop39
140
1.0
102
RTVSPost2010PropOp39
 70
     0
102
RTVSPost2010Prop40
 90
        0
102
RTVSPost2010PropOp40
 70
     0
102
RTVSPost2010Prop41ColorIndex
 90
       18
102
RTVSPost2010Prop41ColorRGB
 90
        0
102
RTVSPost2010PropOp41
 70
     0
102
RTVSPost2010Prop42
 90
       50
102
RTVSPost2010PropOp42
 70
     0
102
RTVSPost2010Prop43
 90
        3
102
RTVSPost2010PropOp43
 70
     0
102
RTVSPost2010Prop44ColorIndex
 90
        5
102
RTVSPost2010Prop44ColorRGB
 90
      255
102
RTVSPost2010PropOp44
 70
     0
102
RTVSPost2010Prop45
280
     0
102
RTVSPost2010PropOp45
 70
     1
102
RTVSPost2010Prop46
 90
       50
102
RTVSPost2010PropOp46
 70
     0
102
RTVSPost2010Prop47
 90
       50
102
RTVSPost2010PropOp47
 70
     0
102
RTVSPost2010Prop48
 90
       50
102
RTVSPost2010PropOp48
 70
     0
102
RTVSPost2010Prop49
280
     0
102
RTVSPost2010PropOp49
 70
     1
102
RTVSPost2010Prop50
 90
       50
102
RTVSPost2010PropOp50
 70
     0
102
RTVSPost2010Prop51ColorIndex
 90
      256
102
RTVSPost2010Prop51ColorRGB
 90
-16777216
102
RTVSPost2010PropOp51
 70
     0
102
RTVSPost2010Prop52
140
1.0
102
RTVSPost2010PropOp52
 70
     0
102
RTVSPost2010Prop53
 90
        2
102
RTVSPost2010PropOp53
 70
     0
102
RTVSPost2010Prop54
  1
strokes_ogs.tif
102
RTVSPost2010PropOp54
 70
     0
102
RTVSPost2010Prop55
280
     0
102
RTVSPost2010PropOp55
 70
     1
102
RTVSPost2010Prop56
140
1.0
102
RTVSPost2010PropOp56
 70
     0
102
RTVSPost2010Prop57
140
1.0
102
RTVSPost2010PropOp57
 70
     0
102
RTVSPropertyOp0
 70
     0
102
RTVSPropertyOp1
 70
     0
102
RTVSPropertyOp2
 70
     0
102
RTVSPropertyOp3
 70
     0
102
RTVSPropertyOp4
 70
     0
102
RTVSPropertyOp5
 70
     0
102
RTVSPropertyOp6
 70
     0
102
RTVSPropertyOp7
 70
     0
102
RTVSPropertyOp8
 70
     0
102
RTVSPropertyOp9
 70
     0
102
RTVSPropertyOp10
 70
     0
102
RTVSPropertyOp11
 70
     0
102
RTVSPropertyOp12
 70
     0
102
RTVSPropertyOp13
 70
     0
102
RTVSPropertyOp14
 70
     2
102
RTVSPropertyOp15
 70
     0
102
RTVSPropertyOp16
 70
     0
102
RTVSPropertyOp17
 70
     0
102
RTVSPropertyOp18
 70
     0
102
RTVSPropertyOp19
 70
     0
102
RTVSPropertyOp20
 70
     0
102
RTVSPropertyOp21
 70
     0
102
RTVSPropertyOp22
 70
     0
102
RTVSPropertyOp23
 70
     0
102
RTVSPropertyOp24
 70
     0
102
RTVSPropertyOp25
 70
     0
102
RTVSPropertyOp26
 70
     0
102
RTVSPropertyOp27
 70
     0
102
RTVSPropertyOp28
 70
     1
102
RTVSPropertyOp29
 70
     1
102
RTVSPropertyOp30
 70
     1
102
RTVSPropertyOp31
 70
     1
102
RTVSPropertyOp32
 70
     1
102
RTVSPropertyOp33
 70
     1
102
RTVSPropertyOp34
 70
     1
102
RTVSPropertyOp35
 70
     1
102
RTVSPropertyOp36
 70
     1
102
RTVSPropertyOp37
 70
     0
102
RTVSPropertyOp38
 70
     0
102
RTVSPropertyOp39
 70
     0
102
RTVSPropertyOp40
 70
     0
102
RTVSPropertyOp41
 70
     0
102
RTVSPropertyOp42
 70
     0
102
RTVSPropertyOp43
 70
     0
102
RTVSPropertyOp44
 70
     0
102
RTVSPropertyOp45
 70
     1
102
RTVSPropertyOp46
 70
     0
102
RTVSPropertyOp47
 70
     0
102
RTVSPropertyOp48
 70
     0
102
RTVSPropertyOp49
 70
     1
102
RTVSPropertyOp50
 70
     0
102
RTVSPropertyOp51
 70
     0
102
RTVSPropertyOp52
 70
     0
102
RTVSPropertyOp53
 70
     0
102
RTVSPropertyOp54
 70
     0
102
RTVSPropertyOp55
 70
     1
102
RTVSPropertyOp56
 70
     0
102
RTVSPropertyOp57
 70
     0
102
RTVSPropertyOp58
 70
     0
102
RTVSPropertyOp59
 70
     0
102
RTVSPropertyOp60
 70
     0
102
RTVSPropertyOp61
 70
     0
102
RTVSPropertyOp62
 70
     0
  0
XRECORD
  5
55AD
102
{ACAD_REACTORS
330
55AC
102
}
330
55AC
100
AcDbXrecord
280
     1
102
RTVSPost2010Prop28
280
     0
102
RTVSPost2010PropOp28
 70
     1
102
RTVSPost2010Prop29
280
     1
102
RTVSPost2010PropOp29
 70
     1
102
RTVSPost2010Prop30
280
     1
102
RTVSPost2010PropOp30
 70
     1
102
RTVSPost2010Prop31
280
     0
102
RTVSPost2010PropOp31
 70
     1
102
RTVSPost2010Prop32
280
     0
102
RTVSPost2010PropOp32
 70
     1
102
RTVSPost2010Prop33
280
     0
102
RTVSPost2010PropOp33
 70
     1
102
RTVSPost2010Prop34
280
     0
102
RTVSPost2010PropOp34
 70
     1
102
RTVSPost2010Prop35
280
     0
102
RTVSPost2010PropOp35
 70
     1
102
RTVSPost2010Prop36
280
     0
102
RTVSPost2010PropOp36
 70
     1
102
RTVSPost2010Prop37
 90
       50
102
RTVSPost2010PropOp37
 70
     1
102
RTVSPost2010Prop38
140
0.0
102
RTVSPost2010PropOp38
 70
     1
102
RTVSPost2010Prop39
140
1.0
102
RTVSPost2010PropOp39
 70
     1
102
RTVSPost2010Prop40
 90
        0
102
RTVSPost2010PropOp40
 70
     1
102
RTVSPost2010Prop41ColorIndex
 90
       18
102
RTVSPost2010Prop41ColorRGB
 90
        0
102
RTVSPost2010PropOp41
 70
     1
102
RTVSPost2010Prop42
 90
       50
102
RTVSPost2010PropOp42
 70
     1
102
RTVSPost2010Prop43
 90
        3
102
RTVSPost2010PropOp43
 70
     1
102
RTVSPost2010Prop44ColorIndex
 90
        5
102
RTVSPost2010Prop44ColorRGB
 90
      255
102
RTVSPost2010PropOp44
 70
     1
102
RTVSPost2010Prop45
280
     0
102
RTVSPost2010PropOp45
 70
     1
102
RTVSPost2010Prop46
 90
       50
102
RTVSPost2010PropOp46
 70
     1
102
RTVSPost2010Prop47
 90
       50
102
RTVSPost2010PropOp47
 70
     1
102
RTVSPost2010Prop48
 90
       50
102
RTVSPost2010PropOp48
 70
     1
102
RTVSPost2010Prop49
280
     0
102
RTVSPost2010PropOp49
 70
     1
102
RTVSPost2010Prop50
 90
       50
102
RTVSPost2010PropOp50
 70
     1
102
RTVSPost2010Prop51ColorIndex
 90
      256
102
RTVSPost2010Prop51ColorRGB
 90
-16777216
102
RTVSPost2010PropOp51
 70
     0
102
RTVSPost2010Prop52
140
1.0
102
RTVSPost2010PropOp52
 70
     0
102
RTVSPost2010Prop53
 90
        2
102
RTVSPost2010PropOp53
 70
     1
102
RTVSPost2010Prop54
  1
strokes_ogs.tif
102
RTVSPost2010PropOp54
 70
     1
102
RTVSPost2010Prop55
280
     0
102
RTVSPost2010PropOp55
 70
     1
102
RTVSPost2010Prop56
140
1.0
102
RTVSPost2010PropOp56
 70
     1
102
RTVSPost2010Prop57
140
1.0
102
RTVSPost2010PropOp57
 70
     1
102
RTVSPropertyOp0
 70
     1
102
RTVSPropertyOp1
 70
     1
102
RTVSPropertyOp2
 70
     1
102
RTVSPropertyOp3
 70
     1
102
RTVSPropertyOp4
 70
     1
102
RTVSPropertyOp5
 70
     1
102
RTVSPropertyOp6
 70
     1
102
RTVSPropertyOp7
 70
     1
102
RTVSPropertyOp8
 70
     1
102
RTVSPropertyOp9
 70
     1
102
RTVSPropertyOp10
 70
     1
102
RTVSPropertyOp11
 70
     1
102
RTVSPropertyOp12
 70
     1
102
RTVSPropertyOp13
 70
     1
102
RTVSPropertyOp14
 70
     1
102
RTVSPropertyOp15
 70
     1
102
RTVSPropertyOp16
 70
     1
102
RTVSPropertyOp17
 70
     1
102
RTVSPropertyOp18
 70
     1
102
RTVSPropertyOp19
 70
     1
102
RTVSPropertyOp20
 70
     1
102
RTVSPropertyOp21
 70
     1
102
RTVSPropertyOp22
 70
     1
102
RTVSPropertyOp23
 70
     1
102
RTVSPropertyOp24
 70
     1
102
RTVSPropertyOp25
 70
     1
102
RTVSPropertyOp26
 70
     1
102
RTVSPropertyOp27
 70
     1
102
RTVSPropertyOp28
 70
     1
102
RTVSPropertyOp29
 70
     1
102
RTVSPropertyOp30
 70
     1
102
RTVSPropertyOp31
 70
     1
102
RTVSPropertyOp32
 70
     1
102
RTVSPropertyOp33
 70
     1
102
RTVSPropertyOp34
 70
     1
102
RTVSPropertyOp35
 70
     1
102
RTVSPropertyOp36
 70
     1
102
RTVSPropertyOp37
 70
     1
102
RTVSPropertyOp38
 70
     1
102
RTVSPropertyOp39
 70
     1
102
RTVSPropertyOp40
 70
     1
102
RTVSPropertyOp41
 70
     1
102
RTVSPropertyOp42
 70
     1
102
RTVSPropertyOp43
 70
     1
102
RTVSPropertyOp44
 70
     1
102
RTVSPropertyOp45
 70
     1
102
RTVSPropertyOp46
 70
     1
102
RTVSPropertyOp47
 70
     1
102
RTVSPropertyOp48
 70
     1
102
RTVSPropertyOp49
 70
     1
102
RTVSPropertyOp50
 70
     1
102
RTVSPropertyOp51
 70
     0
102
RTVSPropertyOp52
 70
     0
102
RTVSPropertyOp53
 70
     1
102
RTVSPropertyOp54
 70
     1
102
RTVSPropertyOp55
 70
     1
102
RTVSPropertyOp56
 70
     1
102
RTVSPropertyOp57
 70
     1
102
RTVSPropertyOp58
 70
     1
102
RTVSPropertyOp59
 70
     1
102
RTVSPropertyOp60
 70
     1
102
RTVSPropertyOp61
 70
     1
102
RTVSPropertyOp62
 70
     1
  0
XRECORD
  5
55BF
102
{ACAD_REACTORS
330
55BE
102
}
330
55BE
100
AcDbXrecord
280
     1
102
RTVSPost2010Prop28
280
     0
102
RTVSPost2010PropOp28
 70
     1
102
RTVSPost2010Prop29
280
     1
102
RTVSPost2010PropOp29
 70
     1
102
RTVSPost2010Prop30
280
     1
102
RTVSPost2010PropOp30
 70
     1
102
RTVSPost2010Prop31
280
     0
102
RTVSPost2010PropOp31
 70
     1
102
RTVSPost2010Prop32
280
     0
102
RTVSPost2010PropOp32
 70
     1
102
RTVSPost2010Prop33
280
     0
102
RTVSPost2010PropOp33
 70
     1
102
RTVSPost2010Prop34
280
     0
102
RTVSPost2010PropOp34
 70
     1
102
RTVSPost2010Prop35
280
     0
102
RTVSPost2010PropOp35
 70
     1
102
RTVSPost2010Prop36
280
     0
102
RTVSPost2010PropOp36
 70
     1
102
RTVSPost2010Prop37
 90
       50
102
RTVSPost2010PropOp37
 70
     0
102
RTVSPost2010Prop38
140
0.0
102
RTVSPost2010PropOp38
 70
     0
102
RTVSPost2010Prop39
140
1.0
102
RTVSPost2010PropOp39
 70
     0
102
RTVSPost2010Prop40
 90
        0
102
RTVSPost2010PropOp40
 70
     0
102
RTVSPost2010Prop41ColorIndex
 90
       18
102
RTVSPost2010Prop41ColorRGB
 90
        0
102
RTVSPost2010PropOp41
 70
     0
102
RTVSPost2010Prop42
 90
       50
102
RTVSPost2010PropOp42
 70
     0
102
RTVSPost2010Prop43
 90
        3
102
RTVSPost2010PropOp43
 70
     0
102
RTVSPost2010Prop44ColorIndex
 90
        5
102
RTVSPost2010Prop44ColorRGB
 90
      255
102
RTVSPost2010PropOp44
 70
     0
102
RTVSPost2010Prop45
280
     0
102
RTVSPost2010PropOp45
 70
     1
102
RTVSPost2010Prop46
 90
       50
102
RTVSPost2010PropOp46
 70
     0
102
RTVSPost2010Prop47
 90
       50
102
RTVSPost2010PropOp47
 70
     0
102
RTVSPost2010Prop48
 90
       50
102
RTVSPost2010PropOp48
 70
     0
102
RTVSPost2010Prop49
280
     0
102
RTVSPost2010PropOp49
 70
     1
102
RTVSPost2010Prop50
 90
       50
102
RTVSPost2010PropOp50
 70
     0
102
RTVSPost2010Prop51ColorIndex
 90
      256
102
RTVSPost2010Prop51ColorRGB
 90
-16777216
102
RTVSPost2010PropOp51
 70
     0
102
RTVSPost2010Prop52
140
1.0
102
RTVSPost2010PropOp52
 70
     0
102
RTVSPost2010Prop53
 90
        2
102
RTVSPost2010PropOp53
 70
     0
102
RTVSPost2010Prop54
  1
strokes_ogs.tif
102
RTVSPost2010PropOp54
 70
     0
102
RTVSPost2010Prop55
280
     0
102
RTVSPost2010PropOp55
 70
     1
102
RTVSPost2010Prop56
140
1.0
102
RTVSPost2010PropOp56
 70
     0
102
RTVSPost2010Prop57
140
1.0
102
RTVSPost2010PropOp57
 70
     0
102
RTVSPropertyOp0
 70
     0
102
RTVSPropertyOp1
 70
     0
102
RTVSPropertyOp2
 70
     0
102
RTVSPropertyOp3
 70
     0
102
RTVSPropertyOp4
 70
     0
102
RTVSPropertyOp5
 70
     0
102
RTVSPropertyOp6
 70
     0
102
RTVSPropertyOp7
 70
     0
102
RTVSPropertyOp8
 70
     0
102
RTVSPropertyOp9
 70
     0
102
RTVSPropertyOp10
 70
     0
102
RTVSPropertyOp11
 70
     0
102
RTVSPropertyOp12
 70
     0
102
RTVSPropertyOp13
 70
     0
102
RTVSPropertyOp14
 70
     2
102
RTVSPropertyOp15
 70
     0
102
RTVSPropertyOp16
 70
     0
102
RTVSPropertyOp17
 70
     0
102
RTVSPropertyOp18
 70
     0
102
RTVSPropertyOp19
 70
     0
102
RTVSPropertyOp20
 70
     0
102
RTVSPropertyOp21
 70
     0
102
RTVSPropertyOp22
 70
     0
102
RTVSPropertyOp23
 70
     0
102
RTVSPropertyOp24
 70
     0
102
RTVSPropertyOp25
 70
     0
102
RTVSPropertyOp26
 70
     0
102
RTVSPropertyOp27
 70
     0
102
RTVSPropertyOp28
 70
     1
102
RTVSPropertyOp29
 70
     1
102
RTVSPropertyOp30
 70
     1
102
RTVSPropertyOp31
 70
     1
102
RTVSPropertyOp32
 70
     1
102
RTVSPropertyOp33
 70
     1
102
RTVSPropertyOp34
 70
     1
102
RTVSPropertyOp35
 70
     1
102
RTVSPropertyOp36
 70
     1
102
RTVSPropertyOp37
 70
     0
102
RTVSPropertyOp38
 70
     0
102
RTVSPropertyOp39
 70
     0
102
RTVSPropertyOp40
 70
     0
102
RTVSPropertyOp41
 70
     0
102
RTVSPropertyOp42
 70
     0
102
RTVSPropertyOp43
 70
     0
102
RTVSPropertyOp44
 70
     0
102
RTVSPropertyOp45
 70
     1
102
RTVSPropertyOp46
 70
     0
102
RTVSPropertyOp47
 70
     0
102
RTVSPropertyOp48
 70
     0
102
RTVSPropertyOp49
 70
     1
102
RTVSPropertyOp50
 70
     0
102
RTVSPropertyOp51
 70
     0
102
RTVSPropertyOp52
 70
     0
102
RTVSPropertyOp53
 70
     0
102
RTVSPropertyOp54
 70
     0
102
RTVSPropertyOp55
 70
     1
102
RTVSPropertyOp56
 70
     0
102
RTVSPropertyOp57
 70
     0
102
RTVSPropertyOp58
 70
     0
102
RTVSPropertyOp59
 70
     0
102
RTVSPropertyOp60
 70
     0
102
RTVSPropertyOp61
 70
     0
102
RTVSPropertyOp62
 70
     0
  0
XRECORD
  5
55A5
102
{ACAD_REACTORS
330
55A4
102
}
330
55A4
100
AcDbXrecord
280
     1
102
RTVSPost2010Prop28
280
     0
102
RTVSPost2010PropOp28
 70
     1
102
RTVSPost2010Prop29
280
     1
102
RTVSPost2010PropOp29
 70
     1
102
RTVSPost2010Prop30
280
     1
102
RTVSPost2010PropOp30
 70
     1
102
RTVSPost2010Prop31
280
     0
102
RTVSPost2010PropOp31
 70
     1
102
RTVSPost2010Prop32
280
     0
102
RTVSPost2010PropOp32
 70
     1
102
RTVSPost2010Prop33
280
     0
102
RTVSPost2010PropOp33
 70
     1
102
RTVSPost2010Prop34
280
     0
102
RTVSPost2010PropOp34
 70
     1
102
RTVSPost2010Prop35
280
     0
102
RTVSPost2010PropOp35
 70
     1
102
RTVSPost2010Prop36
280
     0
102
RTVSPost2010PropOp36
 70
     1
102
RTVSPost2010Prop37
 90
       50
102
RTVSPost2010PropOp37
 70
     1
102
RTVSPost2010Prop38
140
0.0
102
RTVSPost2010PropOp38
 70
     1
102
RTVSPost2010Prop39
140
1.0
102
RTVSPost2010PropOp39
 70
     1
102
RTVSPost2010Prop40
 90
        0
102
RTVSPost2010PropOp40
 70
     1
102
RTVSPost2010Prop41ColorIndex
 90
       18
102
RTVSPost2010Prop41ColorRGB
 90
        0
102
RTVSPost2010PropOp41
 70
     1
102
RTVSPost2010Prop42
 90
       50
102
RTVSPost2010PropOp42
 70
     1
102
RTVSPost2010Prop43
 90
        3
102
RTVSPost2010PropOp43
 70
     1
102
RTVSPost2010Prop44ColorIndex
 90
        5
102
RTVSPost2010Prop44ColorRGB
 90
      255
102
RTVSPost2010PropOp44
 70
     1
102
RTVSPost2010Prop45
280
     0
102
RTVSPost2010PropOp45
 70
     1
102
RTVSPost2010Prop46
 90
       50
102
RTVSPost2010PropOp46
 70
     1
102
RTVSPost2010Prop47
 90
       50
102
RTVSPost2010PropOp47
 70
     1
102
RTVSPost2010Prop48
 90
       50
102
RTVSPost2010PropOp48
 70
     1
102
RTVSPost2010Prop49
280
     0
102
RTVSPost2010PropOp49
 70
     1
102
RTVSPost2010Prop50
 90
       50
102
RTVSPost2010PropOp50
 70
     1
102
RTVSPost2010Prop51ColorIndex
 90
      256
102
RTVSPost2010Prop51ColorRGB
 90
-16777216
102
RTVSPost2010PropOp51
 70
     0
102
RTVSPost2010Prop52
140
1.0
102
RTVSPost2010PropOp52
 70
     0
102
RTVSPost2010Prop53
 90
        2
102
RTVSPost2010PropOp53
 70
     1
102
RTVSPost2010Prop54
  1
strokes_ogs.tif
102
RTVSPost2010PropOp54
 70
     1
102
RTVSPost2010Prop55
280
     0
102
RTVSPost2010PropOp55
 70
     1
102
RTVSPost2010Prop56
140
1.0
102
RTVSPost2010PropOp56
 70
     1
102
RTVSPost2010Prop57
140
1.0
102
RTVSPost2010PropOp57
 70
     1
102
RTVSPropertyOp0
 70
     1
102
RTVSPropertyOp1
 70
     1
102
RTVSPropertyOp2
 70
     1
102
RTVSPropertyOp3
 70
     1
102
RTVSPropertyOp4
 70
     1
102
RTVSPropertyOp5
 70
     1
102
RTVSPropertyOp6
 70
     1
102
RTVSPropertyOp7
 70
     1
102
RTVSPropertyOp8
 70
     1
102
RTVSPropertyOp9
 70
     1
102
RTVSPropertyOp10
 70
     1
102
RTVSPropertyOp11
 70
     1
102
RTVSPropertyOp12
 70
     1
102
RTVSPropertyOp13
 70
     1
102
RTVSPropertyOp14
 70
     1
102
RTVSPropertyOp15
 70
     1
102
RTVSPropertyOp16
 70
     1
102
RTVSPropertyOp17
 70
     1
102
RTVSPropertyOp18
 70
     1
102
RTVSPropertyOp19
 70
     1
102
RTVSPropertyOp20
 70
     1
102
RTVSPropertyOp21
 70
     1
102
RTVSPropertyOp22
 70
     1
102
RTVSPropertyOp23
 70
     1
102
RTVSPropertyOp24
 70
     1
102
RTVSPropertyOp25
 70
     1
102
RTVSPropertyOp26
 70
     1
102
RTVSPropertyOp27
 70
     1
102
RTVSPropertyOp28
 70
     1
102
RTVSPropertyOp29
 70
     1
102
RTVSPropertyOp30
 70
     1
102
RTVSPropertyOp31
 70
     1
102
RTVSPropertyOp32
 70
     1
102
RTVSPropertyOp33
 70
     1
102
RTVSPropertyOp34
 70
     1
102
RTVSPropertyOp35
 70
     1
102
RTVSPropertyOp36
 70
     1
102
RTVSPropertyOp37
 70
     1
102
RTVSPropertyOp38
 70
     1
102
RTVSPropertyOp39
 70
     1
102
RTVSPropertyOp40
 70
     1
102
RTVSPropertyOp41
 70
     1
102
RTVSPropertyOp42
 70
     1
102
RTVSPropertyOp43
 70
     1
102
RTVSPropertyOp44
 70
     1
102
RTVSPropertyOp45
 70
     1
102
RTVSPropertyOp46
 70
     1
102
RTVSPropertyOp47
 70
     1
102
RTVSPropertyOp48
 70
     1
102
RTVSPropertyOp49
 70
     1
102
RTVSPropertyOp50
 70
     1
102
RTVSPropertyOp51
 70
     0
102
RTVSPropertyOp52
 70
     0
102
RTVSPropertyOp53
 70
     1
102
RTVSPropertyOp54
 70
     1
102
RTVSPropertyOp55
 70
     1
102
RTVSPropertyOp56
 70
     1
102
RTVSPropertyOp57
 70
     1
102
RTVSPropertyOp58
 70
     1
102
RTVSPropertyOp59
 70
     1
102
RTVSPropertyOp60
 70
     1
102
RTVSPropertyOp61
 70
     1
102
RTVSPropertyOp62
 70
     1
  0
XRECORD
  5
55BB
102
{ACAD_REACTORS
330
55BA
102
}
330
55BA
100
AcDbXrecord
280
     1
102
RTVSPost2010Prop28
280
     0
102
RTVSPost2010PropOp28
 70
     1
102
RTVSPost2010Prop29
280
     1
102
RTVSPost2010PropOp29
 70
     1
102
RTVSPost2010Prop30
280
     1
102
RTVSPost2010PropOp30
 70
     1
102
RTVSPost2010Prop31
280
     0
102
RTVSPost2010PropOp31
 70
     1
102
RTVSPost2010Prop32
280
     0
102
RTVSPost2010PropOp32
 70
     1
102
RTVSPost2010Prop33
280
     0
102
RTVSPost2010PropOp33
 70
     1
102
RTVSPost2010Prop34
280
     0
102
RTVSPost2010PropOp34
 70
     1
102
RTVSPost2010Prop35
280
     0
102
RTVSPost2010PropOp35
 70
     1
102
RTVSPost2010Prop36
280
     0
102
RTVSPost2010PropOp36
 70
     1
102
RTVSPost2010Prop37
 90
       50
102
RTVSPost2010PropOp37
 70
     1
102
RTVSPost2010Prop38
140
0.0
102
RTVSPost2010PropOp38
 70
     1
102
RTVSPost2010Prop39
140
1.0
102
RTVSPost2010PropOp39
 70
     1
102
RTVSPost2010Prop40
 90
        0
102
RTVSPost2010PropOp40
 70
     1
102
RTVSPost2010Prop41ColorIndex
 90
       18
102
RTVSPost2010Prop41ColorRGB
 90
        0
102
RTVSPost2010PropOp41
 70
     1
102
RTVSPost2010Prop42
 90
       50
102
RTVSPost2010PropOp42
 70
     1
102
RTVSPost2010Prop43
 90
        3
102
RTVSPost2010PropOp43
 70
     1
102
RTVSPost2010Prop44ColorIndex
 90
        5
102
RTVSPost2010Prop44ColorRGB
 90
      255
102
RTVSPost2010PropOp44
 70
     1
102
RTVSPost2010Prop45
280
     0
102
RTVSPost2010PropOp45
 70
     1
102
RTVSPost2010Prop46
 90
       50
102
RTVSPost2010PropOp46
 70
     1
102
RTVSPost2010Prop47
 90
       50
102
RTVSPost2010PropOp47
 70
     1
102
RTVSPost2010Prop48
 90
       50
102
RTVSPost2010PropOp48
 70
     1
102
RTVSPost2010Prop49
280
     0
102
RTVSPost2010PropOp49
 70
     1
102
RTVSPost2010Prop50
 90
       50
102
RTVSPost2010PropOp50
 70
     1
102
RTVSPost2010Prop51ColorIndex
 90
      256
102
RTVSPost2010Prop51ColorRGB
 90
-16777216
102
RTVSPost2010PropOp51
 70
     0
102
RTVSPost2010Prop52
140
1.0
102
RTVSPost2010PropOp52
 70
     0
102
RTVSPost2010Prop53
 90
        2
102
RTVSPost2010PropOp53
 70
     1
102
RTVSPost2010Prop54
  1
strokes_ogs.tif
102
RTVSPost2010PropOp54
 70
     1
102
RTVSPost2010Prop55
280
     0
102
RTVSPost2010PropOp55
 70
     1
102
RTVSPost2010Prop56
140
1.0
102
RTVSPost2010PropOp56
 70
     1
102
RTVSPost2010Prop57
140
1.0
102
RTVSPost2010PropOp57
 70
     1
102
RTVSPropertyOp0
 70
     1
102
RTVSPropertyOp1
 70
     1
102
RTVSPropertyOp2
 70
     1
102
RTVSPropertyOp3
 70
     1
102
RTVSPropertyOp4
 70
     1
102
RTVSPropertyOp5
 70
     1
102
RTVSPropertyOp6
 70
     1
102
RTVSPropertyOp7
 70
     1
102
RTVSPropertyOp8
 70
     1
102
RTVSPropertyOp9
 70
     1
102
RTVSPropertyOp10
 70
     1
102
RTVSPropertyOp11
 70
     1
102
RTVSPropertyOp12
 70
     1
102
RTVSPropertyOp13
 70
     1
102
RTVSPropertyOp14
 70
     1
102
RTVSPropertyOp15
 70
     1
102
RTVSPropertyOp16
 70
     1
102
RTVSPropertyOp17
 70
     1
102
RTVSPropertyOp18
 70
     1
102
RTVSPropertyOp19
 70
     1
102
RTVSPropertyOp20
 70
     1
102
RTVSPropertyOp21
 70
     1
102
RTVSPropertyOp22
 70
     1
102
RTVSPropertyOp23
 70
     1
102
RTVSPropertyOp24
 70
     1
102
RTVSPropertyOp25
 70
     1
102
RTVSPropertyOp26
 70
     1
102
RTVSPropertyOp27
 70
     1
102
RTVSPropertyOp28
 70
     1
102
RTVSPropertyOp29
 70
     1
102
RTVSPropertyOp30
 70
     1
102
RTVSPropertyOp31
 70
     1
102
RTVSPropertyOp32
 70
     1
102
RTVSPropertyOp33
 70
     1
102
RTVSPropertyOp34
 70
     1
102
RTVSPropertyOp35
 70
     1
102
RTVSPropertyOp36
 70
     1
102
RTVSPropertyOp37
 70
     1
102
RTVSPropertyOp38
 70
     1
102
RTVSPropertyOp39
 70
     1
102
RTVSPropertyOp40
 70
     1
102
RTVSPropertyOp41
 70
     1
102
RTVSPropertyOp42
 70
     1
102
RTVSPropertyOp43
 70
     1
102
RTVSPropertyOp44
 70
     1
102
RTVSPropertyOp45
 70
     1
102
RTVSPropertyOp46
 70
     1
102
RTVSPropertyOp47
 70
     1
102
RTVSPropertyOp48
 70
     1
102
RTVSPropertyOp49
 70
     1
102
RTVSPropertyOp50
 70
     1
102
RTVSPropertyOp51
 70
     0
102
RTVSPropertyOp52
 70
     0
102
RTVSPropertyOp53
 70
     1
102
RTVSPropertyOp54
 70
     1
102
RTVSPropertyOp55
 70
     1
102
RTVSPropertyOp56
 70
     1
102
RTVSPropertyOp57
 70
     1
102
RTVSPropertyOp58
 70
     1
102
RTVSPropertyOp59
 70
     1
102
RTVSPropertyOp60
 70
     1
102
RTVSPropertyOp61
 70
     1
102
RTVSPropertyOp62
 70
     1
  0
XRECORD
  5
55B9
102
{ACAD_REACTORS
330
55B8
102
}
330
55B8
100
AcDbXrecord
280
     1
102
RTVSPost2010Prop28
280
     0
102
RTVSPost2010PropOp28
 70
     1
102
RTVSPost2010Prop29
280
     1
102
RTVSPost2010PropOp29
 70
     1
102
RTVSPost2010Prop30
280
     1
102
RTVSPost2010PropOp30
 70
     1
102
RTVSPost2010Prop31
280
     0
102
RTVSPost2010PropOp31
 70
     1
102
RTVSPost2010Prop32
280
     0
102
RTVSPost2010PropOp32
 70
     1
102
RTVSPost2010Prop33
280
     0
102
RTVSPost2010PropOp33
 70
     1
102
RTVSPost2010Prop34
280
     0
102
RTVSPost2010PropOp34
 70
     1
102
RTVSPost2010Prop35
280
     0
102
RTVSPost2010PropOp35
 70
     1
102
RTVSPost2010Prop36
280
     0
102
RTVSPost2010PropOp36
 70
     1
102
RTVSPost2010Prop37
 90
       50
102
RTVSPost2010PropOp37
 70
     1
102
RTVSPost2010Prop38
140
0.0
102
RTVSPost2010PropOp38
 70
     1
102
RTVSPost2010Prop39
140
1.0
102
RTVSPost2010PropOp39
 70
     1
102
RTVSPost2010Prop40
 90
        0
102
RTVSPost2010PropOp40
 70
     1
102
RTVSPost2010Prop41ColorIndex
 90
       18
102
RTVSPost2010Prop41ColorRGB
 90
        0
102
RTVSPost2010PropOp41
 70
     1
102
RTVSPost2010Prop42
 90
       50
102
RTVSPost2010PropOp42
 70
     1
102
RTVSPost2010Prop43
 90
        3
102
RTVSPost2010PropOp43
 70
     1
102
RTVSPost2010Prop44ColorIndex
 90
        5
102
RTVSPost2010Prop44ColorRGB
 90
      255
102
RTVSPost2010PropOp44
 70
     1
102
RTVSPost2010Prop45
280
     0
102
RTVSPost2010PropOp45
 70
     1
102
RTVSPost2010Prop46
 90
       50
102
RTVSPost2010PropOp46
 70
     1
102
RTVSPost2010Prop47
 90
       50
102
RTVSPost2010PropOp47
 70
     1
102
RTVSPost2010Prop48
 90
       50
102
RTVSPost2010PropOp48
 70
     1
102
RTVSPost2010Prop49
280
     0
102
RTVSPost2010PropOp49
 70
     1
102
RTVSPost2010Prop50
 90
       50
102
RTVSPost2010PropOp50
 70
     1
102
RTVSPost2010Prop51ColorIndex
 90
      256
102
RTVSPost2010Prop51ColorRGB
 90
-16777216
102
RTVSPost2010PropOp51
 70
     0
102
RTVSPost2010Prop52
140
1.0
102
RTVSPost2010PropOp52
 70
     0
102
RTVSPost2010Prop53
 90
        2
102
RTVSPost2010PropOp53
 70
     1
102
RTVSPost2010Prop54
  1
strokes_ogs.tif
102
RTVSPost2010PropOp54
 70
     1
102
RTVSPost2010Prop55
280
     0
102
RTVSPost2010PropOp55
 70
     1
102
RTVSPost2010Prop56
140
1.0
102
RTVSPost2010PropOp56
 70
     1
102
RTVSPost2010Prop57
140
1.0
102
RTVSPost2010PropOp57
 70
     1
102
RTVSPropertyOp0
 70
     1
102
RTVSPropertyOp1
 70
     1
102
RTVSPropertyOp2
 70
     1
102
RTVSPropertyOp3
 70
     1
102
RTVSPropertyOp4
 70
     1
102
RTVSPropertyOp5
 70
     1
102
RTVSPropertyOp6
 70
     1
102
RTVSPropertyOp7
 70
     1
102
RTVSPropertyOp8
 70
     1
102
RTVSPropertyOp9
 70
     1
102
RTVSPropertyOp10
 70
     1
102
RTVSPropertyOp11
 70
     1
102
RTVSPropertyOp12
 70
     1
102
RTVSPropertyOp13
 70
     1
102
RTVSPropertyOp14
 70
     1
102
RTVSPropertyOp15
 70
     1
102
RTVSPropertyOp16
 70
     1
102
RTVSPropertyOp17
 70
     1
102
RTVSPropertyOp18
 70
     1
102
RTVSPropertyOp19
 70
     1
102
RTVSPropertyOp20
 70
     1
102
RTVSPropertyOp21
 70
     1
102
RTVSPropertyOp22
 70
     1
102
RTVSPropertyOp23
 70
     1
102
RTVSPropertyOp24
 70
     1
102
RTVSPropertyOp25
 70
     1
102
RTVSPropertyOp26
 70
     1
102
RTVSPropertyOp27
 70
     1
102
RTVSPropertyOp28
 70
     1
102
RTVSPropertyOp29
 70
     1
102
RTVSPropertyOp30
 70
     1
102
RTVSPropertyOp31
 70
     1
102
RTVSPropertyOp32
 70
     1
102
RTVSPropertyOp33
 70
     1
102
RTVSPropertyOp34
 70
     1
102
RTVSPropertyOp35
 70
     1
102
RTVSPropertyOp36
 70
     1
102
RTVSPropertyOp37
 70
     1
102
RTVSPropertyOp38
 70
     1
102
RTVSPropertyOp39
 70
     1
102
RTVSPropertyOp40
 70
     1
102
RTVSPropertyOp41
 70
     1
102
RTVSPropertyOp42
 70
     1
102
RTVSPropertyOp43
 70
     1
102
RTVSPropertyOp44
 70
     1
102
RTVSPropertyOp45
 70
     1
102
RTVSPropertyOp46
 70
     1
102
RTVSPropertyOp47
 70
     1
102
RTVSPropertyOp48
 70
     1
102
RTVSPropertyOp49
 70
     1
102
RTVSPropertyOp50
 70
     1
102
RTVSPropertyOp51
 70
     0
102
RTVSPropertyOp52
 70
     0
102
RTVSPropertyOp53
 70
     1
102
RTVSPropertyOp54
 70
     1
102
RTVSPropertyOp55
 70
     1
102
RTVSPropertyOp56
 70
     1
102
RTVSPropertyOp57
 70
     1
102
RTVSPropertyOp58
 70
     1
102
RTVSPropertyOp59
 70
     1
102
RTVSPropertyOp60
 70
     1
102
RTVSPropertyOp61
 70
     1
102
RTVSPropertyOp62
 70
     1
  0
XRECORD
  5
55B3
102
{ACAD_REACTORS
330
55B2
102
}
330
55B2
100
AcDbXrecord
280
     1
102
RTVSPost2010Prop28
280
     0
102
RTVSPost2010PropOp28
 70
     1
102
RTVSPost2010Prop29
280
     1
102
RTVSPost2010PropOp29
 70
     1
102
RTVSPost2010Prop30
280
     1
102
RTVSPost2010PropOp30
 70
     1
102
RTVSPost2010Prop31
280
     0
102
RTVSPost2010PropOp31
 70
     1
102
RTVSPost2010Prop32
280
     0
102
RTVSPost2010PropOp32
 70
     1
102
RTVSPost2010Prop33
280
     0
102
RTVSPost2010PropOp33
 70
     1
102
RTVSPost2010Prop34
280
     0
102
RTVSPost2010PropOp34
 70
     1
102
RTVSPost2010Prop35
280
     0
102
RTVSPost2010PropOp35
 70
     1
102
RTVSPost2010Prop36
280
     0
102
RTVSPost2010PropOp36
 70
     1
102
RTVSPost2010Prop37
 90
       50
102
RTVSPost2010PropOp37
 70
     1
102
RTVSPost2010Prop38
140
0.0
102
RTVSPost2010PropOp38
 70
     1
102
RTVSPost2010Prop39
140
1.0
102
RTVSPost2010PropOp39
 70
     1
102
RTVSPost2010Prop40
 90
        0
102
RTVSPost2010PropOp40
 70
     1
102
RTVSPost2010Prop41ColorIndex
 90
       18
102
RTVSPost2010Prop41ColorRGB
 90
        0
102
RTVSPost2010PropOp41
 70
     1
102
RTVSPost2010Prop42
 90
       50
102
RTVSPost2010PropOp42
 70
     1
102
RTVSPost2010Prop43
 90
        3
102
RTVSPost2010PropOp43
 70
     1
102
RTVSPost2010Prop44ColorIndex
 90
        5
102
RTVSPost2010Prop44ColorRGB
 90
      255
102
RTVSPost2010PropOp44
 70
     1
102
RTVSPost2010Prop45
280
     0
102
RTVSPost2010PropOp45
 70
     1
102
RTVSPost2010Prop46
 90
       50
102
RTVSPost2010PropOp46
 70
     1
102
RTVSPost2010Prop47
 90
       50
102
RTVSPost2010PropOp47
 70
     1
102
RTVSPost2010Prop48
 90
       50
102
RTVSPost2010PropOp48
 70
     1
102
RTVSPost2010Prop49
280
     0
102
RTVSPost2010PropOp49
 70
     1
102
RTVSPost2010Prop50
 90
       50
102
RTVSPost2010PropOp50
 70
     1
102
RTVSPost2010Prop51ColorIndex
 90
      256
102
RTVSPost2010Prop51ColorRGB
 90
-16777216
102
RTVSPost2010PropOp51
 70
     0
102
RTVSPost2010Prop52
140
1.0
102
RTVSPost2010PropOp52
 70
     0
102
RTVSPost2010Prop53
 90
        2
102
RTVSPost2010PropOp53
 70
     1
102
RTVSPost2010Prop54
  1
strokes_ogs.tif
102
RTVSPost2010PropOp54
 70
     1
102
RTVSPost2010Prop55
280
     0
102
RTVSPost2010PropOp55
 70
     1
102
RTVSPost2010Prop56
140
1.0
102
RTVSPost2010PropOp56
 70
     1
102
RTVSPost2010Prop57
140
1.0
102
RTVSPost2010PropOp57
 70
     1
102
RTVSPropertyOp0
 70
     1
102
RTVSPropertyOp1
 70
     1
102
RTVSPropertyOp2
 70
     1
102
RTVSPropertyOp3
 70
     1
102
RTVSPropertyOp4
 70
     1
102
RTVSPropertyOp5
 70
     1
102
RTVSPropertyOp6
 70
     1
102
RTVSPropertyOp7
 70
     1
102
RTVSPropertyOp8
 70
     1
102
RTVSPropertyOp9
 70
     1
102
RTVSPropertyOp10
 70
     1
102
RTVSPropertyOp11
 70
     1
102
RTVSPropertyOp12
 70
     1
102
RTVSPropertyOp13
 70
     1
102
RTVSPropertyOp14
 70
     1
102
RTVSPropertyOp15
 70
     1
102
RTVSPropertyOp16
 70
     1
102
RTVSPropertyOp17
 70
     1
102
RTVSPropertyOp18
 70
     1
102
RTVSPropertyOp19
 70
     1
102
RTVSPropertyOp20
 70
     1
102
RTVSPropertyOp21
 70
     1
102
RTVSPropertyOp22
 70
     1
102
RTVSPropertyOp23
 70
     1
102
RTVSPropertyOp24
 70
     1
102
RTVSPropertyOp25
 70
     1
102
RTVSPropertyOp26
 70
     1
102
RTVSPropertyOp27
 70
     1
102
RTVSPropertyOp28
 70
     1
102
RTVSPropertyOp29
 70
     1
102
RTVSPropertyOp30
 70
     1
102
RTVSPropertyOp31
 70
     1
102
RTVSPropertyOp32
 70
     1
102
RTVSPropertyOp33
 70
     1
102
RTVSPropertyOp34
 70
     1
102
RTVSPropertyOp35
 70
     1
102
RTVSPropertyOp36
 70
     1
102
RTVSPropertyOp37
 70
     1
102
RTVSPropertyOp38
 70
     1
102
RTVSPropertyOp39
 70
     1
102
RTVSPropertyOp40
 70
     1
102
RTVSPropertyOp41
 70
     1
102
RTVSPropertyOp42
 70
     1
102
RTVSPropertyOp43
 70
     1
102
RTVSPropertyOp44
 70
     1
102
RTVSPropertyOp45
 70
     1
102
RTVSPropertyOp46
 70
     1
102
RTVSPropertyOp47
 70
     1
102
RTVSPropertyOp48
 70
     1
102
RTVSPropertyOp49
 70
     1
102
RTVSPropertyOp50
 70
     1
102
RTVSPropertyOp51
 70
     0
102
RTVSPropertyOp52
 70
     0
102
RTVSPropertyOp53
 70
     1
102
RTVSPropertyOp54
 70
     1
102
RTVSPropertyOp55
 70
     1
102
RTVSPropertyOp56
 70
     1
102
RTVSPropertyOp57
 70
     1
102
RTVSPropertyOp58
 70
     1
102
RTVSPropertyOp59
 70
     1
102
RTVSPropertyOp60
 70
     1
102
RTVSPropertyOp61
 70
     1
102
RTVSPropertyOp62
 70
     1
  0
XRECORD
  5
55B5
102
{ACAD_REACTORS
330
55B4
102
}
330
55B4
100
AcDbXrecord
280
     1
102
RTVSPost2010Prop28
280
     0
102
RTVSPost2010PropOp28
 70
     1
102
RTVSPost2010Prop29
280
     1
102
RTVSPost2010PropOp29
 70
     1
102
RTVSPost2010Prop30
280
     1
102
RTVSPost2010PropOp30
 70
     1
102
RTVSPost2010Prop31
280
     0
102
RTVSPost2010PropOp31
 70
     1
102
RTVSPost2010Prop32
280
     0
102
RTVSPost2010PropOp32
 70
     1
102
RTVSPost2010Prop33
280
     0
102
RTVSPost2010PropOp33
 70
     1
102
RTVSPost2010Prop34
280
     0
102
RTVSPost2010PropOp34
 70
     1
102
RTVSPost2010Prop35
280
     0
102
RTVSPost2010PropOp35
 70
     1
102
RTVSPost2010Prop36
280
     0
102
RTVSPost2010PropOp36
 70
     1
102
RTVSPost2010Prop37
 90
       50
102
RTVSPost2010PropOp37
 70
     1
102
RTVSPost2010Prop38
140
0.0
102
RTVSPost2010PropOp38
 70
     1
102
RTVSPost2010Prop39
140
1.0
102
RTVSPost2010PropOp39
 70
     1
102
RTVSPost2010Prop40
 90
        0
102
RTVSPost2010PropOp40
 70
     1
102
RTVSPost2010Prop41ColorIndex
 90
       18
102
RTVSPost2010Prop41ColorRGB
 90
        0
102
RTVSPost2010PropOp41
 70
     1
102
RTVSPost2010Prop42
 90
       50
102
RTVSPost2010PropOp42
 70
     1
102
RTVSPost2010Prop43
 90
        3
102
RTVSPost2010PropOp43
 70
     1
102
RTVSPost2010Prop44ColorIndex
 90
        5
102
RTVSPost2010Prop44ColorRGB
 90
      255
102
RTVSPost2010PropOp44
 70
     1
102
RTVSPost2010Prop45
280
     0
102
RTVSPost2010PropOp45
 70
     1
102
RTVSPost2010Prop46
 90
       50
102
RTVSPost2010PropOp46
 70
     1
102
RTVSPost2010Prop47
 90
       50
102
RTVSPost2010PropOp47
 70
     1
102
RTVSPost2010Prop48
 90
       50
102
RTVSPost2010PropOp48
 70
     1
102
RTVSPost2010Prop49
280
     0
102
RTVSPost2010PropOp49
 70
     1
102
RTVSPost2010Prop50
 90
       50
102
RTVSPost2010PropOp50
 70
     1
102
RTVSPost2010Prop51ColorIndex
 90
      256
102
RTVSPost2010Prop51ColorRGB
 90
-16777216
102
RTVSPost2010PropOp51
 70
     0
102
RTVSPost2010Prop52
140
1.0
102
RTVSPost2010PropOp52
 70
     0
102
RTVSPost2010Prop53
 90
        2
102
RTVSPost2010PropOp53
 70
     1
102
RTVSPost2010Prop54
  1
strokes_ogs.tif
102
RTVSPost2010PropOp54
 70
     1
102
RTVSPost2010Prop55
280
     0
102
RTVSPost2010PropOp55
 70
     1
102
RTVSPost2010Prop56
140
1.0
102
RTVSPost2010PropOp56
 70
     1
102
RTVSPost2010Prop57
140
1.0
102
RTVSPost2010PropOp57
 70
     1
102
RTVSPropertyOp0
 70
     1
102
RTVSPropertyOp1
 70
     1
102
RTVSPropertyOp2
 70
     1
102
RTVSPropertyOp3
 70
     1
102
RTVSPropertyOp4
 70
     1
102
RTVSPropertyOp5
 70
     1
102
RTVSPropertyOp6
 70
     1
102
RTVSPropertyOp7
 70
     1
102
RTVSPropertyOp8
 70
     1
102
RTVSPropertyOp9
 70
     1
102
RTVSPropertyOp10
 70
     1
102
RTVSPropertyOp11
 70
     1
102
RTVSPropertyOp12
 70
     1
102
RTVSPropertyOp13
 70
     1
102
RTVSPropertyOp14
 70
     1
102
RTVSPropertyOp15
 70
     1
102
RTVSPropertyOp16
 70
     1
102
RTVSPropertyOp17
 70
     1
102
RTVSPropertyOp18
 70
     1
102
RTVSPropertyOp19
 70
     1
102
RTVSPropertyOp20
 70
     1
102
RTVSPropertyOp21
 70
     1
102
RTVSPropertyOp22
 70
     1
102
RTVSPropertyOp23
 70
     1
102
RTVSPropertyOp24
 70
     1
102
RTVSPropertyOp25
 70
     1
102
RTVSPropertyOp26
 70
     1
102
RTVSPropertyOp27
 70
     1
102
RTVSPropertyOp28
 70
     1
102
RTVSPropertyOp29
 70
     1
102
RTVSPropertyOp30
 70
     1
102
RTVSPropertyOp31
 70
     1
102
RTVSPropertyOp32
 70
     1
102
RTVSPropertyOp33
 70
     1
102
RTVSPropertyOp34
 70
     1
102
RTVSPropertyOp35
 70
     1
102
RTVSPropertyOp36
 70
     1
102
RTVSPropertyOp37
 70
     1
102
RTVSPropertyOp38
 70
     1
102
RTVSPropertyOp39
 70
     1
102
RTVSPropertyOp40
 70
     1
102
RTVSPropertyOp41
 70
     1
102
RTVSPropertyOp42
 70
     1
102
RTVSPropertyOp43
 70
     1
102
RTVSPropertyOp44
 70
     1
102
RTVSPropertyOp45
 70
     1
102
RTVSPropertyOp46
 70
     1
102
RTVSPropertyOp47
 70
     1
102
RTVSPropertyOp48
 70
     1
102
RTVSPropertyOp49
 70
     1
102
RTVSPropertyOp50
 70
     1
102
RTVSPropertyOp51
 70
     0
102
RTVSPropertyOp52
 70
     0
102
RTVSPropertyOp53
 70
     1
102
RTVSPropertyOp54
 70
     1
102
RTVSPropertyOp55
 70
     1
102
RTVSPropertyOp56
 70
     1
102
RTVSPropertyOp57
 70
     1
102
RTVSPropertyOp58
 70
     1
102
RTVSPropertyOp59
 70
     1
102
RTVSPropertyOp60
 70
     1
102
RTVSPropertyOp61
 70
     1
102
RTVSPropertyOp62
 70
     1
  0
XRECORD
  5
55AB
102
{ACAD_REACTORS
330
55AA
102
}
330
55AA
100
AcDbXrecord
280
     1
102
RTVSPost2010Prop28
280
     0
102
RTVSPost2010PropOp28
 70
     1
102
RTVSPost2010Prop29
280
     1
102
RTVSPost2010PropOp29
 70
     1
102
RTVSPost2010Prop30
280
     1
102
RTVSPost2010PropOp30
 70
     1
102
RTVSPost2010Prop31
280
     0
102
RTVSPost2010PropOp31
 70
     1
102
RTVSPost2010Prop32
280
     0
102
RTVSPost2010PropOp32
 70
     1
102
RTVSPost2010Prop33
280
     0
102
RTVSPost2010PropOp33
 70
     1
102
RTVSPost2010Prop34
280
     0
102
RTVSPost2010PropOp34
 70
     1
102
RTVSPost2010Prop35
280
     0
102
RTVSPost2010PropOp35
 70
     1
102
RTVSPost2010Prop36
280
     0
102
RTVSPost2010PropOp36
 70
     1
102
RTVSPost2010Prop37
 90
       50
102
RTVSPost2010PropOp37
 70
     1
102
RTVSPost2010Prop38
140
0.0
102
RTVSPost2010PropOp38
 70
     1
102
RTVSPost2010Prop39
140
1.0
102
RTVSPost2010PropOp39
 70
     1
102
RTVSPost2010Prop40
 90
        0
102
RTVSPost2010PropOp40
 70
     1
102
RTVSPost2010Prop41ColorIndex
 90
       18
102
RTVSPost2010Prop41ColorRGB
 90
        0
102
RTVSPost2010PropOp41
 70
     1
102
RTVSPost2010Prop42
 90
       50
102
RTVSPost2010PropOp42
 70
     1
102
RTVSPost2010Prop43
 90
        3
102
RTVSPost2010PropOp43
 70
     1
102
RTVSPost2010Prop44ColorIndex
 90
        5
102
RTVSPost2010Prop44ColorRGB
 90
      255
102
RTVSPost2010PropOp44
 70
     1
102
RTVSPost2010Prop45
280
     0
102
RTVSPost2010PropOp45
 70
     1
102
RTVSPost2010Prop46
 90
       50
102
RTVSPost2010PropOp46
 70
     1
102
RTVSPost2010Prop47
 90
       50
102
RTVSPost2010PropOp47
 70
     1
102
RTVSPost2010Prop48
 90
       50
102
RTVSPost2010PropOp48
 70
     1
102
RTVSPost2010Prop49
280
     0
102
RTVSPost2010PropOp49
 70
     1
102
RTVSPost2010Prop50
 90
       50
102
RTVSPost2010PropOp50
 70
     1
102
RTVSPost2010Prop51ColorIndex
 90
      256
102
RTVSPost2010Prop51ColorRGB
 90
-16777216
102
RTVSPost2010PropOp51
 70
     0
102
RTVSPost2010Prop52
140
1.0
102
RTVSPost2010PropOp52
 70
     0
102
RTVSPost2010Prop53
 90
        2
102
RTVSPost2010PropOp53
 70
     1
102
RTVSPost2010Prop54
  1
strokes_ogs.tif
102
RTVSPost2010PropOp54
 70
     1
102
RTVSPost2010Prop55
280
     0
102
RTVSPost2010PropOp55
 70
     1
102
RTVSPost2010Prop56
140
1.0
102
RTVSPost2010PropOp56
 70
     1
102
RTVSPost2010Prop57
140
1.0
102
RTVSPost2010PropOp57
 70
     1
102
RTVSPropertyOp0
 70
     1
102
RTVSPropertyOp1
 70
     1
102
RTVSPropertyOp2
 70
     1
102
RTVSPropertyOp3
 70
     1
102
RTVSPropertyOp4
 70
     1
102
RTVSPropertyOp5
 70
     1
102
RTVSPropertyOp6
 70
     1
102
RTVSPropertyOp7
 70
     1
102
RTVSPropertyOp8
 70
     1
102
RTVSPropertyOp9
 70
     1
102
RTVSPropertyOp10
 70
     1
102
RTVSPropertyOp11
 70
     1
102
RTVSPropertyOp12
 70
     1
102
RTVSPropertyOp13
 70
     1
102
RTVSPropertyOp14
 70
     1
102
RTVSPropertyOp15
 70
     1
102
RTVSPropertyOp16
 70
     1
102
RTVSPropertyOp17
 70
     1
102
RTVSPropertyOp18
 70
     1
102
RTVSPropertyOp19
 70
     1
102
RTVSPropertyOp20
 70
     1
102
RTVSPropertyOp21
 70
     1
102
RTVSPropertyOp22
 70
     1
102
RTVSPropertyOp23
 70
     1
102
RTVSPropertyOp24
 70
     1
102
RTVSPropertyOp25
 70
     1
102
RTVSPropertyOp26
 70
     1
102
RTVSPropertyOp27
 70
     1
102
RTVSPropertyOp28
 70
     1
102
RTVSPropertyOp29
 70
     1
102
RTVSPropertyOp30
 70
     1
102
RTVSPropertyOp31
 70
     1
102
RTVSPropertyOp32
 70
     1
102
RTVSPropertyOp33
 70
     1
102
RTVSPropertyOp34
 70
     1
102
RTVSPropertyOp35
 70
     1
102
RTVSPropertyOp36
 70
     1
102
RTVSPropertyOp37
 70
     1
102
RTVSPropertyOp38
 70
     1
102
RTVSPropertyOp39
 70
     1
102
RTVSPropertyOp40
 70
     1
102
RTVSPropertyOp41
 70
     1
102
RTVSPropertyOp42
 70
     1
102
RTVSPropertyOp43
 70
     1
102
RTVSPropertyOp44
 70
     1
102
RTVSPropertyOp45
 70
     1
102
RTVSPropertyOp46
 70
     1
102
RTVSPropertyOp47
 70
     1
102
RTVSPropertyOp48
 70
     1
102
RTVSPropertyOp49
 70
     1
102
RTVSPropertyOp50
 70
     1
102
RTVSPropertyOp51
 70
     0
102
RTVSPropertyOp52
 70
     0
102
RTVSPropertyOp53
 70
     1
102
RTVSPropertyOp54
 70
     1
102
RTVSPropertyOp55
 70
     1
102
RTVSPropertyOp56
 70
     1
102
RTVSPropertyOp57
 70
     1
102
RTVSPropertyOp58
 70
     1
102
RTVSPropertyOp59
 70
     1
102
RTVSPropertyOp60
 70
     1
102
RTVSPropertyOp61
 70
     1
102
RTVSPropertyOp62
 70
     1
  0
XRECORD
  5
559F
102
{ACAD_REACTORS
330
559E
102
}
330
559E
100
AcDbXrecord
280
     1
102
RTVSPost2010Prop28
280
     0
102
RTVSPost2010PropOp28
 70
     1
102
RTVSPost2010Prop29
280
     1
102
RTVSPost2010PropOp29
 70
     1
102
RTVSPost2010Prop30
280
     1
102
RTVSPost2010PropOp30
 70
     1
102
RTVSPost2010Prop31
280
     0
102
RTVSPost2010PropOp31
 70
     1
102
RTVSPost2010Prop32
280
     0
102
RTVSPost2010PropOp32
 70
     1
102
RTVSPost2010Prop33
280
     0
102
RTVSPost2010PropOp33
 70
     1
102
RTVSPost2010Prop34
280
     0
102
RTVSPost2010PropOp34
 70
     1
102
RTVSPost2010Prop35
280
     0
102
RTVSPost2010PropOp35
 70
     1
102
RTVSPost2010Prop36
280
     0
102
RTVSPost2010PropOp36
 70
     1
102
RTVSPost2010Prop37
 90
       50
102
RTVSPost2010PropOp37
 70
     1
102
RTVSPost2010Prop38
140
0.0
102
RTVSPost2010PropOp38
 70
     1
102
RTVSPost2010Prop39
140
1.0
102
RTVSPost2010PropOp39
 70
     1
102
RTVSPost2010Prop40
 90
        0
102
RTVSPost2010PropOp40
 70
     1
102
RTVSPost2010Prop41ColorIndex
 90
       18
102
RTVSPost2010Prop41ColorRGB
 90
        0
102
RTVSPost2010PropOp41
 70
     1
102
RTVSPost2010Prop42
 90
       50
102
RTVSPost2010PropOp42
 70
     1
102
RTVSPost2010Prop43
 90
        3
102
RTVSPost2010PropOp43
 70
     1
102
RTVSPost2010Prop44ColorIndex
 90
        5
102
RTVSPost2010Prop44ColorRGB
 90
      255
102
RTVSPost2010PropOp44
 70
     1
102
RTVSPost2010Prop45
280
     0
102
RTVSPost2010PropOp45
 70
     1
102
RTVSPost2010Prop46
 90
       50
102
RTVSPost2010PropOp46
 70
     1
102
RTVSPost2010Prop47
 90
       50
102
RTVSPost2010PropOp47
 70
     1
102
RTVSPost2010Prop48
 90
       50
102
RTVSPost2010PropOp48
 70
     1
102
RTVSPost2010Prop49
280
     0
102
RTVSPost2010PropOp49
 70
     1
102
RTVSPost2010Prop50
 90
       50
102
RTVSPost2010PropOp50
 70
     1
102
RTVSPost2010Prop51ColorIndex
 90
      256
102
RTVSPost2010Prop51ColorRGB
 90
-16777216
102
RTVSPost2010PropOp51
 70
     0
102
RTVSPost2010Prop52
140
1.0
102
RTVSPost2010PropOp52
 70
     0
102
RTVSPost2010Prop53
 90
        2
102
RTVSPost2010PropOp53
 70
     1
102
RTVSPost2010Prop54
  1
strokes_ogs.tif
102
RTVSPost2010PropOp54
 70
     1
102
RTVSPost2010Prop55
280
     0
102
RTVSPost2010PropOp55
 70
     1
102
RTVSPost2010Prop56
140
1.0
102
RTVSPost2010PropOp56
 70
     1
102
RTVSPost2010Prop57
140
1.0
102
RTVSPost2010PropOp57
 70
     1
102
RTVSPropertyOp0
 70
     1
102
RTVSPropertyOp1
 70
     1
102
RTVSPropertyOp2
 70
     1
102
RTVSPropertyOp3
 70
     1
102
RTVSPropertyOp4
 70
     1
102
RTVSPropertyOp5
 70
     1
102
RTVSPropertyOp6
 70
     1
102
RTVSPropertyOp7
 70
     1
102
RTVSPropertyOp8
 70
     1
102
RTVSPropertyOp9
 70
     1
102
RTVSPropertyOp10
 70
     1
102
RTVSPropertyOp11
 70
     1
102
RTVSPropertyOp12
 70
     1
102
RTVSPropertyOp13
 70
     1
102
RTVSPropertyOp14
 70
     1
102
RTVSPropertyOp15
 70
     1
102
RTVSPropertyOp16
 70
     1
102
RTVSPropertyOp17
 70
     1
102
RTVSPropertyOp18
 70
     1
102
RTVSPropertyOp19
 70
     1
102
RTVSPropertyOp20
 70
     1
102
RTVSPropertyOp21
 70
     1
102
RTVSPropertyOp22
 70
     1
102
RTVSPropertyOp23
 70
     1
102
RTVSPropertyOp24
 70
     1
102
RTVSPropertyOp25
 70
     1
102
RTVSPropertyOp26
 70
     1
102
RTVSPropertyOp27
 70
     1
102
RTVSPropertyOp28
 70
     1
102
RTVSPropertyOp29
 70
     1
102
RTVSPropertyOp30
 70
     1
102
RTVSPropertyOp31
 70
     1
102
RTVSPropertyOp32
 70
     1
102
RTVSPropertyOp33
 70
     1
102
RTVSPropertyOp34
 70
     1
102
RTVSPropertyOp35
 70
     1
102
RTVSPropertyOp36
 70
     1
102
RTVSPropertyOp37
 70
     1
102
RTVSPropertyOp38
 70
     1
102
RTVSPropertyOp39
 70
     1
102
RTVSPropertyOp40
 70
     1
102
RTVSPropertyOp41
 70
     1
102
RTVSPropertyOp42
 70
     1
102
RTVSPropertyOp43
 70
     1
102
RTVSPropertyOp44
 70
     1
102
RTVSPropertyOp45
 70
     1
102
RTVSPropertyOp46
 70
     1
102
RTVSPropertyOp47
 70
     1
102
RTVSPropertyOp48
 70
     1
102
RTVSPropertyOp49
 70
     1
102
RTVSPropertyOp50
 70
     1
102
RTVSPropertyOp51
 70
     0
102
RTVSPropertyOp52
 70
     0
102
RTVSPropertyOp53
 70
     1
102
RTVSPropertyOp54
 70
     1
102
RTVSPropertyOp55
 70
     1
102
RTVSPropertyOp56
 70
     1
102
RTVSPropertyOp57
 70
     1
102
RTVSPropertyOp58
 70
     1
102
RTVSPropertyOp59
 70
     1
102
RTVSPropertyOp60
 70
     1
102
RTVSPropertyOp61
 70
     1
102
RTVSPropertyOp62
 70
     1
  0
XRECORD
  5
55B7
102
{ACAD_REACTORS
330
55B6
102
}
330
55B6
100
AcDbXrecord
280
     1
102
RTVSPost2010Prop28
280
     0
102
RTVSPost2010PropOp28
 70
     1
102
RTVSPost2010Prop29
280
     1
102
RTVSPost2010PropOp29
 70
     1
102
RTVSPost2010Prop30
280
     1
102
RTVSPost2010PropOp30
 70
     1
102
RTVSPost2010Prop31
280
     0
102
RTVSPost2010PropOp31
 70
     1
102
RTVSPost2010Prop32
280
     0
102
RTVSPost2010PropOp32
 70
     1
102
RTVSPost2010Prop33
280
     0
102
RTVSPost2010PropOp33
 70
     1
102
RTVSPost2010Prop34
280
     0
102
RTVSPost2010PropOp34
 70
     1
102
RTVSPost2010Prop35
280
     0
102
RTVSPost2010PropOp35
 70
     1
102
RTVSPost2010Prop36
280
     0
102
RTVSPost2010PropOp36
 70
     1
102
RTVSPost2010Prop37
 90
       50
102
RTVSPost2010PropOp37
 70
     1
102
RTVSPost2010Prop38
140
0.0
102
RTVSPost2010PropOp38
 70
     1
102
RTVSPost2010Prop39
140
1.0
102
RTVSPost2010PropOp39
 70
     1
102
RTVSPost2010Prop40
 90
        0
102
RTVSPost2010PropOp40
 70
     1
102
RTVSPost2010Prop41ColorIndex
 90
       18
102
RTVSPost2010Prop41ColorRGB
 90
        0
102
RTVSPost2010PropOp41
 70
     1
102
RTVSPost2010Prop42
 90
       50
102
RTVSPost2010PropOp42
 70
     1
102
RTVSPost2010Prop43
 90
        3
102
RTVSPost2010PropOp43
 70
     1
102
RTVSPost2010Prop44ColorIndex
 90
        5
102
RTVSPost2010Prop44ColorRGB
 90
      255
102
RTVSPost2010PropOp44
 70
     1
102
RTVSPost2010Prop45
280
     0
102
RTVSPost2010PropOp45
 70
     1
102
RTVSPost2010Prop46
 90
       50
102
RTVSPost2010PropOp46
 70
     1
102
RTVSPost2010Prop47
 90
       50
102
RTVSPost2010PropOp47
 70
     1
102
RTVSPost2010Prop48
 90
       50
102
RTVSPost2010PropOp48
 70
     1
102
RTVSPost2010Prop49
280
     0
102
RTVSPost2010PropOp49
 70
     1
102
RTVSPost2010Prop50
 90
       50
102
RTVSPost2010PropOp50
 70
     1
102
RTVSPost2010Prop51ColorIndex
 90
      256
102
RTVSPost2010Prop51ColorRGB
 90
-16777216
102
RTVSPost2010PropOp51
 70
     0
102
RTVSPost2010Prop52
140
1.0
102
RTVSPost2010PropOp52
 70
     0
102
RTVSPost2010Prop53
 90
        2
102
RTVSPost2010PropOp53
 70
     1
102
RTVSPost2010Prop54
  1
strokes_ogs.tif
102
RTVSPost2010PropOp54
 70
     1
102
RTVSPost2010Prop55
280
     0
102
RTVSPost2010PropOp55
 70
     1
102
RTVSPost2010Prop56
140
1.0
102
RTVSPost2010PropOp56
 70
     1
102
RTVSPost2010Prop57
140
1.0
102
RTVSPost2010PropOp57
 70
     1
102
RTVSPropertyOp0
 70
     1
102
RTVSPropertyOp1
 70
     1
102
RTVSPropertyOp2
 70
     1
102
RTVSPropertyOp3
 70
     1
102
RTVSPropertyOp4
 70
     1
102
RTVSPropertyOp5
 70
     1
102
RTVSPropertyOp6
 70
     1
102
RTVSPropertyOp7
 70
     1
102
RTVSPropertyOp8
 70
     1
102
RTVSPropertyOp9
 70
     1
102
RTVSPropertyOp10
 70
     1
102
RTVSPropertyOp11
 70
     1
102
RTVSPropertyOp12
 70
     1
102
RTVSPropertyOp13
 70
     1
102
RTVSPropertyOp14
 70
     1
102
RTVSPropertyOp15
 70
     1
102
RTVSPropertyOp16
 70
     1
102
RTVSPropertyOp17
 70
     1
102
RTVSPropertyOp18
 70
     1
102
RTVSPropertyOp19
 70
     1
102
RTVSPropertyOp20
 70
     1
102
RTVSPropertyOp21
 70
     1
102
RTVSPropertyOp22
 70
     1
102
RTVSPropertyOp23
 70
     1
102
RTVSPropertyOp24
 70
     1
102
RTVSPropertyOp25
 70
     1
102
RTVSPropertyOp26
 70
     1
102
RTVSPropertyOp27
 70
     1
102
RTVSPropertyOp28
 70
     1
102
RTVSPropertyOp29
 70
     1
102
RTVSPropertyOp30
 70
     1
102
RTVSPropertyOp31
 70
     1
102
RTVSPropertyOp32
 70
     1
102
RTVSPropertyOp33
 70
     1
102
RTVSPropertyOp34
 70
     1
102
RTVSPropertyOp35
 70
     1
102
RTVSPropertyOp36
 70
     1
102
RTVSPropertyOp37
 70
     1
102
RTVSPropertyOp38
 70
     1
102
RTVSPropertyOp39
 70
     1
102
RTVSPropertyOp40
 70
     1
102
RTVSPropertyOp41
 70
     1
102
RTVSPropertyOp42
 70
     1
102
RTVSPropertyOp43
 70
     1
102
RTVSPropertyOp44
 70
     1
102
RTVSPropertyOp45
 70
     1
102
RTVSPropertyOp46
 70
     1
102
RTVSPropertyOp47
 70
     1
102
RTVSPropertyOp48
 70
     1
102
RTVSPropertyOp49
 70
     1
102
RTVSPropertyOp50
 70
     1
102
RTVSPropertyOp51
 70
     0
102
RTVSPropertyOp52
 70
     0
102
RTVSPropertyOp53
 70
     1
102
RTVSPropertyOp54
 70
     1
102
RTVSPropertyOp55
 70
     1
102
RTVSPropertyOp56
 70
     1
102
RTVSPropertyOp57
 70
     1
102
RTVSPropertyOp58
 70
     1
102
RTVSPropertyOp59
 70
     1
102
RTVSPropertyOp60
 70
     1
102
RTVSPropertyOp61
 70
     1
102
RTVSPropertyOp62
 70
     1
  0
ENDSEC
  0
EOF
