  0
SECTION
  2
HEADER
  9
$ACADVER
  1
AC1018
  9
$ACADMAINTVER
 70
   104
  9
$DWGCODEPAGE
  3
ANSI_932
  9
$LASTSAVEDBY
  1
kaneda-m
  9
$INSBASE
 10
0.0
 20
0.0
 30
0.0
  9
$EXTMIN
 10
160.0
 20
-0.0000000000009059
 30
0.0
  9
$EXTMAX
 10
3760.000000000002
 20
5616.0
 30
0.0
  9
$LIMMIN
 10
0.0
 20
0.0
  9
$LIMMAX
 10
4200.0
 20
5940.0
  9
$ORTHOMODE
 70
     1
  9
$REGENMODE
 70
     1
  9
$FILLMODE
 70
     1
  9
$QTEXTMODE
 70
     0
  9
$MIRRTEXT
 70
     0
  9
$LTSCALE
 40
160.0
  9
$ATTMODE
 70
     1
  9
$TEXTSIZE
 40
50.0
  9
$TRACEWID
 40
0.05
  9
$TEXTSTYLE
  7
STANDARD
  9
$CLAYER
  8
0
  9
$CELTYPE
  6
ByLayer
  9
$CECOLOR
 62
   256
  9
$CELTSCALE
 40
1.0
  9
$DISPSILH
 70
     0
  9
$DIMSCALE
 40
20.0
  9
$DIMASZ
 40
0.12
  9
$DIMEXO
 40
0.05
  9
$DIMDLI
 40
0.5
  9
$DIMRND
 40
0.0
  9
$DIMDLE
 40
0.0
  9
$DIMEXE
 40
0.1
  9
$DIMTP
 40
0.1
  9
$DIMTM
 40
0.1
  9
$DIMTXT
 40
0.12
  9
$DIMCEN
 40
0.0
  9
$DIMTSZ
 40
0.0
  9
$DIMTOL
 70
     0
  9
$DIMLIM
 70
     0
  9
$DIMTIH
 70
     1
  9
$DIMTOH
 70
     1
  9
$DIMSE1
 70
     0
  9
$DIMSE2
 70
     0
  9
$DIMTAD
 70
     0
  9
$DIMZIN
 70
     7
  9
$DIMBLK
  1

  9
$DIMASO
 70
     1
  9
$DIMSHO
 70
     0
  9
$DIMPOST
  1

  9
$DIMAPOST
  1
mm
  9
$DIMALT
 70
     0
  9
$DIMALTD
 70
     2
  9
$DIMALTF
 40
25.4
  9
$DIMLFAC
 40
1.0
  9
$DIMTOFL
 70
     0
  9
$DIMTVP
 40
0.0
  9
$DIMTIX
 70
     0
  9
$DIMSOXD
 70
     0
  9
$DIMSAH
 70
     0
  9
$DIMBLK1
  1

  9
$DIMBLK2
  1

  9
$DIMSTYLE
  2
AM_ANSI
  9
$DIMCLRD
 70
   256
  9
$DIMCLRE
 70
   256
  9
$DIMCLRT
 70
     2
  9
$DIMTFAC
 40
0.71
  9
$DIMGAP
 40
0.06
  9
$DIMJUST
 70
     0
  9
$DIMSD1
 70
     0
  9
$DIMSD2
 70
     0
  9
$DIMTOLJ
 70
     1
  9
$DIMTZIN
 70
     0
  9
$DIMALTZ
 70
     0
  9
$DIMALTTZ
 70
     0
  9
$DIMUPT
 70
     0
  9
$DIMDEC
 70
     4
  9
$DIMTDEC
 70
     4
  9
$DIMALTU
 70
     2
  9
$DIMALTTD
 70
     2
  9
$DIMTXSTY
  7
STANDARD
  9
$DIMAUNIT
 70
     0
  9
$DIMADEC
 70
     0
  9
$DIMALTRND
 40
0.0
  9
$DIMAZIN
 70
     0
  9
$DIMDSEP
 70
    46
  9
$DIMATFIT
 70
     3
  9
$DIMFRAC
 70
     0
  9
$DIMLDRBLK
  1

  9
$DIMLUNIT
 70
     2
  9
$DIMLWD
 70
    -2
  9
$DIMLWE
 70
    -2
  9
$DIMTMOVE
 70
     0
  9
$LUNITS
 70
     2
  9
$LUPREC
 70
     2
  9
$SKETCHINC
 40
0.1
  9
$FILLETRAD
 40
0.0
  9
$AUNITS
 70
     0
  9
$AUPREC
 70
     0
  9
$MENU
  1
AMECEX
  9
$ELEVATION
 40
0.0
  9
$PELEVATION
 40
0.0
  9
$THICKNESS
 40
0.0
  9
$LIMCHECK
 70
     0
  9
$CHAMFERA
 40
0.0
  9
$CHAMFERB
 40
0.0
  9
$CHAMFERC
 40
0.0
  9
$CHAMFERD
 40
0.0
  9
$SKPOLY
 70
     0
  9
$TDCREATE
 40
2448726.744502315
  9
$TDUCREATE
 40
2448726.369502315
  9
$TDUPDATE
 40
2459530.620590278
  9
$TDUUPDATE
 40
2459530.245590278
  9
$TDINDWG
 40
3.0139939120
  9
$TDUSRTIMER
 40
3.0139934028
  9
$USRTIMER
 70
     1
  9
$ANGBASE
 50
0.0
  9
$ANGDIR
 70
     0
  9
$PDMODE
 70
     0
  9
$PDSIZE
 40
0.0
  9
$PLINEWID
 40
0.0
  9
$SPLFRAME
 70
     0
  9
$SPLINETYPE
 70
     6
  9
$SPLINESEGS
 70
     8
  9
$HANDSEED
  5
AACB
  9
$SURFTAB1
 70
     6
  9
$SURFTAB2
 70
     6
  9
$SURFTYPE
 70
     6
  9
$SURFU
 70
     6
  9
$SURFV
 70
     6
  9
$UCSBASE
  2

  9
$UCSNAME
  2

  9
$UCSORG
 10
0.0
 20
0.0
 30
0.0
  9
$UCSXDIR
 10
1.0
 20
0.0
 30
0.0
  9
$UCSYDIR
 10
0.0
 20
1.0
 30
0.0
  9
$UCSORTHOREF
  2

  9
$UCSORTHOVIEW
 70
     0
  9
$UCSORGTOP
 10
0.0
 20
0.0
 30
0.0
  9
$UCSORGBOTTOM
 10
0.0
 20
0.0
 30
0.0
  9
$UCSORGLEFT
 10
0.0
 20
0.0
 30
0.0
  9
$UCSORGRIGHT
 10
0.0
 20
0.0
 30
0.0
  9
$UCSORGFRONT
 10
0.0
 20
0.0
 30
0.0
  9
$UCSORGBACK
 10
0.0
 20
0.0
 30
0.0
  9
$PUCSBASE
  2

  9
$PUCSNAME
  2

  9
$PUCSORG
 10
0.0
 20
0.0
 30
0.0
  9
$PUCSXDIR
 10
1.0
 20
0.0
 30
0.0
  9
$PUCSYDIR
 10
0.0
 20
1.0
 30
0.0
  9
$PUCSORTHOREF
  2

  9
$PUCSORTHOVIEW
 70
     0
  9
$PUCSORGTOP
 10
0.0
 20
0.0
 30
0.0
  9
$PUCSORGBOTTOM
 10
0.0
 20
0.0
 30
0.0
  9
$PUCSORGLEFT
 10
0.0
 20
0.0
 30
0.0
  9
$PUCSORGRIGHT
 10
0.0
 20
0.0
 30
0.0
  9
$PUCSORGFRONT
 10
0.0
 20
0.0
 30
0.0
  9
$PUCSORGBACK
 10
0.0
 20
0.0
 30
0.0
  9
$USERI1
 70
     0
  9
$USERI2
 70
     0
  9
$USERI3
 70
     0
  9
$USERI4
 70
     0
  9
$USERI5
 70
     0
  9
$USERR1
 40
210.0
  9
$USERR2
 40
297.0
  9
$USERR3
 40
20.0
  9
$USERR4
 40
0.0
  9
$USERR5
 40
0.0
  9
$WORLDVIEW
 70
     1
  9
$SHADEDGE
 70
     3
  9
$SHADEDIF
 70
    70
  9
$TILEMODE
 70
     1
  9
$MAXACTVP
 70
    16
  9
$PINSBASE
 10
0.0
 20
0.0
 30
0.0
  9
$PLIMCHECK
 70
     0
  9
$PEXTMIN
 10
1.000000000000000E+20
 20
1.000000000000000E+20
 30
1.000000000000000E+20
  9
$PEXTMAX
 10
-1.000000000000000E+20
 20
-1.000000000000000E+20
 30
-1.000000000000000E+20
  9
$PLIMMIN
 10
0.0
 20
0.0
  9
$PLIMMAX
 10
12.0
 20
9.0
  9
$UNITMODE
 70
     0
  9
$VISRETAIN
 70
     0
  9
$PLINEGEN
 70
     0
  9
$PSLTSCALE
 70
     0
  9
$TREEDEPTH
 70
  3020
  9
$CMLSTYLE
  2
Standard
  9
$CMLJUST
 70
     0
  9
$CMLSCALE
 40
1.0
  9
$PROXYGRAPHICS
 70
     1
  9
$MEASUREMENT
 70
     0
  9
$CELWEIGHT
370
    -1
  9
$ENDCAPS
280
     0
  9
$JOINSTYLE
280
     0
  9
$LWDISPLAY
290
     0
  9
$INSUNITS
 70
     0
  9
$HYPERLINKBASE
  1

  9
$STYLESHEET
  1

  9
$XEDIT
290
     1
  9
$CEPSNTYPE
380
     0
  9
$PSTYLEMODE
290
     1
  9
$FINGERPRINTGUID
  2
{AA094520-1803-634D-A78B-C2D52C796A4C}
  9
$VERSIONGUID
  2
{F97E2723-0A4B-BE4C-BFB5-FF13A524C75F}
  9
$EXTNAMES
290
     1
  9
$PSVPSCALE
 40
0.0
  9
$OLESTARTUP
290
     0
  9
$SORTENTS
280
   127
  9
$INDEXCTL
280
     0
  9
$HIDETEXT
280
     0
  9
$XCLIPFRAME
290
     0
  9
$HALOGAP
280
     0
  9
$OBSCOLOR
 70
   257
  9
$OBSLTYPE
280
     0
  9
$INTERSECTIONDISPLAY
280
     0
  9
$INTERSECTIONCOLOR
 70
   257
  9
$DIMASSOC
280
     1
  9
$PROJECTNAME
  1

  0
ENDSEC
  0
SECTION
  2
CLASSES
  0
CLASS
  1
ACDBDICTIONARYWDFLT
  2
AcDbDictionaryWithDefault
  3
ObjectDBX Classes
 90
        0
 91
        1
280
     0
281
     0
  0
CLASS
  1
MATERIAL
  2
AcDbMaterial
  3
ObjectDBX Classes
 90
     1153
 91
        3
280
     0
281
     0
  0
CLASS
  1
VISUALSTYLE
  2
AcDbVisualStyle
  3
ObjectDBX Classes
 90
     4095
 91
       24
280
     0
281
     0
  0
CLASS
  1
SCALE
  2
AcDbScale
  3
ObjectDBX Classes
 90
     1153
 91
       17
280
     0
281
     0
  0
CLASS
  1
TABLESTYLE
  2
AcDbTableStyle
  3
ObjectDBX Classes
 90
     4095
 91
        1
280
     0
281
     0
  0
CLASS
  1
MLEADERSTYLE
  2
AcDbMLeaderStyle
  3
ACDB_MLEADERSTYLE_CLASS
 90
     4095
 91
        1
280
     0
281
     0
  0
CLASS
  1
ACDBSECTIONVIEWSTYLE
  2
AcDbSectionViewStyle
  3
ObjectDBX Classes
 90
     1025
 91
        3
280
     0
281
     0
  0
CLASS
  1
ACDBDETAILVIEWSTYLE
  2
AcDbDetailViewStyle
  3
ObjectDBX Classes
 90
     1025
 91
        3
280
     0
281
     0
  0
CLASS
  1
AMGSETTINGSOBJ
  2
AmgSettingsObj
  3
"AcadM|Product Description: AutoCAD Mechanical|Company: Autodesk, Inc."
 90
     1024
 91
        2
280
     0
281
     0
  0
CLASS
  1
ACME_DOCUMENT
  2
AcMeDbDoc
  3
AcMeServices
 90
     1024
 91
        1
280
     0
281
     0
  0
CLASS
  1
ACMESCOPE
  2
AcMeScope
  3
AcMeServices
 90
     1024
 91
        1
280
     0
281
     0
  0
CLASS
  1
ACMECOMMANDHISTORY
  2
AcMeCommandHistory
  3
AcMeServices
 90
     1024
 91
        1
280
     0
281
     0
  0
CLASS
  1
ACIMSYSVARMAN
  2
AcImSysVarManager
  3
AcMeServices
 90
     1024
 91
        3
280
     0
281
     0
  0
CLASS
  1
ACIMINTSYSVAR
  2
AcImIntSysVar
  3
AcMeServices
 90
     1024
 91
        2
280
     0
281
     0
  0
CLASS
  1
ACMESTATEMGR
  2
AcMeStateMgr
  3
AcMeServices
 90
     1024
 91
        1
280
     0
281
     0
  0
CLASS
  1
ACDBENTITYCACHE
  2
AcMeEntityCache
  3
AcMeServices
 90
     1024
 91
        1
280
     0
281
     0
  0
CLASS
  1
ACGREFMASTER
  2
AcGrefMaster
  3
AcAttribServices
 90
     1024
 91
        1
280
     0
281
     0
  0
CLASS
  1
ACME_DATABASE
  2
AcMeDbDatabase
  3
AcMeServices
 90
     1024
 91
        1
280
     0
281
     0
  0
CLASS
  1
ACRFINSADJUSTERMGR
  2
AcRfInsAdjusterMgr
  3
AcMeServices
 90
     1024
 91
        1
280
     0
281
     0
  0
CLASS
  1
ACGREFACADMASTER
  2
AcGrefacadMaster
  3
AcGrefServices
 90
     1024
 91
        1
280
     0
281
     0
  0
CLASS
  1
AMIMASTER
  2
AmiMaster
  3
AmiServices
 90
     1024
 91
        1
280
     0
281
     0
  0
CLASS
  1
AMDTMENUSTATEMGR
  2
AmdtMenuStateMgr
  3
McadcomServices
 90
     1024
 91
        1
280
     0
281
     0
  0
CLASS
  1
AMDTMCOMMENUSTATE
  2
AmdtMcomMenuState
  3
McadcomServices
 90
     1024
 91
        1
280
     0
281
     0
  0
CLASS
  1
MAPIAMMOUDLE
  2
MApiAmModule
  3
MApiAmServices
 90
     1024
 91
        1
280
     0
281
     0
  0
CLASS
  1
ACIMSTRSYSVAR
  2
AcImStrSysVar
  3
AcMeServices
 90
     1024
 91
        5
280
     0
281
     0
  0
CLASS
  1
AMDTAMMENUSTATE
  2
AmdtAmMenuState
  3
DesignerAssemblies_arx
 90
     1024
 91
        1
280
     0
281
     0
  0
CLASS
  1
ACAMPROJECT
  2
AcAmProject
  3
DesignerAssemblies
 90
     1024
 91
        1
280
     0
281
     0
  0
CLASS
  1
ACAMGRCOMPDEF
  2
AcAmGrCompDef
  3
DesignerAssemblies
 90
     1024
 91
        1
280
     0
281
     0
  0
CLASS
  1
ACAMCOMPDEF
  2
AcAmCompDef
  3
DesignerAssemblies
 90
     1024
 91
        1
280
     0
281
     0
  0
CLASS
  1
ACAMCOMPDEFMGR
  2
AcAmCompDefMgr
  3
DesignerAssemblies
 90
     1024
 91
        1
280
     0
281
     0
  0
CLASS
  1
AMCONTEXTMGR
  2
AcAmContextMgr
  3
DesignerAssemblies
 90
     1024
 91
        1
280
     0
281
     0
  0
CLASS
  1
ACAMCONTEXTMODELER
  2
AcAmContextModeler
  3
DesignerAssemblies
 90
     1024
 91
        1
280
     0
281
     0
  0
CLASS
  1
ACMDATADICTIONARY
  2
AcmDataDictionary
  3
"AcmSymBB|Product Description: AutoCAD Mechanical|Company: Autodesk, Inc."
 90
     1024
 91
        1
280
     0
281
     0
  0
CLASS
  1
ACAMGRCOMPDEFSET
  2
AcAmGrCompDefSet
  3
DesignerAssemblies
 90
     1024
 91
        1
280
     0
281
     0
  0
CLASS
  1
AMDTBROWSERDBTAB
  2
AmdtBrowserDbTab
  3
McadcomServices
 90
     1024
 91
        1
280
     0
281
     0
  0
CLASS
  1
CBROWSERAPPOBJECT
  2
CBrowserAppObject
  3
McadcomServices
 90
     1024
 91
        2
280
     0
281
     0
  0
CLASS
  1
DM_PLACEHOLDER
  2
AcDmSelsetPlaceholder
  3
McadcomServices
 90
     1024
 91
        1
280
     0
281
     0
  0
CLASS
  1
ACMSTANDARDANSI
  2
AcmStandardANSI
  3
"Amdt_StdImp|Product Description: AutoCAD Mechanical|Company: Autodesk, Inc."
 90
     1024
 91
        1
280
     0
281
     0
  0
CLASS
  1
ACMSURFSTANDARDANSI
  2
AcmSurfTextStdANSI
  3
"Amdt_StdImp|Product Description: AutoCAD Mechanical|Company: Autodesk, Inc."
 90
     1024
 91
        1
280
     0
281
     0
  0
CLASS
  1
ACMFCFSTANDARDANSI
  2
AcmFCFStdANSI
  3
"Amdt_StdImp|Product Description: AutoCAD Mechanical|Company: Autodesk, Inc."
 90
     1024
 91
        1
280
     0
281
     0
  0
CLASS
  1
ACMWELDSTANDARDANSI
  2
AcmWeldingStdANSI
  3
"Amdt_StdImp|Product Description: AutoCAD Mechanical|Company: Autodesk, Inc."
 90
     1024
 91
        1
280
     0
281
     0
  0
CLASS
  1
ACMIDSTANDARDANSI
  2
AcmIdStdANSI
  3
"Amdt_StdImp|Product Description: AutoCAD Mechanical|Company: Autodesk, Inc."
 90
     1024
 91
        1
280
     0
281
     0
  0
CLASS
  1
ACMDATUMSTANDARDANSI
  2
AcmDatumStdANSI
  3
"Amdt_StdImp|Product Description: AutoCAD Mechanical|Company: Autodesk, Inc."
 90
     1024
 91
        1
280
     0
281
     0
  0
CLASS
  1
ACMBOMSTANDARDANSI
  2
AcmBOMStdANSI
  3
"Amdt_StdImp|Product Description: AutoCAD Mechanical|Company: Autodesk, Inc."
 90
     1024
 91
        1
280
     0
281
     0
  0
CLASS
  1
ACMDETAILSTANDARDANSI
  2
AmdtDetailSymStdANSI
  3
"Amdt_StdImp|Product Description: AutoCAD Mechanical|Company: Autodesk, Inc."
 90
     1024
 91
        1
280
     0
281
     0
  0
CLASS
  1
ACMSECTIONSTANDARDANSI
  2
AmdtSectionSymStdANSI
  3
"Amdt_StdImp|Product Description: AutoCAD Mechanical|Company: Autodesk, Inc."
 90
     1024
 91
        1
280
     0
281
     0
  0
CLASS
  1
ACMCENTERLINESTANDARDANSI
  2
AmdtCenterLineStdANSI
  3
"Amdt_StdImp|Product Description: AutoCAD Mechanical|Company: Autodesk, Inc."
 90
     1024
 91
        1
280
     0
281
     0
  0
CLASS
  1
ACMTHREADLINESTANDARDANSI
  2
AmdtThreadLineStdANSI
  3
"Amdt_StdImp|Product Description: AutoCAD Mechanical|Company: Autodesk, Inc."
 90
     1024
 91
        1
280
     0
281
     0
  0
CLASS
  1
ACMNOTESTANDARDANSI
  2
AmdtNoteStdANSI
  3
"Amdt_StdImp|Product Description: AutoCAD Mechanical|Company: Autodesk, Inc."
 90
     1024
 91
        1
280
     0
281
     0
  0
CLASS
  1
ACMTAPERSTANDARDANSI
  2
AcmTaperStdANSI
  3
"Amdt_StdImp|Product Description: AutoCAD Mechanical|Company: Autodesk, Inc."
 90
     1024
 91
        1
280
     0
281
     0
  0
CLASS
  1
ACMANOOTATIONVIEWSTANDARDANSI
  2
AmdtAnViewStdANSI
  3
"Amdt_StdImp|Product Description: AutoCAD Mechanical|Company: Autodesk, Inc."
 90
     1024
 91
        1
280
     0
281
     0
  0
CLASS
  1
ACAMGLAYSTD
  2
AcAmgLayStd
  3
"AmgLay|Product Description: AutoCAD Mechanical|Company: Autodesk, Inc."
 90
     1024
 91
        1
280
     0
281
     0
  0
CLASS
  1
ACAMGDIMSTD
  2
AcAmgDimStd
  3
"AmgDim|Product Description: AutoCAD Mechanical|Company: Autodesk, Inc."
 90
     1024
 91
        1
280
     0
281
     0
  0
CLASS
  1
ACAMGHOLECHARTSTDANSI
  2
AcAmgHoleChartStdANSI
  3
"AmgDim" "Product Description: AutoCAD Mechanical|Company: Autodesk, Inc."
 90
     1024
 91
        1
280
     0
281
     0
  0
CLASS
  1
AMGOBJPROPCFG
  2
AmgObjPropCfg
  3
"AmgLay|Product Description: AutoCAD Mechanical|Company: Autodesk, Inc."
 90
     1024
 91
        1
280
     0
281
     0
  0
CLASS
  1
ACAMGTITLESTD
  2
AcAmgTitleStd
  3
"AmgTitle|Product Description: AutoCAD Mechanical|Company: Autodesk, Inc."
 90
     1024
 91
        1
280
     0
281
     0
  0
CLASS
  1
ACMSECTIONSTANDARDCUSTOM
  2
AmdtSectionSymStdCustom
  3
"Amdt_StdImp|Product Description: AutoCAD Mechanical|Company: Autodesk, Inc."
 90
     1024
 91
        2
280
     0
281
     0
  0
CLASS
  1
ACMDETAILTANDARDCUSTOM
  2
AmdtDetailSymStdCustom
  3
"Amdt_StdImp|Product Description: AutoCAD Mechanical|Company: Autodesk, Inc."
 90
     1024
 91
        2
280
     0
281
     0
  0
CLASS
  1
FIELD
  2
AcDbField
  3
ObjectDBX Classes
 90
     1152
 91
        8
280
     0
281
     0
  0
CLASS
  1
FIELDLIST
  2
AcDbFieldList
  3
ObjectDBX Classes
 90
     1152
 91
        1
280
     0
281
     0
  0
CLASS
  1
AMDTNOTETEMPLATEDB
  2
AmdtNoteTemplateDB
  3
"AcmSymBB" "Product Description: AutoCAD Mechanical|Company: Autodesk, Inc."
 90
     1024
 91
        7
280
     0
281
     0
  0
CLASS
  1
CAMSSTRUCTBTNSTATE
  2
StructBtnState
  3
DesignerAssemblies_arx
 90
     1024
 91
        0
280
     0
281
     0
  0
CLASS
  1
DICTIONARYVAR
  2
AcDbDictionaryVar
  3
ObjectDBX Classes
 90
        0
 91
       15
280
     0
281
     0
  0
CLASS
  1
ACAMGFILTERDAT
  2
AcAmgFilterDat
  3
"AcadM|Product Description: AutoCAD Mechanical|Company: Autodesk, Inc."
 90
     1024
 91
        0
280
     0
281
     0
  0
CLASS
  1
SORTENTSTABLE
  2
AcDbSortentsTable
  3
ObjectDBX Classes
 90
        0
 91
        1
280
     0
281
     0
  0
CLASS
  1
CELLSTYLEMAP
  2
AcDbCellStyleMap
  3
ObjectDBX Classes
 90
     1152
 91
        2
280
     0
281
     0
  0
ENDSEC
  0
SECTION
  2
TABLES
  0
TABLE
  2
VPORT
  5
A737
330
0
100
AcDbSymbolTable
 70
     1
  0
VPORT
  5
A7A2
330
A737
100
AcDbSymbolTableRecord
100
AcDbViewportTableRecord
  2
*ACTIVE
 70
     0
 10
0.0
 20
0.0
 11
1.0
 21
1.0
 12
2693.901262314239
 22
2359.959927260836
 13
0.0
 23
0.0
 14
1.0
 24
1.0
 15
0.0
 25
0.0
 16
0.0
 26
0.0
 36
1.0
 17
0.0
 27
0.0
 37
0.0
 40
3451.314945343249
 41
2.511936339522546
 42
50.0
 43
0.0
 44
0.0
 50
0.0
 51
0.0
 71
     0
 72
   100
 73
     1
 74
     1
 75
     0
 76
     0
 77
     0
 78
     0
281
     0
 65
     0
110
0.0
120
0.0
130
0.0
111
1.0
121
0.0
131
0.0
112
0.0
122
1.0
132
0.0
 79
     0
146
0.0
1001
ACAD_NAV_VCDISPLAY
1070
     3
  0
ENDTAB
  0
TABLE
  2
LTYPE
  5
A734
330
0
100
AcDbSymbolTable
 70
    16
  0
LTYPE
  5
A789
330
A734
100
AcDbSymbolTableRecord
100
AcDbLinetypeTableRecord
  2
ByBlock
 70
     0
  3

 72
    65
 73
     0
 40
0.0
  0
LTYPE
  5
A78A
330
A734
100
AcDbSymbolTableRecord
100
AcDbLinetypeTableRecord
  2
ByLayer
 70
     0
  3

 72
    65
 73
     0
 40
0.0
  0
LTYPE
  5
A78B
330
A734
100
AcDbSymbolTableRecord
100
AcDbLinetypeTableRecord
  2
CONTINUOUS
 70
     0
  3
Solid line
 72
    65
 73
     0
 40
0.0
  0
LTYPE
  5
A7A3
330
A734
100
AcDbSymbolTableRecord
100
AcDbLinetypeTableRecord
  2
HIDDEN
 70
     0
  3
_ _ _ _ _ _ _ _ _ _ _ _ _ _ _ _ _ _ _ _ _ _ _
 72
    65
 73
     2
 40
0.375
 49
0.25
 74
     0
 49
-0.125
 74
     0
  0
LTYPE
  5
A7A4
330
A734
100
AcDbSymbolTableRecord
100
AcDbLinetypeTableRecord
  2
CENTER
 70
     0
  3
____ _ ____ _ ____ _ ____ _ ____ _ ____ _ ____
 72
    65
 73
     4
 40
2.0
 49
1.25
 74
     0
 49
-0.25
 74
     0
 49
0.25
 74
     0
 49
-0.25
 74
     0
  0
LTYPE
  5
A7A6
330
A734
100
AcDbSymbolTableRecord
100
AcDbLinetypeTableRecord
  2
PHANTOM2
 70
     0
  3
Phantom (.5x) ___ _ _ ___ _ _ ___ _ _ ___ _ _
 72
    65
 73
     6
 40
1.25
 49
0.625
 74
     0
 49
-0.125
 74
     0
 49
0.125
 74
     0
 49
-0.125
 74
     0
 49
0.125
 74
     0
 49
-0.125
 74
     0
  0
LTYPE
  5
A7AA
330
A734
100
AcDbSymbolTableRecord
100
AcDbLinetypeTableRecord
  2
AMCONSTR
 70
     0
  3
_______________________
 72
    65
 73
     2
 40
9999.0
 49
9999.0
 74
     0
 49
0.0
 74
     0
  0
LTYPE
  5
A7AE
330
A734
100
AcDbSymbolTableRecord
100
AcDbLinetypeTableRecord
  2
CENTER2
 70
     0
  3
Center (.5x) ___ _ ___ _ ___ _ ___ _ ___ _ ___
 72
    65
 73
     4
 40
1.125
 49
0.75
 74
     0
 49
-0.125
 74
     0
 49
0.125
 74
     0
 49
-0.125
 74
     0
  0
LTYPE
  5
A7AF
330
A734
100
AcDbSymbolTableRecord
100
AcDbLinetypeTableRecord
  2
HIDDEN2
 70
     0
  3
Hidden (.5x) _ _ _ _ _ _ _ _ _ _ _ _ _ _ _ _ _
 72
    65
 73
     2
 40
0.1875
 49
0.125
 74
     0
 49
-0.0625
 74
     0
  0
LTYPE
  5
A7B0
330
A734
100
AcDbSymbolTableRecord
100
AcDbLinetypeTableRecord
  2
AMZIGZAG2
 70
     0
  3
/\/-/\/-/\/-/\/-/\/-/\/
 72
    65
 73
     2
 40
0.4401
 49
0.0001
 74
     0
 49
-0.4400000000000003
 74
     0
  0
LTYPE
  5
A7B1
330
A734
100
AcDbSymbolTableRecord
100
AcDbLinetypeTableRecord
  2
ACANSTGB
 70
     0
  3
__ . . __ . .
 72
    65
 73
     6
 40
0.35433070866
 49
0.15748031496
 74
     0
 49
-0.03937007874
 74
     0
 49
0.03937007874
 74
     0
 49
-0.03937007874
 74
     0
 49
0.03937007874
 74
     0
 49
-0.03937007874
 74
     0
  0
LTYPE
  5
A7B2
330
A734
100
AcDbSymbolTableRecord
100
AcDbLinetypeTableRecord
  2
ACANSTGL
 70
     0
  3
_ _ _ _ _
 72
    65
 73
     2
 40
0.11811023622
 49
0.07874015748
 74
     0
 49
-0.03937007874
 74
     0
  0
LTYPE
  5
A905
330
A734
100
AcDbSymbolTableRecord
100
AcDbLinetypeTableRecord
  2
AM_ISO02W050
 70
     0
  3
__ __ __ __ __ __ __ __ __ __ __ __ __ __ __
 72
    65
 73
     2
 40
7.5
 49
6.0
 74
     0
 49
-1.5
 74
     0
  0
LTYPE
  5
A906
330
A734
100
AcDbSymbolTableRecord
100
AcDbLinetypeTableRecord
  2
AM_ISO08W050
 70
     0
  3
____ . ____ . ____ . ____ . ____ . ____ . ____
 72
    65
 73
     4
 40
18.0
 49
12.0
 74
     0
 49
-1.5
 74
     0
 49
3.0
 74
     0
 49
-1.5
 74
     0
  0
LTYPE
  5
A907
330
A734
100
AcDbSymbolTableRecord
100
AcDbLinetypeTableRecord
  2
AM_ISO09W050
 70
     0
  3
_____ . . _____ . . _____ . . ____ .. ____
 72
    65
 73
     6
 40
22.5
 49
12.0
 74
     0
 49
-1.5
 74
     0
 49
3.0
 74
     0
 49
-1.5
 74
     0
 49
3.0
 74
     0
 49
-1.5
 74
     0
  0
LTYPE
  5
A908
330
A734
100
AcDbSymbolTableRecord
100
AcDbLinetypeTableRecord
  2
AM_ISO08W050x2
 70
     0
  3
__ . __ . __ . __ . __ . __
 72
    65
 73
     4
 40
9.0
 49
6.0
 74
     0
 49
-0.75
 74
     0
 49
1.5
 74
     0
 49
-0.75
 74
     0
  0
LTYPE
  5
A909
330
A734
100
AcDbSymbolTableRecord
100
AcDbLinetypeTableRecord
  2
AM_ISO02W050x2
 70
     0
  3
 _ _ _ _ _ _ _ _ _ _ _ _
 72
    65
 73
     2
 40
3.75
 49
3.0
 74
     0
 49
-0.75
 74
     0
  0
LTYPE
  5
A90C
330
A734
100
AcDbSymbolTableRecord
100
AcDbLinetypeTableRecord
  2
Amzigzag
 70
     0
  3
/\/-/\/-/\/-/\/-/\/-/\/
 72
    65
 73
     2
 40
11.0001
 49
0.0001
 74
     4
 75
   136
340
A90B
 46
0.04
 50
0.0
 44
0.0
 45
0.0
 49
-11.0
 74
     0
  0
ENDTAB
  0
TABLE
  2
LAYER
  5
A731
102
{ACAD_XDICTIONARY
360
A8A4
102
}
330
0
100
AcDbSymbolTable
 70
     6
  0
LAYER
  5
A783
102
{ACAD_XDICTIONARY
360
A852
102
}
330
A731
100
AcDbSymbolTableRecord
100
AcDbLayerTableRecord
  2
0
 70
     0
 62
     7
  6
CONTINUOUS
370
    -3
390
A73E
  0
LAYER
  5
A7B6
102
{ACAD_XDICTIONARY
360
A854
102
}
330
A731
100
AcDbSymbolTableRecord
100
AcDbLayerTableRecord
  2
1
 70
     0
 62
     4
  6
CONTINUOUS
370
    -3
390
A73E
  0
LAYER
  5
A7B7
102
{ACAD_XDICTIONARY
360
A856
102
}
330
A731
100
AcDbSymbolTableRecord
100
AcDbLayerTableRecord
  2
SCALE
 70
     0
 62
     4
  6
CONTINUOUS
370
    -3
390
A73E
  0
LAYER
  5
A7B8
330
A731
100
AcDbSymbolTableRecord
100
AcDbLayerTableRecord
  2
DEFPOINTS
 70
     0
 62
     7
  6
CONTINUOUS
290
     0
370
    -3
390
A73E
  0
LAYER
  5
A925
330
A731
100
AcDbSymbolTableRecord
100
AcDbLayerTableRecord
  2
AM_CL
 70
     0
 62
     1
  6
AMCONSTR
370
    15
390
A73E
1001
ACAECLAYERSTANDARD
1000

1000

  0
LAYER
  5
A931
330
A731
100
AcDbSymbolTableRecord
100
AcDbLayerTableRecord
  2
HOJYO
 70
     0
 62
     6
  6
CONTINUOUS
370
    -3
390
A73E
  0
ENDTAB
  0
TABLE
  2
STYLE
  5
A732
330
0
100
AcDbSymbolTable
 70
     5
  0
STYLE
  5
A784
330
A732
100
AcDbSymbolTableRecord
100
AcDbTextStyleTableRecord
  2
STANDARD
 70
     0
 40
0.0
 41
1.0
 50
0.0
 71
     0
 42
50.0
  3
TXT
  4
bigfont
  0
STYLE
  5
A7B9
330
A732
100
AcDbSymbolTableRecord
100
AcDbTextStyleTableRecord
  2
MONO-SET
 70
     0
 40
0.0
 41
1.0
 50
0.0
 71
     0
 42
20.0
  3
MONOTXT
  4
BIGFONT
  0
STYLE
  5
A7BA
330
A732
100
AcDbSymbolTableRecord
100
AcDbTextStyleTableRecord
  2
ACANSGDT
 70
     0
 40
0.0
 41
1.0
 50
0.0
 71
     0
 42
50.0
  3
amgdt.shx
  4

  0
STYLE
  5
A90B
330
A732
100
AcDbSymbolTableRecord
100
AcDbTextStyleTableRecord
  2

 70
     1
 40
0.0
 41
1.0
 50
0.0
 71
     0
 42
50.0
  3
genltshp.shx
  4

  0
STYLE
  5
A90F
330
A732
100
AcDbSymbolTableRecord
100
AcDbTextStyleTableRecord
  2
ACANSTS
 70
     0
 40
0.0
 41
1.0
 50
0.0
 71
     0
 42
50.0
  3
romans.shx
  4

  0
ENDTAB
  0
TABLE
  2
VIEW
  5
A735
330
0
100
AcDbSymbolTable
 70
     1
  0
VIEW
  5
A7BC
330
A735
100
AcDbSymbolTableRecord
100
AcDbViewTableRecord
  2
ALL
 70
     0
 40
5940.0
 10
4317.66954377312
 20
2970.0
 41
8635.339087546238
 11
0.0
 21
0.0
 31
1.0
 12
0.0
 22
0.0
 32
0.0
 42
50.0
 43
0.0
 44
0.0
 50
0.0
 71
     0
281
     0
 72
     0
  0
ENDTAB
  0
TABLE
  2
UCS
  5
A736
330
0
100
AcDbSymbolTable
 70
     0
  0
ENDTAB
  0
TABLE
  2
APPID
  5
A738
330
0
100
AcDbSymbolTable
 70
    23
  0
APPID
  5
A785
330
A738
100
AcDbSymbolTableRecord
100
AcDbRegAppTableRecord
  2
ACAD
 70
     0
  0
APPID
  5
A78C
330
A738
100
AcDbSymbolTableRecord
100
AcDbRegAppTableRecord
  2
ACADANNOTATIVE
 70
     0
  0
APPID
  5
A7BD
330
A738
100
AcDbSymbolTableRecord
100
AcDbRegAppTableRecord
  2
MCAD_NO_VIS
 70
     0
  0
APPID
  5
A7BE
330
A738
100
AcDbSymbolTableRecord
100
AcDbRegAppTableRecord
  2
ACAD_TEMP_GRAPHIC
 70
     0
  0
APPID
  5
A7BF
330
A738
100
AcDbSymbolTableRecord
100
AcDbRegAppTableRecord
  2
ACATTRIBSERVICES
 70
     0
  0
APPID
  5
A7C0
330
A738
100
AcDbSymbolTableRecord
100
AcDbRegAppTableRecord
  2
DESIGNERASSEMBLIES
 70
     0
  0
APPID
  5
A7C1
330
A738
100
AcDbSymbolTableRecord
100
AcDbRegAppTableRecord
  2
ACAD_DSTYLE_DIMJAG
 70
     0
  0
APPID
  5
A7C2
330
A738
100
AcDbSymbolTableRecord
100
AcDbRegAppTableRecord
  2
ACAD_DSTYLE_DIMBREAK
 70
     0
  0
APPID
  5
A7C3
330
A738
100
AcDbSymbolTableRecord
100
AcDbRegAppTableRecord
  2
ACAD_NAV_VCDISPLAY
 70
     0
  0
APPID
  5
A7C4
330
A738
100
AcDbSymbolTableRecord
100
AcDbRegAppTableRecord
  2
ACAD_DSTYLE_DIMTALN
 70
     0
  0
APPID
  5
A7C5
330
A738
100
AcDbSymbolTableRecord
100
AcDbRegAppTableRecord
  2
ACAD_PSEXT
 70
     0
  0
APPID
  5
A7C6
330
A738
100
AcDbSymbolTableRecord
100
AcDbRegAppTableRecord
  2
ACAD_EXEMPT_FROM_CAD_STANDARDS
 70
     0
  0
APPID
  5
A7C7
330
A738
100
AcDbSymbolTableRecord
100
AcDbRegAppTableRecord
  2
GENIUS_GENTRA_14
 70
     0
  0
APPID
  5
A7C8
330
A738
100
AcDbSymbolTableRecord
100
AcDbRegAppTableRecord
  2
GENIUS_GENODEF_13
 70
     0
  0
APPID
  5
A7C9
330
A738
100
AcDbSymbolTableRecord
100
AcDbRegAppTableRecord
  2
GENIUS_GENOBJ-N-LIB_13
 70
     0
  0
APPID
  5
A7CA
330
A738
100
AcDbSymbolTableRecord
100
AcDbRegAppTableRecord
  2
GENIUS_GENOBJ-N-RSBK_13
 70
     0
  0
APPID
  5
A7CB
330
A738
100
AcDbSymbolTableRecord
100
AcDbRegAppTableRecord
  2
GENIUS_GENSCALE_13
 70
     0
  0
APPID
  5
A7CC
330
A738
100
AcDbSymbolTableRecord
100
AcDbRegAppTableRecord
  2
ACAUTHENVIRON
 70
     0
  0
APPID
  5
A7CD
330
A738
100
AcDbSymbolTableRecord
100
AcDbRegAppTableRecord
  2
ACDBDYNAMICBLOCKTRUENAME
 70
     0
  0
APPID
  5
A7CE
330
A738
100
AcDbSymbolTableRecord
100
AcDbRegAppTableRecord
  2
ACDBDYNAMICBLOCKGUID
 70
     0
  0
APPID
  5
A7CF
330
A738
100
AcDbSymbolTableRecord
100
AcDbRegAppTableRecord
  2
ACAD_DSTYLE_DIMINSPECT
 70
     0
  0
APPID
  5
A7D0
330
A738
100
AcDbSymbolTableRecord
100
AcDbRegAppTableRecord
  2
ACAECLAYERSTANDARD
 70
     0
  0
APPID
  5
A7D1
330
A738
100
AcDbSymbolTableRecord
100
AcDbRegAppTableRecord
  2
ACAD_MLEADERVER
 70
     0
  0
ENDTAB
  0
TABLE
  2
DIMSTYLE
  5
A739
330
0
100
AcDbSymbolTable
 70
     8
100
AcDbDimStyleTable
 71
     0
  0
DIMSTYLE
105
A786
330
A739
100
AcDbSymbolTableRecord
100
AcDbDimStyleTableRecord
  2
STANDARD
 70
     0
271
     2
272
     2
279
     2
284
     7
285
     7
286
     7
340
A784
  0
DIMSTYLE
105
A7D3
102
{ACAD_REACTORS
330
AA61
102
}
330
A739
100
AcDbSymbolTableRecord
100
AcDbDimStyleTableRecord
  2
AM_ANSI
 70
     0
  4
mm
 41
0.12
 42
0.05
 43
0.5
 44
0.1
 47
0.1
 48
0.1
 78
     7
140
0.12
141
0.0
146
0.71
147
0.06
176
   256
177
   256
178
     2
271
     2
272
     2
279
     2
284
     7
285
     7
286
     7
340
A784
  0
DIMSTYLE
105
A7D4
330
A739
100
AcDbSymbolTableRecord
100
AcDbDimStyleTableRecord
  2
AM_ANSI$3
 70
     0
  4
mm
 41
0.12
 42
0.05
 43
0.5
 44
0.1
 47
0.1
 48
0.1
 78
     7
140
0.12
141
0.0
146
0.71
147
0.06
176
   256
177
   256
178
     2
271
     2
272
     2
279
     2
284
     7
285
     7
286
     7
340
A784
  0
DIMSTYLE
105
A7D5
330
A739
100
AcDbSymbolTableRecord
100
AcDbDimStyleTableRecord
  2
AM_ANSI$4
 70
     0
  4
mm
 41
0.12
 42
0.05
 43
0.5
 44
0.1
 47
0.1
 48
0.1
 78
     7
140
0.12
141
0.0
146
0.71
147
0.06
176
   256
177
   256
178
     2
271
     2
272
     2
279
     2
284
     7
285
     7
286
     7
340
A784
  0
DIMSTYLE
105
A7D6
330
A739
100
AcDbSymbolTableRecord
100
AcDbDimStyleTableRecord
  2
AM_ANSI$7
 70
     0
  4
mm
 41
0.12
 42
0.05
 43
0.5
 44
0.1
 47
0.1
 48
0.1
 78
     7
140
0.12
141
0.0
146
0.71
147
0.06
176
   256
177
   256
178
     2
271
     2
272
     2
279
     2
284
     7
285
     7
286
     7
340
A784
  0
DIMSTYLE
105
A7D7
330
A739
100
AcDbSymbolTableRecord
100
AcDbDimStyleTableRecord
  2
AM_ANSI$SF
 70
     0
  4
mm
 41
0.12
 42
0.05
 43
0.5
 44
0.1
 47
0.1
 48
0.1
 75
     1
 76
     1
 78
     7
140
0.12
141
0.0
146
0.71
147
0.06
176
   256
177
   256
178
     2
271
     2
272
     2
279
     2
284
     7
285
     7
286
     7
340
A784
  0
DIMSTYLE
105
A7D8
330
A739
100
AcDbSymbolTableRecord
100
AcDbDimStyleTableRecord
  2
AM_ANSI$SH
 70
     0
  4
mm
 41
0.12
 42
0.05
 43
0.5
 44
0.1
 47
0.1
 48
0.1
 75
     1
 76
     1
 78
     7
140
0.12
141
0.0
146
0.71
147
0.06
173
     1
176
   256
177
   256
178
     2
271
     2
272
     2
279
     2
284
     7
285
     7
286
     7
340
A784
  0
DIMSTYLE
105
A932
330
A739
100
AcDbSymbolTableRecord
100
AcDbDimStyleTableRecord
  2
YAZ1
 70
     0
 40
20.0
 41
2.0
 42
0.1
 43
5.0
 44
1.8
 73
     0
 74
     0
 78
     9
140
2.5
141
0.1
145
1.0
147
0.0
172
     1
173
     1
176
   256
177
   256
178
   256
271
     2
272
     2
279
     2
284
     9
285
     9
286
     9
340
A784
  0
ENDTAB
  0
TABLE
  2
BLOCK_RECORD
  5
A730
330
0
100
AcDbSymbolTable
 70
     4
  0
BLOCK_RECORD
  5
A79E
102
{ACAD_XDICTIONARY
360
A870
102
}
330
A730
100
AcDbSymbolTableRecord
100
AcDbBlockTableRecord
  2
*Model_Space
340
A7A1
  0
BLOCK_RECORD
  5
A79A
330
A730
100
AcDbSymbolTableRecord
100
AcDbBlockTableRecord
  2
*Paper_Space
340
A79D
  0
BLOCK_RECORD
  5
A7E8
330
A730
100
AcDbSymbolTableRecord
100
AcDbBlockTableRecord
  2
INSLYTXT
340
0
102
{BLKREFS
331
3B8C
331
3BE0
331
3D64
331
3F38
331
3F39
331
3F3A
331
3F3B
331
40CA
331
40CB
331
40CC
331
40CD
331
40CE
331
40CF
331
40D0
331
40D1
331
40D2
331
4157
331
4158
331
4159
331
415A
331
415B
331
415C
331
415D
331
415E
331
415F
331
4160
331
4161
331
4162
331
4163
331
91
331
A86
102
}
  0
BLOCK_RECORD
  5
A7EA
330
A730
100
AcDbSymbolTableRecord
100
AcDbBlockTableRecord
  2
_ACMFILLEDHALF
340
0
  0
BLOCK_RECORD
  5
A92B
330
A730
100
AcDbSymbolTableRecord
100
AcDbBlockTableRecord
  2
YAZ1
340
0
  0
ENDTAB
  0
ENDSEC
  0
SECTION
  2
BLOCKS
  0
BLOCK
  5
A79F
330
A79E
100
AcDbEntity
  8
0
100
AcDbBlockBegin
  2
*Model_Space
 70
     0
 10
0.0
 20
0.0
 30
0.0
  3
*Model_Space
  1

  0
ENDBLK
  5
A7A0
330
A79E
100
AcDbEntity
  8
0
100
AcDbBlockEnd
  0
BLOCK
  5
A79B
330
A79A
100
AcDbEntity
 67
     1
  8
0
100
AcDbBlockBegin
  2
*Paper_Space
 70
     0
 10
0.0
 20
0.0
 30
0.0
  3
*Paper_Space
  1

  0
ENDBLK
  5
A79C
330
A79A
100
AcDbEntity
 67
     1
  8
0
100
AcDbBlockEnd
  0
BLOCK
  5
A7E9
330
A7E8
100
AcDbEntity
  8
0
100
AcDbBlockBegin
  2
INSLYTXT
 70
     0
 10
0.0
 20
0.0
 30
0.0
  3
INSLYTXT
  1

  0
ENDBLK
  5
5B
330
A7E8
100
AcDbEntity
  8
0
100
AcDbBlockEnd
  0
BLOCK
  5
A7EB
330
A7EA
100
AcDbEntity
  8
0
100
AcDbBlockBegin
  2
_ACMFILLEDHALF
 70
     0
 10
0.0
 20
0.0
 30
0.0
  3
_ACMFILLEDHALF
  1

  0
TRACE
  5
9469
330
A7EA
100
AcDbEntity
  8
0
 62
     0
100
AcDbTrace
 10
-0.8
 20
0.0
 30
0.0
 11
-1.0
 21
0.166666666
 31
0.0
 12
0.0
 22
0.0
 32
0.0
 13
0.0
 23
0.0
 33
0.0
  0
LINE
  5
946A
330
A7EA
100
AcDbEntity
  8
0
 62
     0
100
AcDbLine
 10
-1.0
 20
0.0
 30
0.0
 11
-0.8
 21
0.0
 31
0.0
  0
ENDBLK
  5
9468
330
A7EA
100
AcDbEntity
  8
0
100
AcDbBlockEnd
  0
BLOCK
  5
A92C
330
A92B
100
AcDbEntity
  8
0
100
AcDbBlockBegin
  2
YAZ1
 70
     0
 10
184.0
 20
133.0
 30
0.0
  3
YAZ1
  1

  0
LINE
  5
A92D
330
A92B
100
AcDbEntity
  8
0
100
AcDbLine
 10
184.0
 20
133.0
 30
0.0
 11
183.0
 21
132.7320508075689
 31
0.0
  0
LINE
  5
A92E
330
A92B
100
AcDbEntity
  8
0
100
AcDbLine
 10
184.0
 20
133.0
 30
0.0
 11
183.0
 21
133.2679491924311
 31
0.0
  0
LINE
  5
A92F
330
A92B
100
AcDbEntity
  8
0
100
AcDbLine
 10
183.0
 20
133.0
 30
0.0
 11
184.0
 21
133.0
 31
0.0
  0
ENDBLK
  5
A930
330
A92B
100
AcDbEntity
  8
0
100
AcDbBlockEnd
  0
ENDSEC
  0
SECTION
  2
ENTITIES
  0
INSERT
  5
91
330
A79E
100
AcDbEntity
  8
0
100
AcDbBlockReference
  2
INSLYTXT
 10
0.0
 20
0.0
 30
0.0
  0
TEXT
  5
99
330
A79E
100
AcDbEntity
  8
SCALE
100
AcDbText
 10
2720.0
 20
1700.0
 30
0.0
 40
50.0
  1

  7
MONO-SET
100
AcDbText
  0
TEXT
  5
C3
330
A79E
100
AcDbEntity
  8
1
100
AcDbText
 10
250.0
 20
1700.0
 30
0.0
 40
50.0
  1

100
AcDbText
  0
TEXT
  5
D2
330
A79E
100
AcDbEntity
  8
SCALE
100
AcDbText
 10
850.0
 20
1220.0
 30
0.0
 40
50.0
  1

100
AcDbText
  0
TEXT
  5
180
330
A79E
100
AcDbEntity
  8
0
100
AcDbText
 10
180.0
 20
2781.14676505434
 30
0.0
 40
60.0
  1
＜基礎ボルト位置＞
100
AcDbText
  0
TEXT
  5
1C8
330
A79E
100
AcDbEntity
  8
0
100
AcDbText
 10
180.0
 20
5359.999999999999
 30
0.0
 40
60.0
  1
＜外形寸法図＞
100
AcDbText
  0
TEXT
  5
531
330
A79E
100
AcDbEntity
  8
0
100
AcDbText
 10
1900.0
 20
40.0
 30
0.0
 40
70.0
  1
BM -319ES2A　　　　(耐重塩害仕様)
  7
MONO-SET
100
AcDbText
  0
TEXT
  5
533
330
A79E
100
AcDbEntity
  8
0
100
AcDbText
 10
1858.826224037308
 20
230.0
 30
0.0
 40
70.0
  1
エアコン防振台
  7
MONO-SET
100
AcDbText
  0
INSERT
  5
A86
330
A79E
100
AcDbEntity
  8
0
100
AcDbBlockReference
  2
INSLYTXT
 10
2512.261080710007
 20
878.7322660464107
 30
0.0
  0
TEXT
  5
1131
330
A79E
100
AcDbEntity
  8
1
100
AcDbText
 10
100.0
 20
20.0
 30
0.0
 40
30.0
  1

 50
90.0
100
AcDbText
  0
LINE
  5
271D
330
A79E
100
AcDbEntity
  8
0
100
AcDbLine
 10
883.693455622564
 20
5059.999999999999
 30
0.0
 11
1585.582105754791
 21
5059.999999999999
 31
0.0
  0
TEXT
  5
271E
330
A79E
100
AcDbEntity
  8
0
100
AcDbText
 10
912.4721363903672
 20
5073.786425235971
 30
0.0
 40
50.0
  1
4-φ16 ＜機器取付穴＞
100
AcDbText
  0
TEXT
  5
29AD
330
A79E
100
AcDbEntity
  8
1
100
AcDbText
 10
2190.0
 20
660.0
 30
0.0
 40
50.0
  1

100
AcDbText
  0
TEXT
  5
29AE
330
A79E
100
AcDbEntity
  8
1
100
AcDbText
 10
2190.0
 20
580.0
 30
0.0
 40
50.0
  1

100
AcDbText
  0
INSERT
  5
3B8C
330
A79E
100
AcDbEntity
  8
0
100
AcDbBlockReference
  2
INSLYTXT
 10
8731.16191274985
 20
1495.61415299012
 30
0.0
  0
INSERT
  5
3BE0
330
A79E
100
AcDbEntity
  8
0
100
AcDbBlockReference
  2
INSLYTXT
 10
8067.03044157413
 20
733.6651537903427
 30
0.0
  0
INSERT
  5
3D64
330
A79E
100
AcDbEntity
  8
0
100
AcDbBlockReference
  2
INSLYTXT
 10
7163.149422934964
 20
602.6778062453332
 30
0.0
  0
INSERT
  5
3F38
330
A79E
100
AcDbEntity
  8
0
100
AcDbBlockReference
  2
INSLYTXT
 10
7661.331458775129
 20
636.7764708722273
 30
0.0
  0
INSERT
  5
3F39
330
A79E
100
AcDbEntity
  8
0
100
AcDbBlockReference
  2
INSLYTXT
 10
7870.423432019276
 20
636.7764708722273
 30
0.0
 41
0.5
 42
0.5
 43
0.5
  0
INSERT
  5
3F3A
330
A79E
100
AcDbEntity
  8
0
100
AcDbBlockReference
  2
INSLYTXT
 10
7870.423432019276
 20
636.7764708722273
 30
0.0
 41
0.5
 42
0.5
 43
0.5
  0
INSERT
  5
3F3B
330
A79E
100
AcDbEntity
  8
1
100
AcDbBlockReference
  2
INSLYTXT
 10
7870.423432019276
 20
636.7764708722273
 30
0.0
 41
0.5
 42
0.5
 43
0.5
  0
INSERT
  5
40CA
330
A79E
100
AcDbEntity
  8
0
100
AcDbBlockReference
  2
INSLYTXT
 10
6593.323123112056
 20
143.3797036029667
 30
0.0
  0
INSERT
  5
40CB
330
A79E
100
AcDbEntity
  8
0
100
AcDbBlockReference
  2
INSLYTXT
 10
6802.415096356202
 20
143.3797036029667
 30
0.0
 41
0.5
 42
0.5
 43
0.5
  0
INSERT
  5
40CC
330
A79E
100
AcDbEntity
  8
0
100
AcDbBlockReference
  2
INSLYTXT
 10
6802.415096356202
 20
143.3797036029667
 30
0.0
 41
0.5
 42
0.5
 43
0.5
  0
INSERT
  5
40CD
330
A79E
100
AcDbEntity
  8
1
100
AcDbBlockReference
  2
INSLYTXT
 10
6802.415096356202
 20
143.3797036029667
 30
0.0
 41
0.5
 42
0.5
 43
0.5
  0
INSERT
  5
40CE
330
A79E
100
AcDbEntity
  8
0
100
AcDbBlockReference
  2
INSLYTXT
 10
6544.749335845995
 20
161.705880183784
 30
0.0
  0
INSERT
  5
40CF
330
A79E
100
AcDbEntity
  8
0
100
AcDbBlockReference
  2
INSLYTXT
 10
6602.653108147624
 20
268.2541309676384
 30
0.0
  0
INSERT
  5
40D0
330
A79E
100
AcDbEntity
  8
0
100
AcDbBlockReference
  2
INSLYTXT
 10
6771.693154337262
 20
112.4943576280262
 30
0.0
  0
INSERT
  5
40D1
330
A79E
100
AcDbEntity
  8
0
100
AcDbBlockReference
  2
INSLYTXT
 10
6704.952928851611
 20
161.9572757140603
 30
0.0
  0
INSERT
  5
40D2
330
A79E
100
AcDbEntity
  8
0
100
AcDbBlockReference
  2
INSLYTXT
 10
6873.99297504125
 20
6.197502374448102
 30
0.0
  0
INSERT
  5
4157
330
A79E
100
AcDbEntity
  8
0
100
AcDbBlockReference
  2
INSLYTXT
 10
6787.947965296709
 20
98.23427414622473
 30
0.0
  0
INSERT
  5
4158
330
A79E
100
AcDbEntity
  8
0
100
AcDbBlockReference
  2
INSLYTXT
 10
6997.039938540857
 20
98.23427414622473
 30
0.0
 41
0.5
 42
0.5
 43
0.5
  0
INSERT
  5
4159
330
A79E
100
AcDbEntity
  8
0
100
AcDbBlockReference
  2
INSLYTXT
 10
6997.039938540857
 20
98.23427414622473
 30
0.0
 41
0.5
 42
0.5
 43
0.5
  0
INSERT
  5
415A
330
A79E
100
AcDbEntity
  8
1
100
AcDbBlockReference
  2
INSLYTXT
 10
6997.039938540857
 20
98.23427414622473
 30
0.0
 41
0.5
 42
0.5
 43
0.5
  0
INSERT
  5
415B
330
A79E
100
AcDbEntity
  8
0
100
AcDbBlockReference
  2
INSLYTXT
 10
6724.407496040254
 20
71.22373370439942
 30
0.0
  0
INSERT
  5
415C
330
A79E
100
AcDbEntity
  8
0
100
AcDbBlockReference
  2
INSLYTXT
 10
6790.412984193238
 20
134.1968371439165
 30
0.0
  0
INSERT
  5
415D
330
A79E
100
AcDbEntity
  8
0
100
AcDbBlockReference
  2
INSLYTXT
 10
6999.504957437387
 20
134.1968371439165
 30
0.0
 41
0.5
 42
0.5
 43
0.5
  0
INSERT
  5
415E
330
A79E
100
AcDbEntity
  8
0
100
AcDbBlockReference
  2
INSLYTXT
 10
6999.504957437387
 20
134.1968371439165
 30
0.0
 41
0.5
 42
0.5
 43
0.5
  0
INSERT
  5
415F
330
A79E
100
AcDbEntity
  8
1
100
AcDbBlockReference
  2
INSLYTXT
 10
6999.504957437387
 20
134.1968371439165
 30
0.0
 41
0.5
 42
0.5
 43
0.5
  0
INSERT
  5
4160
330
A79E
100
AcDbEntity
  8
0
100
AcDbBlockReference
  2
INSLYTXT
 10
6779.850110086027
 20
133.6940292634602
 30
0.0
  0
INSERT
  5
4161
330
A79E
100
AcDbEntity
  8
0
100
AcDbBlockReference
  2
INSLYTXT
 10
6988.942083330172
 20
133.6940292634602
 30
0.0
 41
0.5
 42
0.5
 43
0.5
  0
INSERT
  5
4162
330
A79E
100
AcDbEntity
  8
0
100
AcDbBlockReference
  2
INSLYTXT
 10
6988.942083330172
 20
133.6940292634602
 30
0.0
 41
0.5
 42
0.5
 43
0.5
  0
INSERT
  5
4163
330
A79E
100
AcDbEntity
  8
1
100
AcDbBlockReference
  2
INSLYTXT
 10
6988.942083330172
 20
133.6940292634602
 30
0.0
 41
0.5
 42
0.5
 43
0.5
  0
LINE
  5
5941
330
A79E
100
AcDbEntity
  8
0
100
AcDbLine
 10
897.4193525963292
 20
1628.88517497497
 30
0.0
 11
1696.851778948969
 21
1628.88517497497
 31
0.0
  0
TEXT
  5
5947
330
A79E
100
AcDbEntity
  8
0
100
AcDbText
 10
1201.519289520646
 20
1638.142412333861
 30
0.0
 40
50.0
  1
＜基礎ボルト穴＞
100
AcDbText
  0
LINE
  5
5B67
330
A79E
100
AcDbEntity
  8
0
100
AcDbLine
 10
1048.582354231972
 20
3340.000000000002
 30
0.0
 11
1294.582354231972
 21
3340.000000000002
 31
0.0
  0
LINE
  5
5B68
330
A79E
100
AcDbEntity
  8
0
100
AcDbLine
 10
1048.582354231972
 20
3360.000000000002
 30
0.0
 11
1294.582354231972
 21
3360.000000000002
 31
0.0
  0
LINE
  5
5B69
330
A79E
100
AcDbEntity
  8
0
100
AcDbLine
 10
1048.582354231972
 20
3360.000000000002
 30
0.0
 11
1048.582354231972
 21
3340.000000000002
 31
0.0
  0
LINE
  5
5B6A
330
A79E
100
AcDbEntity
  8
0
100
AcDbLine
 10
1294.582354231972
 20
3360.000000000002
 30
0.0
 11
1294.582354231972
 21
3340.000000000002
 31
0.0
  0
LINE
  5
6A9F
330
A79E
100
AcDbEntity
  8
0
100
AcDbLine
 10
1097.999934549497
 20
3365.0
 30
0.0
 11
767.0000000000003
 21
3365.000000000002
 31
0.0
  0
LINE
  5
6CDC
330
A79E
100
AcDbEntity
  8
0
100
AcDbLine
 10
1639.999920849255
 20
2541.146734856649
 30
0.0
 11
699.9999208492556
 21
2541.14682982981
 31
0.0
  0
LINE
  5
6CDD
330
A79E
100
AcDbEntity
  8
0
100
AcDbLine
 10
1611.499920849256
 20
2481.146737689817
 30
0.0
 11
730.4999208492557
 21
2481.146826996659
 31
0.0
  0
LINE
  5
6CE2
330
A79E
100
AcDbEntity
  8
0
100
AcDbLine
 10
730.4999208492557
 20
2481.146826996659
 30
0.0
 11
730.4999208492557
 21
2281.146782298621
 31
0.0
  0
LINE
  5
6CE3
330
A79E
100
AcDbEntity
  8
0
100
AcDbLine
 10
699.9999208492556
 20
2541.14682982981
 30
0.0
 11
699.9999208492556
 21
2281.146782298621
 31
0.0
  0
LINE
  5
6CED
330
A79E
100
AcDbEntity
  8
0
100
AcDbLine
 10
799.9999208492556
 20
2489.211037383936
 30
0.0
 11
799.9999208492556
 21
2533.082593246985
 31
0.0
  0
CIRCLE
  5
6CEE
330
A79E
100
AcDbEntity
  8
0
100
AcDbCircle
 10
799.9999208492556
 20
2511.146815315461
 30
0.0
 40
10.0
  0
LINE
  5
6CF0
330
A79E
100
AcDbEntity
  8
0
100
AcDbLine
 10
778.0641429177316
 20
2511.146815315461
 30
0.0
 11
821.9356987807801
 21
2511.146815315461
 31
0.0
  0
LINE
  5
6CF4
330
A79E
100
AcDbEntity
  8
0
100
AcDbLine
 10
1639.999920849255
 20
2541.146734856649
 30
0.0
 11
1639.999920849256
 21
2281.146782298621
 31
0.0
  0
LINE
  5
6CF5
330
A79E
100
AcDbEntity
  8
0
100
AcDbLine
 10
1611.499920849256
 20
2481.146737689817
 30
0.0
 11
1611.499920849256
 21
2281.146782298621
 31
0.0
  0
CIRCLE
  5
6CFB
330
A79E
100
AcDbEntity
  8
0
100
AcDbCircle
 10
1539.999920849256
 20
2511.146749371
 30
0.0
 40
10.0
  0
LINE
  5
6CFC
330
A79E
100
AcDbEntity
  8
0
100
AcDbLine
 10
1518.064142917731
 20
2511.146749371
 30
0.0
 11
1561.93569878078
 21
2511.146749371
 31
0.0
  0
LINE
  5
6D00
330
A79E
100
AcDbEntity
  8
0
100
AcDbLine
 10
1539.999920849256
 20
2489.210971439477
 30
0.0
 11
1539.999920849256
 21
2533.082527302523
 31
0.0
  0
LINE
  5
6D02
330
A79E
100
AcDbEntity
  8
0
100
AcDbLine
 10
1611.499920849256
 20
1837.146826907423
 30
0.0
 11
1611.499920849256
 21
2281.146782298621
 31
0.0
  0
LINE
  5
6D03
330
A79E
100
AcDbEntity
  8
0
100
AcDbLine
 10
1639.999920849256
 20
1777.146829740593
 30
0.0
 11
1639.999920849256
 21
2281.146782298621
 31
0.0
  0
LINE
  5
6D04
330
A79E
100
AcDbEntity
  8
0
100
AcDbLine
 10
699.9999208492556
 20
1777.146734767431
 30
0.0
 11
699.9999208492556
 21
2281.146782298621
 31
0.0
  0
LINE
  5
6D05
330
A79E
100
AcDbEntity
  8
0
100
AcDbLine
 10
730.4999208492561
 20
1837.14673760058
 30
0.0
 11
730.4999208492557
 21
2281.146782298621
 31
0.0
  0
LINE
  5
6D06
330
A79E
100
AcDbEntity
  8
0
100
AcDbLine
 10
1611.499920849256
 20
1837.146826907423
 30
0.0
 11
730.4999208492561
 21
1837.14673760058
 31
0.0
  0
LINE
  5
6D07
330
A79E
100
AcDbEntity
  8
0
100
AcDbLine
 10
1639.999920849256
 20
1777.146829740593
 30
0.0
 11
699.9999208492556
 21
1777.146734767431
 31
0.0
  0
LINE
  5
6D0F
330
A79E
100
AcDbEntity
  8
0
100
AcDbLine
 10
778.0641429177316
 20
1807.14674928178
 30
0.0
 11
821.9356987807801
 21
1807.14674928178
 31
0.0
  0
CIRCLE
  5
6D10
330
A79E
100
AcDbEntity
  8
0
100
AcDbCircle
 10
799.9999208492556
 20
1807.14674928178
 30
0.0
 40
10.0
  0
LINE
  5
6D11
330
A79E
100
AcDbEntity
  8
0
100
AcDbLine
 10
799.9999208492556
 20
1829.082527213303
 30
0.0
 11
799.9999208492556
 21
1785.210971350257
 31
0.0
  0
LINE
  5
6D14
330
A79E
100
AcDbEntity
  8
0
100
AcDbLine
 10
1518.064142917731
 20
1807.146815226241
 30
0.0
 11
1561.93569878078
 21
1807.146815226241
 31
0.0
  0
CIRCLE
  5
6D15
330
A79E
100
AcDbEntity
  8
0
100
AcDbCircle
 10
1539.999920849256
 20
1807.146815226241
 30
0.0
 40
10.0
  0
LINE
  5
6D17
330
A79E
100
AcDbEntity
  8
0
100
AcDbLine
 10
1539.999920849256
 20
1829.082593157765
 30
0.0
 11
1539.999920849256
 21
1785.211037294717
 31
0.0
  0
TEXT
  5
6E92
330
A79E
100
AcDbEntity
  8
0
100
AcDbText
 10
1033.634704482546
 20
3944.390352937665
 30
0.0
 40
48.0
  1
「正面側」ラベル
 50
0.0000034302065188
100
AcDbText
  0
LINE
  5
764B
330
A79E
100
AcDbEntity
  8
0
100
AcDbLine
 10
819.1822027527816
 20
1772.046321065393
 30
0.0
 11
897.4193525963292
 21
1628.88517497497
 31
0.0
  0
LINE
  5
7C85
330
A79E
100
AcDbEntity
  8
0
100
AcDbLine
 10
1573.000020874026
 20
4799.999988439174
 30
0.0
 11
767.0000445764757
 21
4800.000077080797
 31
0.0
  0
LINE
  5
7C86
330
A79E
100
AcDbEntity
  8
0
100
AcDbLine
 10
1573.000020874026
 20
4859.999988439162
 30
0.0
 11
767.0000445764757
 21
4860.000077080787
 31
0.0
  0
LINE
  5
7C87
330
A79E
100
AcDbEntity
  8
0
100
AcDbLine
 10
1573.000020874026
 20
4156.000076991563
 30
0.0
 11
767.0000445764757
 21
4155.999988349939
 31
0.0
  0
LINE
  5
7C88
330
A79E
100
AcDbEntity
  8
0
100
AcDbLine
 10
1573.000020874025
 20
4096.000076991573
 30
0.0
 11
767.0000445764757
 21
4095.99998834995
 31
0.0
  0
LINE
  5
7C95
330
A79E
100
AcDbEntity
  8
0
100
AcDbLine
 10
730.0
 20
4163.000071075837
 30
0.0
 11
730.0
 21
4792.999994354899
 31
0.0
  0
LINE
  5
7D8E
330
A79E
100
AcDbEntity
  8
0
100
AcDbLine
 10
2391.759343849678
 20
4163.000129480581
 30
0.0
 11
2391.759326644997
 21
4792.999935950156
 31
0.0
  0
LINE
  5
7D8F
330
A79E
100
AcDbEntity
  8
0
100
AcDbLine
 10
2283.759343849676
 20
4163.000129480581
 30
0.0
 11
2283.759326644997
 21
4792.999935950156
 31
0.0
  0
LINE
  5
7D90
330
A79E
100
AcDbEntity
  8
0
100
AcDbLine
 10
2253.759343849676
 20
4163.000129480581
 30
0.0
 11
2253.759326644997
 21
4792.999935950156
 31
0.0
  0
LINE
  5
7D91
330
A79E
100
AcDbEntity
  8
0
100
AcDbLine
 10
2361.759343849678
 20
4162.985410854818
 30
0.0
 11
2361.759326644997
 21
4793.014654575918
 31
0.0
  0
LINE
  5
7D93
330
A79E
100
AcDbEntity
  8
0
100
AcDbLine
 10
1610.0
 20
4163.000071075837
 30
0.0
 11
1610.0
 21
4792.999994354899
 31
0.0
  0
LINE
  5
7D94
330
A79E
100
AcDbEntity
  8
0
100
AcDbLine
 10
1640.0
 20
4163.000071075837
 30
0.0
 11
1640.0
 21
4792.999994354899
 31
0.0
  0
LINE
  5
7DC6
330
A79E
100
AcDbEntity
  8
0
100
AcDbLine
 10
2391.759343849678
 20
4163.000129480581
 30
0.0
 11
2391.759343849678
 21
4102.30012948058
 31
0.0
  0
ARC
  5
7DC7
330
A79E
100
AcDbEntity
  8
0
100
AcDbCircle
 10
2362.259343849676
 20
4154.50012948058
 30
0.0
 40
8.5
100
AcDbArc
 50
90.0
 51
180.0
  0
ARC
  5
7DC8
330
A79E
100
AcDbEntity
  8
0
100
AcDbCircle
 10
2316.259343849677
 20
4155.500066943909
 30
0.0
 40
7.5
100
AcDbArc
 50
0.0
 51
90.0
  0
LINE
  5
7DC9
330
A79E
100
AcDbEntity
  8
0
100
AcDbLine
 10
2253.759343849676
 20
4163.000129480581
 30
0.0
 11
2253.759343849676
 21
4096.00012948058
 31
0.0
  0
LINE
  5
7DCA
330
A79E
100
AcDbEntity
  8
0
100
AcDbLine
 10
2388.759343849676
 20
4096.00012948058
 30
0.0
 11
2353.759343849677
 21
4096.00012948058
 31
0.0
  0
ARC
  5
7DCB
330
A79E
100
AcDbEntity
  8
0
100
AcDbCircle
 10
2383.759343849676
 20
4110.000129480581
 30
0.0
 40
7.0
100
AcDbArc
 50
180.0
 51
270.0
  0
LINE
  5
7DCC
330
A79E
100
AcDbEntity
  8
0
100
AcDbLine
 10
2366.059343849677
 20
4096.00012948058
 30
0.0
 11
2387.459343849677
 21
4096.00012948058
 31
0.0
  0
ARC
  5
7DCD
330
A79E
100
AcDbEntity
  8
0
100
AcDbCircle
 10
2383.759343849676
 20
4141.00012948058
 30
0.0
 40
7.0
100
AcDbArc
 50
90.0
 51
180.0
  0
LINE
  5
7DCE
330
A79E
100
AcDbEntity
  8
0
100
AcDbLine
 10
2391.759343849677
 20
4158.500129480581
 30
0.0
 11
2362.259343849676
 21
4158.500129480581
 31
0.0
  0
LINE
  5
7DD2
330
A79E
100
AcDbEntity
  8
0
100
AcDbLine
 10
2253.759343849676
 20
4158.500129480581
 30
0.0
 11
2316.259343849677
 21
4158.500129480581
 31
0.0
  0
LINE
  5
7DD4
330
A79E
100
AcDbEntity
  8
0
100
AcDbLine
 10
2253.759343849676
 20
4096.00012948058
 30
0.0
 11
2323.759343849676
 21
4096.00012948058
 31
0.0
  0
LINE
  5
7DD5
330
A79E
100
AcDbEntity
  8
0
100
AcDbLine
 10
2280.459346925635
 20
4111.621354664747
 30
0.0
 11
2280.459346551767
 21
4117.866199904208
 31
0.0
  0
ARC
  5
7DD6
330
A79E
100
AcDbEntity
  8
0
100
AcDbCircle
 10
2275.259344119083
 20
4117.500129474541
 30
0.0
 40
6.0
100
AcDbArc
 50
90.0
 51
270.0
  0
LINE
  5
7DD7
330
A79E
100
AcDbEntity
  8
0
100
AcDbLine
 10
2261.259344119083
 20
4108.500129474541
 30
0.0
 11
2261.259344119083
 21
4129.000129474539
 31
0.0
  0
ARC
  5
7DD8
330
A79E
100
AcDbEntity
  8
0
100
AcDbCircle
 10
2279.259344119083
 20
4117.500129474541
 30
0.0
 40
6.0
100
AcDbArc
 50
270.0
 51
90.0
  0
LINE
  5
7DD9
330
A79E
100
AcDbEntity
  8
0
100
AcDbLine
 10
2277.259344119083
 20
4106.121939432751
 30
0.0
 11
2277.259344119083
 21
4128.878319516333
 31
0.0
  0
LINE
  5
7DDA
330
A79E
100
AcDbEntity
  8
0
100
AcDbLine
 10
2293.259344119083
 20
4108.500129474541
 30
0.0
 11
2293.259344119083
 21
4158.500129474542
 31
0.0
  0
LINE
  5
7DE1
330
A79E
100
AcDbEntity
  8
0
100
AcDbLine
 10
2279.259344119083
 20
4111.500129474539
 30
0.0
 11
2275.259344119083
 21
4111.500129474539
 31
0.0
  0
ARC
  5
7DE2
330
A79E
100
AcDbEntity
  8
0
100
AcDbCircle
 10
2280.459347441774
 20
4103.000131156893
 30
0.0
 40
17.0
100
AcDbArc
 50
169.7394237516687
 51
172.3377477694324
  0
ARC
  5
7DE3
330
A79E
100
AcDbEntity
  8
0
100
AcDbCircle
 10
2265.593278574718
 20
4105.000130266886
 30
0.0
 40
2.0
100
AcDbArc
 50
172.3377477694324
 51
270.0000034302066
  0
LINE
  5
7DE4
330
A79E
100
AcDbEntity
  8
0
100
AcDbLine
 10
2266.759343256928
 20
4103.000130336697
 30
0.0
 11
2265.593278694455
 21
4103.000130266887
 31
0.0
  0
LINE
  5
7DE5
330
A79E
100
AcDbEntity
  8
0
100
AcDbLine
 10
2261.259344119083
 20
4108.500129474541
 30
0.0
 11
2268.259344119083
 21
4101.500129474541
 31
0.0
  0
LINE
  5
7DE6
330
A79E
100
AcDbEntity
  8
0
100
AcDbLine
 10
2268.259344119083
 20
4101.500129474541
 30
0.0
 11
2286.259344119083
 21
4101.500129474541
 31
0.0
  0
LINE
  5
7DE7
330
A79E
100
AcDbEntity
  8
0
100
AcDbLine
 10
2286.259344119083
 20
4101.500129474541
 30
0.0
 11
2293.259344119083
 21
4108.500129474541
 31
0.0
  0
ARC
  5
7DEA
330
A79E
100
AcDbEntity
  8
0
100
AcDbCircle
 10
2256.759344119083
 20
4129.000129474539
 30
0.0
 40
4.5
100
AcDbArc
 50
0.0
 51
90.0
  0
LINE
  5
7DEB
330
A79E
100
AcDbEntity
  8
0
100
AcDbLine
 10
2253.759344119083
 20
4133.500129474541
 30
0.0
 11
2256.759344119083
 21
4133.500129474541
 31
0.0
  0
LINE
  5
7DEC
330
A79E
100
AcDbEntity
  8
0
100
AcDbLine
 10
2258.259344119083
 20
4133.500129474541
 30
0.0
 11
2258.259344119083
 21
4141.372308113033
 31
0.0
  0
LINE
  5
7DED
330
A79E
100
AcDbEntity
  8
0
100
AcDbLine
 10
2279.259344119083
 20
4123.500129474542
 30
0.0
 11
2275.259344119083
 21
4123.500129474542
 31
0.0
  0
ARC
  5
7DEF
330
A79E
100
AcDbEntity
  8
0
100
AcDbCircle
 10
2278.459346551767
 20
4117.866199784475
 30
0.0
 40
2.0
100
AcDbArc
 50
0.0000034302065453
 51
97.66225909097929
  0
LINE
  5
7DF0
330
A79E
100
AcDbEntity
  8
0
100
AcDbLine
 10
2265.881154077292
 20
4117.500129474541
 30
0.0
 11
2288.637534160875
 21
4117.500129474541
 31
0.0
  0
ARC
  5
7DF1
330
A79E
100
AcDbEntity
  8
0
100
AcDbCircle
 10
2280.459347441774
 20
4103.000131156893
 30
0.0
 40
17.0
100
AcDbArc
 50
97.66225909097929
 51
130.3180389164757
  0
LINE
  5
7E00
330
A79E
100
AcDbEntity
  8
0
100
AcDbLine
 10
2358.259343849677
 20
4096.00012948058
 30
0.0
 11
2358.259343849676
 21
4154.50012948058
 31
0.0
  0
LINE
  5
7E01
330
A79E
100
AcDbEntity
  8
0
100
AcDbLine
 10
2353.759343849677
 20
4096.00012948058
 30
0.0
 11
2353.759343849676
 21
4154.50012948058
 31
0.0
  0
LINE
  5
7E02
330
A79E
100
AcDbEntity
  8
0
100
AcDbLine
 10
2323.759343849676
 20
4096.00006694391
 30
0.0
 11
2323.759343849677
 21
4128.00006694391
 31
0.0
  0
LINE
  5
7E03
330
A79E
100
AcDbEntity
  8
0
100
AcDbLine
 10
2319.259343849676
 20
4096.00006694391
 30
0.0
 11
2319.259343849676
 21
4128.00006694391
 31
0.0
  0
LINE
  5
7E1E
330
A79E
100
AcDbEntity
  8
0
100
AcDbLine
 10
2323.759343849676
 20
4128.00006694391
 30
0.0
 11
2323.759343849677
 21
4155.500066943909
 31
0.0
  0
LINE
  5
7E1F
330
A79E
100
AcDbEntity
  8
0
100
AcDbLine
 10
2319.259343849676
 20
4128.00006694391
 30
0.0
 11
2319.259343849677
 21
4155.500066943909
 31
0.0
  0
ARC
  5
7E20
330
A79E
100
AcDbEntity
  8
0
100
AcDbCircle
 10
2316.259343849677
 20
4155.500066943909
 30
0.0
 40
3.0
100
AcDbArc
 50
0.0
 51
90.0
  0
ARC
  5
7E32
330
A79E
100
AcDbEntity
  8
0
100
AcDbCircle
 10
2362.259343849676
 20
4154.50012948058
 30
0.0
 40
4.0
100
AcDbArc
 50
90.0
 51
180.0
  0
LINE
  5
7E33
330
A79E
100
AcDbEntity
  8
0
100
AcDbLine
 10
2376.759343849676
 20
4110.000129480581
 30
0.0
 11
2376.759343849676
 21
4141.00012948058
 31
0.0
  0
LINE
  5
7E34
330
A79E
100
AcDbEntity
  8
0
100
AcDbLine
 10
2391.759343849677
 20
4102.000129480581
 30
0.0
 11
2391.759343849677
 21
4099.00012948058
 31
0.0
  0
ARC
  5
7E35
330
A79E
100
AcDbEntity
  8
0
100
AcDbCircle
 10
2390.759343849677
 20
4102.000129480581
 30
0.0
 40
1.0
100
AcDbArc
 50
0.0
 51
90.0
  0
ARC
  5
7E36
330
A79E
100
AcDbEntity
  8
0
100
AcDbCircle
 10
2388.759343849676
 20
4099.00012948058
 30
0.0
 40
3.0
100
AcDbArc
 50
270.0
 51
0.0
  0
LINE
  5
7E37
330
A79E
100
AcDbEntity
  8
0
100
AcDbLine
 10
2390.759343849677
 20
4103.000129480579
 30
0.0
 11
2383.759343849676
 21
4103.000129480579
 31
0.0
  0
ARC
  5
7E38
330
A79E
100
AcDbEntity
  8
0
100
AcDbCircle
 10
2390.759343849677
 20
4149.00012948058
 30
0.0
 40
1.0
100
AcDbArc
 50
270.0
 51
0.0
  0
LINE
  5
7E39
330
A79E
100
AcDbEntity
  8
0
100
AcDbLine
 10
2390.759343849676
 20
4148.000129480581
 30
0.0
 11
2383.759343849676
 21
4148.000129480581
 31
0.0
  0
LINE
  5
7E3A
330
A79E
100
AcDbEntity
  8
0
100
AcDbLine
 10
2391.759343849678
 20
4163.000129480581
 30
0.0
 11
2362.259343849676
 21
4163.000129480581
 31
0.0
  0
LINE
  5
7E3B
330
A79E
100
AcDbEntity
  8
0
100
AcDbLine
 10
2253.759343849676
 20
4163.000129480581
 30
0.0
 11
2316.259343849677
 21
4163.000129480581
 31
0.0
  0
LINE
  5
7E6E
330
A79E
100
AcDbEntity
  8
0
100
AcDbLine
 10
2391.759343849677
 20
4797.499935950156
 30
0.0
 11
2362.259343849676
 21
4797.499935950156
 31
0.0
  0
LINE
  5
7E6F
330
A79E
100
AcDbEntity
  8
0
100
AcDbLine
 10
2391.759343849678
 20
4792.999935950156
 30
0.0
 11
2362.259343849676
 21
4792.999935950156
 31
0.0
  0
ARC
  5
7E70
330
A79E
100
AcDbEntity
  8
0
100
AcDbCircle
 10
2383.759343849676
 20
4814.999935950156
 30
0.0
 40
7.0
100
AcDbArc
 50
180.0
 51
270.0
  0
LINE
  5
7E71
330
A79E
100
AcDbEntity
  8
0
100
AcDbLine
 10
2366.059343849677
 20
4859.999935950157
 30
0.0
 11
2387.459343849677
 21
4859.999935950157
 31
0.0
  0
ARC
  5
7E72
330
A79E
100
AcDbEntity
  8
0
100
AcDbCircle
 10
2383.759343849676
 20
4845.999935950157
 30
0.0
 40
7.0
100
AcDbArc
 50
90.0
 51
180.0
  0
LINE
  5
7E73
330
A79E
100
AcDbEntity
  8
0
100
AcDbLine
 10
2388.759343849676
 20
4859.999935950157
 30
0.0
 11
2353.759343849677
 21
4859.999935950157
 31
0.0
  0
LINE
  5
7E74
330
A79E
100
AcDbEntity
  8
0
100
AcDbLine
 10
2353.759343849677
 20
4859.999935950157
 30
0.0
 11
2353.759343849676
 21
4801.499935950158
 31
0.0
  0
LINE
  5
7E75
330
A79E
100
AcDbEntity
  8
0
100
AcDbLine
 10
2358.259343849677
 20
4859.999935950157
 30
0.0
 11
2358.259343849676
 21
4801.499935950158
 31
0.0
  0
LINE
  5
7E76
330
A79E
100
AcDbEntity
  8
0
100
AcDbLine
 10
2319.259343849676
 20
4859.999998486826
 30
0.0
 11
2319.259343849676
 21
4827.999998486826
 31
0.0
  0
LINE
  5
7E77
330
A79E
100
AcDbEntity
  8
0
100
AcDbLine
 10
2323.759343849676
 20
4859.999998486826
 30
0.0
 11
2323.759343849677
 21
4827.999998486826
 31
0.0
  0
LINE
  5
7E78
330
A79E
100
AcDbEntity
  8
0
100
AcDbLine
 10
2253.759343849676
 20
4792.999935950156
 30
0.0
 11
2253.759343849676
 21
4859.999935950157
 31
0.0
  0
LINE
  5
7E7A
330
A79E
100
AcDbEntity
  8
0
100
AcDbLine
 10
2253.759343849676
 20
4797.499935950156
 30
0.0
 11
2316.259343849677
 21
4797.499935950156
 31
0.0
  0
LINE
  5
7E7B
330
A79E
100
AcDbEntity
  8
0
100
AcDbLine
 10
2253.759343849676
 20
4792.999935950156
 30
0.0
 11
2316.259343849677
 21
4792.999935950156
 31
0.0
  0
LINE
  5
7E7C
330
A79E
100
AcDbEntity
  8
0
100
AcDbLine
 10
2293.259344119083
 20
4847.499935956196
 30
0.0
 11
2293.259344119083
 21
4797.499935956195
 31
0.0
  0
LINE
  5
7E7D
330
A79E
100
AcDbEntity
  8
0
100
AcDbLine
 10
2258.259344119083
 20
4822.499935956195
 30
0.0
 11
2258.259344119083
 21
4814.157141464916
 31
0.0
  0
ARC
  5
7E7E
330
A79E
100
AcDbEntity
  8
0
100
AcDbCircle
 10
2256.759344119083
 20
4826.999935956195
 30
0.0
 40
4.5
100
AcDbArc
 50
270.0
 51
0.0
  0
LINE
  5
7E7F
330
A79E
100
AcDbEntity
  8
0
100
AcDbLine
 10
2253.759344119083
 20
4822.499935956195
 30
0.0
 11
2256.759344119083
 21
4822.499935956195
 31
0.0
  0
LINE
  5
7E80
330
A79E
100
AcDbEntity
  8
0
100
AcDbLine
 10
2279.259344119083
 20
4832.499935956196
 30
0.0
 11
2275.259344119083
 21
4832.499935956196
 31
0.0
  0
LINE
  5
7E81
330
A79E
100
AcDbEntity
  8
0
100
AcDbLine
 10
2265.881154077292
 20
4838.499935956195
 30
0.0
 11
2288.637534160875
 21
4838.499935956195
 31
0.0
  0
LINE
  5
7E82
330
A79E
100
AcDbEntity
  8
0
100
AcDbLine
 10
2286.259344119083
 20
4854.499935956195
 30
0.0
 11
2293.259344119083
 21
4847.499935956196
 31
0.0
  0
LINE
  5
7E83
330
A79E
100
AcDbEntity
  8
0
100
AcDbLine
 10
2268.259344119083
 20
4854.499935956195
 30
0.0
 11
2286.259344119083
 21
4854.499935956195
 31
0.0
  0
LINE
  5
7E84
330
A79E
100
AcDbEntity
  8
0
100
AcDbLine
 10
2280.459346925635
 20
4844.378710765989
 30
0.0
 11
2280.459346551767
 21
4838.133865526526
 31
0.0
  0
LINE
  5
7E85
330
A79E
100
AcDbEntity
  8
0
100
AcDbLine
 10
2279.259344119083
 20
4844.499935956195
 30
0.0
 11
2275.259344119083
 21
4844.499935956195
 31
0.0
  0
LINE
  5
7E86
330
A79E
100
AcDbEntity
  8
0
100
AcDbLine
 10
2266.759343256928
 20
4852.99993509404
 30
0.0
 11
2265.593278694455
 21
4852.99993516385
 31
0.0
  0
ARC
  5
7E87
330
A79E
100
AcDbEntity
  8
0
100
AcDbCircle
 10
2265.593278574718
 20
4850.99993516385
 30
0.0
 40
2.0
100
AcDbArc
 50
89.99999656979346
 51
187.6622522305675
  0
ARC
  5
7E88
330
A79E
100
AcDbEntity
  8
0
100
AcDbCircle
 10
2280.459347441774
 20
4852.999934273844
 30
0.0
 40
17.0
100
AcDbArc
 50
187.6622522305675
 51
190.2605762483311
  0
LINE
  5
7E89
330
A79E
100
AcDbEntity
  8
0
100
AcDbLine
 10
2277.259344119083
 20
4849.878125997986
 30
0.0
 11
2277.259344119083
 21
4827.121745914404
 31
0.0
  0
ARC
  5
7E8A
330
A79E
100
AcDbEntity
  8
0
100
AcDbCircle
 10
2279.259344119083
 20
4838.499935956195
 30
0.0
 40
6.0
100
AcDbArc
 50
270.0
 51
90.0
  0
ARC
  5
7E8B
330
A79E
100
AcDbEntity
  8
0
100
AcDbCircle
 10
2275.259344119083
 20
4838.499935956195
 30
0.0
 40
6.0
100
AcDbArc
 50
90.0
 51
270.0
  0
ARC
  5
7E8C
330
A79E
100
AcDbEntity
  8
0
100
AcDbCircle
 10
2280.459347441774
 20
4852.999934273844
 30
0.0
 40
17.0
100
AcDbArc
 50
229.6819610835242
 51
262.3377409090208
  0
ARC
  5
7E8D
330
A79E
100
AcDbEntity
  8
0
100
AcDbCircle
 10
2278.459346551767
 20
4838.133865646263
 30
0.0
 40
2.0
100
AcDbArc
 50
262.3377409090208
 51
359.9999965697934
  0
LINE
  5
7E8E
330
A79E
100
AcDbEntity
  8
0
100
AcDbLine
 10
2261.259344119083
 20
4847.499935956196
 30
0.0
 11
2268.259344119083
 21
4854.499935956195
 31
0.0
  0
LINE
  5
7E8F
330
A79E
100
AcDbEntity
  8
0
100
AcDbLine
 10
2261.259344119083
 20
4847.499935956196
 30
0.0
 11
2261.259344119083
 21
4826.999935956195
 31
0.0
  0
LINE
  5
7E90
330
A79E
100
AcDbEntity
  8
0
100
AcDbLine
 10
2323.759343849676
 20
4827.999998486826
 30
0.0
 11
2323.759343849677
 21
4800.499998486826
 31
0.0
  0
LINE
  5
7E91
330
A79E
100
AcDbEntity
  8
0
100
AcDbLine
 10
2319.259343849676
 20
4827.999998486826
 30
0.0
 11
2319.259343849677
 21
4800.499998486826
 31
0.0
  0
ARC
  5
7E9A
330
A79E
100
AcDbEntity
  8
0
100
AcDbCircle
 10
2316.259343849677
 20
4800.499998486826
 30
0.0
 40
3.0
100
AcDbArc
 50
270.0
 51
0.0
  0
ARC
  5
7E9B
330
A79E
100
AcDbEntity
  8
0
100
AcDbCircle
 10
2316.259343849677
 20
4800.499998486826
 30
0.0
 40
7.5
100
AcDbArc
 50
270.0
 51
0.0
  0
ARC
  5
7E9C
330
A79E
100
AcDbEntity
  8
0
100
AcDbCircle
 10
2362.259343849676
 20
4801.499935950158
 30
0.0
 40
4.0
100
AcDbArc
 50
180.0
 51
270.0
  0
ARC
  5
7E9D
330
A79E
100
AcDbEntity
  8
0
100
AcDbCircle
 10
2362.259343849676
 20
4801.499935950158
 30
0.0
 40
8.5
100
AcDbArc
 50
180.0
 51
270.0
  0
LINE
  5
7ECA
330
A79E
100
AcDbEntity
  8
0
100
AcDbLine
 10
2253.759343849676
 20
4859.999935950157
 30
0.0
 11
2323.759343849676
 21
4859.999935950157
 31
0.0
  0
ARC
  5
7ED6
330
A79E
100
AcDbEntity
  8
0
100
AcDbCircle
 10
2388.759343849676
 20
4856.999935950157
 30
0.0
 40
3.0
100
AcDbArc
 50
0.0
 51
90.0
  0
LINE
  5
7ED7
330
A79E
100
AcDbEntity
  8
0
100
AcDbLine
 10
2391.759343849678
 20
4792.999935950156
 30
0.0
 11
2391.759343849678
 21
4853.699935950157
 31
0.0
  0
LINE
  5
7ED8
330
A79E
100
AcDbEntity
  8
0
100
AcDbLine
 10
2390.759343849676
 20
4807.999935950157
 30
0.0
 11
2383.759343849676
 21
4807.999935950157
 31
0.0
  0
ARC
  5
7ED9
330
A79E
100
AcDbEntity
  8
0
100
AcDbCircle
 10
2390.759343849677
 20
4806.999935950156
 30
0.0
 40
1.0
100
AcDbArc
 50
0.0
 51
90.0
  0
LINE
  5
7EDA
330
A79E
100
AcDbEntity
  8
0
100
AcDbLine
 10
2391.759343849677
 20
4853.999935950156
 30
0.0
 11
2391.759343849677
 21
4856.999935950157
 31
0.0
  0
LINE
  5
7EDB
330
A79E
100
AcDbEntity
  8
0
100
AcDbLine
 10
2390.759343849677
 20
4852.999935950156
 30
0.0
 11
2383.759343849676
 21
4852.999935950156
 31
0.0
  0
ARC
  5
7EDC
330
A79E
100
AcDbEntity
  8
0
100
AcDbCircle
 10
2390.759343849677
 20
4853.999935950156
 30
0.0
 40
1.0
100
AcDbArc
 50
270.0
 51
0.0
  0
LINE
  5
7EDD
330
A79E
100
AcDbEntity
  8
0
100
AcDbLine
 10
2376.759343849676
 20
4845.999935950157
 30
0.0
 11
2376.759343849676
 21
4814.999935950156
 31
0.0
  0
LINE
  5
7EE8
330
A79E
100
AcDbEntity
  8
0
100
AcDbLine
 10
767.0000000000003
 20
3335.000000000002
 30
0.0
 11
1572.999934549498
 21
3335.000000000002
 31
0.0
  0
LINE
  5
7EE9
330
A79E
100
AcDbEntity
  8
0
100
AcDbLine
 10
767.0000000000003
 20
3365.000000000002
 30
0.0
 11
1572.999934549498
 21
3365.000000000002
 31
0.0
  0
LINE
  5
7EEA
330
A79E
100
AcDbEntity
  8
0
100
AcDbLine
 10
767.0000000000003
 20
3227.0
 30
0.0
 11
1572.999934549497
 21
3227.0
 31
0.0
  0
LINE
  5
7EEB
330
A79E
100
AcDbEntity
  8
0
100
AcDbLine
 10
766.9852813742392
 20
3257.0
 30
0.0
 11
899.9999335617772
 21
3257.0
 31
0.0
  0
LINE
  5
7F3D
330
A79E
100
AcDbEntity
  8
0
100
AcDbLine
 10
800.0000000000003
 20
3219.076055282288
 30
0.0
 11
800.0000000000003
 21
3262.947611145335
 31
0.0
  0
LINE
  5
8081
330
A79E
100
AcDbEntity
  8
0
100
AcDbLine
 10
1577.499934549497
 20
3360.500000000002
 30
0.0
 11
1633.499934549499
 21
3360.500000000002
 31
0.0
  0
ARC
  5
8082
330
A79E
100
AcDbEntity
  8
0
100
AcDbCircle
 10
1582.999934549497
 20
3338.300000000001
 30
0.0
 40
17.0
100
AcDbArc
 50
7.662255660784579
 51
82.3377443392412
  0
LINE
  5
8083
330
A79E
100
AcDbEntity
  8
0
100
AcDbLine
 10
1584.999934549497
 20
3338.300000000001
 30
0.0
 11
1597.866003296816
 21
3338.300000000001
 31
0.0
  0
LINE
  5
8088
330
A79E
100
AcDbEntity
  8
0
100
AcDbLine
 10
1607.999934549498
 20
3295.000000000002
 30
0.0
 11
1580.499934549498
 21
3295.0
 31
0.0
  0
LINE
  5
8089
330
A79E
100
AcDbEntity
  8
0
100
AcDbLine
 10
1607.999934549499
 20
3299.500000000002
 30
0.0
 11
1580.499934549498
 21
3299.5
 31
0.0
  0
LINE
  5
808E
330
A79E
100
AcDbEntity
  8
0
100
AcDbLine
 10
1639.999934549498
 20
3265.0
 30
0.0
 11
1581.499934549498
 21
3265.000000000001
 31
0.0
  0
LINE
  5
808F
330
A79E
100
AcDbEntity
  8
0
100
AcDbLine
 10
1639.999934549498
 20
3260.5
 30
0.0
 11
1581.499934549497
 21
3260.500000000001
 31
0.0
  0
LINE
  5
8091
330
A79E
100
AcDbEntity
  8
0
100
AcDbLine
 10
1625.999934549497
 20
3242.000000000002
 30
0.0
 11
1594.999934549497
 21
3242.000000000002
 31
0.0
  0
LINE
  5
8092
330
A79E
100
AcDbEntity
  8
0
100
AcDbLine
 10
1572.999934549497
 20
3365.000000000002
 30
0.0
 11
1639.999934549498
 21
3365.000000000002
 31
0.0
  0
LINE
  5
8093
330
A79E
100
AcDbEntity
  8
0
100
AcDbLine
 10
1572.999934549497
 20
3227.0
 30
0.0
 11
1633.699934549498
 21
3227.0
 31
0.0
  0
LINE
  5
8098
330
A79E
100
AcDbEntity
  8
0
100
AcDbLine
 10
1539.999934549498
 20
3219.076055282288
 30
0.0
 11
1539.999934549498
 21
3262.947611145335
 31
0.0
  0
ARC
  5
8099
330
A79E
100
AcDbEntity
  8
0
100
AcDbCircle
 10
1594.999934549497
 20
3235.000000000002
 30
0.0
 40
7.0
100
AcDbArc
 50
90.0
 51
180.0
  0
LINE
  5
809A
330
A79E
100
AcDbEntity
  8
0
100
AcDbLine
 10
1577.499934549497
 20
3227.0
 30
0.0
 11
1577.499934549497
 21
3256.500000000001
 31
0.0
  0
LINE
  5
809B
330
A79E
100
AcDbEntity
  8
0
100
AcDbLine
 10
1572.999934549497
 20
3227.0
 30
0.0
 11
1572.999934549497
 21
3256.500000000001
 31
0.0
  0
ARC
  5
809C
330
A79E
100
AcDbEntity
  8
0
100
AcDbCircle
 10
1586.999934549498
 20
3228.0
 30
0.0
 40
1.0
100
AcDbArc
 50
270.0
 51
0.0
  0
LINE
  5
809D
330
A79E
100
AcDbEntity
  8
0
100
AcDbLine
 10
1587.999934549497
 20
3228.000000000001
 30
0.0
 11
1587.999934549497
 21
3235.000000000002
 31
0.0
  0
ARC
  5
80A0
330
A79E
100
AcDbEntity
  8
0
100
AcDbCircle
 10
1581.499934549497
 20
3256.500000000001
 30
0.0
 40
4.0
100
AcDbArc
 50
90.0
 51
180.0
  0
ARC
  5
80A2
330
A79E
100
AcDbEntity
  8
0
100
AcDbCircle
 10
1581.499934549497
 20
3256.500000000001
 30
0.0
 40
8.5
100
AcDbArc
 50
90.0
 51
180.0
  0
LINE
  5
80B1
330
A79E
100
AcDbEntity
  8
0
100
AcDbLine
 10
1577.499934549497
 20
3365.000000000002
 30
0.0
 11
1577.499934549497
 21
3302.5
 31
0.0
  0
LINE
  5
80B2
330
A79E
100
AcDbEntity
  8
0
100
AcDbLine
 10
1572.999934549497
 20
3365.000000000002
 30
0.0
 11
1572.999934549497
 21
3302.5
 31
0.0
  0
ARC
  5
80B6
330
A79E
100
AcDbEntity
  8
0
100
AcDbCircle
 10
1580.499934549497
 20
3302.5
 30
0.0
 40
3.0
100
AcDbArc
 50
180.0
 51
270.0
  0
ARC
  5
80B9
330
A79E
100
AcDbEntity
  8
0
100
AcDbCircle
 10
1580.499934549497
 20
3302.5
 30
0.0
 40
7.5
100
AcDbArc
 50
180.0
 51
270.0
  0
LINE
  5
80BD
330
A79E
100
AcDbEntity
  8
0
100
AcDbLine
 10
1582.999934549497
 20
3340.300000000001
 30
0.0
 11
1582.999934549497
 21
3353.16606874732
 31
0.0
  0
ARC
  5
80BE
330
A79E
100
AcDbEntity
  8
0
100
AcDbCircle
 10
1584.999934549497
 20
3353.16606874732
 30
0.0
 40
2.0
100
AcDbArc
 50
82.3377443392412
 51
180.0
  0
ARC
  5
80BF
330
A79E
100
AcDbEntity
  8
0
100
AcDbCircle
 10
1584.999934549497
 20
3340.300000000001
 30
0.0
 40
2.0
100
AcDbArc
 50
180.0
 51
270.0
  0
LINE
  5
80C2
330
A79E
100
AcDbEntity
  8
0
100
AcDbLine
 10
1607.999934549498
 20
3244.549458665261
 30
0.0
 11
1607.999934549498
 21
3323.613798255553
 31
0.0
  0
ARC
  5
80C3
330
A79E
100
AcDbEntity
  8
0
100
AcDbCircle
 10
1625.999934549497
 20
3235.000000000002
 30
0.0
 40
7.0
100
AcDbArc
 50
0.0
 51
90.0
  0
LINE
  5
80C4
330
A79E
100
AcDbEntity
  8
0
100
AcDbLine
 10
1639.999934549498
 20
3252.7
 30
0.0
 11
1639.999934549498
 21
3231.3
 31
0.0
  0
LINE
  5
80C5
330
A79E
100
AcDbEntity
  8
0
100
AcDbLine
 10
1639.999934549498
 20
3230.0
 30
0.0
 11
1639.999934549498
 21
3265.0
 31
0.0
  0
LINE
  5
80C6
330
A79E
100
AcDbEntity
  8
0
100
AcDbLine
 10
1633.999934549497
 20
3227.0
 30
0.0
 11
1636.999934549498
 21
3227.0
 31
0.0
  0
ARC
  5
80C7
330
A79E
100
AcDbEntity
  8
0
100
AcDbCircle
 10
1633.999934549497
 20
3228.0
 30
0.0
 40
1.0
100
AcDbArc
 50
180.0
 51
270.0
  0
LINE
  5
80C8
330
A79E
100
AcDbEntity
  8
0
100
AcDbLine
 10
1632.999934549497
 20
3228.0
 30
0.0
 11
1632.999934549497
 21
3235.000000000002
 31
0.0
  0
ARC
  5
80C9
330
A79E
100
AcDbEntity
  8
0
100
AcDbCircle
 10
1636.999934549498
 20
3230.0
 30
0.0
 40
3.0
100
AcDbArc
 50
270.0
 51
0.0
  0
LINE
  5
80DB
330
A79E
100
AcDbEntity
  8
0
100
AcDbLine
 10
1639.999934549498
 20
3325.500000000002
 30
0.0
 11
1639.999934549498
 21
3295.000000000002
 31
0.0
  0
LINE
  5
80DC
330
A79E
100
AcDbEntity
  8
0
100
AcDbLine
 10
1639.999934549498
 20
3295.000000000002
 30
0.0
 11
1607.999934549498
 21
3295.0
 31
0.0
  0
LINE
  5
80DD
330
A79E
100
AcDbEntity
  8
0
100
AcDbLine
 10
1639.999934549498
 20
3299.500000000002
 30
0.0
 11
1607.999934549498
 21
3299.5
 31
0.0
  0
LINE
  5
80EE
330
A79E
100
AcDbEntity
  8
0
100
AcDbLine
 10
1630.265225663581
 20
3341.500000000002
 30
0.0
 11
1647.284113830853
 21
3341.500000000002
 31
0.0
  0
ARC
  5
80EF
330
A79E
100
AcDbEntity
  8
0
100
AcDbCircle
 10
1633.499934549497
 20
3357.500000000002
 30
0.0
 40
7.5
100
AcDbArc
 50
0.0
 51
90.0
  0
ARC
  5
80F0
330
A79E
100
AcDbEntity
  8
0
100
AcDbCircle
 10
1633.499934549499
 20
3357.500000000002
 30
0.0
 40
3.0
100
AcDbArc
 50
0.0
 51
90.0
  0
ARC
  5
80F1
330
A79E
100
AcDbEntity
  8
0
100
AcDbCircle
 10
1630.999934549497
 20
3353.16606874732
 30
0.0
 40
2.0
100
AcDbArc
 50
0.0
 51
97.66225566075876
  0
ARC
  5
80F2
330
A79E
100
AcDbEntity
  8
0
100
AcDbCircle
 10
1630.999934549497
 20
3340.300000000001
 30
0.0
 40
2.0
100
AcDbArc
 50
270.0
 51
0.0
  0
LINE
  5
80F3
330
A79E
100
AcDbEntity
  8
0
100
AcDbLine
 10
1632.999934549497
 20
3340.300000000001
 30
0.0
 11
1632.999934549497
 21
3353.16606874732
 31
0.0
  0
ARC
  5
80F4
330
A79E
100
AcDbEntity
  8
0
100
AcDbCircle
 10
1618.133865802178
 20
3340.300000000001
 30
0.0
 40
2.0
100
AcDbArc
 50
172.3377443392154
 51
270.0
  0
ARC
  5
80F5
330
A79E
100
AcDbEntity
  8
0
100
AcDbCircle
 10
1632.999934549497
 20
3338.300000000001
 30
0.0
 40
17.0
100
AcDbArc
 50
97.66225566075876
 51
172.3377443392154
  0
LINE
  5
80F6
330
A79E
100
AcDbEntity
  8
0
100
AcDbLine
 10
1630.999934549497
 20
3338.300000000001
 30
0.0
 11
1618.133865802178
 21
3338.300000000001
 31
0.0
  0
ARC
  5
80F7
330
A79E
100
AcDbEntity
  8
0
100
AcDbCircle
 10
1597.866003296816
 20
3340.300000000001
 30
0.0
 40
2.0
100
AcDbArc
 50
270.0
 51
7.662255660784579
  0
LINE
  5
80F8
330
A79E
100
AcDbEntity
  8
0
100
AcDbLine
 10
1639.999934549498
 20
3365.000000000002
 30
0.0
 11
1639.999934549498
 21
3361.241657386775
 31
0.0
  0
LINE
  5
80F9
330
A79E
100
AcDbEntity
  8
0
100
AcDbLine
 10
1640.999934549498
 20
3357.500000000002
 30
0.0
 11
1640.999934549498
 21
3325.500000000002
 31
0.0
  0
LINE
  5
80FA
330
A79E
100
AcDbEntity
  8
0
100
AcDbLine
 10
1636.499934549497
 20
3325.500000000002
 30
0.0
 11
1636.499934549499
 21
3357.500000000002
 31
0.0
  0
LINE
  5
80FB
330
A79E
100
AcDbEntity
  8
0
100
AcDbLine
 10
1636.499934549497
 20
3325.500000000002
 30
0.0
 11
1640.999934549498
 21
3325.500000000002
 31
0.0
  0
LINE
  5
80FC
330
A79E
100
AcDbEntity
  8
0
100
AcDbLine
 10
1636.499934549499
 20
3357.500000000002
 30
0.0
 11
1640.999934549498
 21
3357.500000000002
 31
0.0
  0
TEXT
  5
8618
330
A79E
100
AcDbEntity
  8
1
100
AcDbText
 10
2120.0
 20
1030.0
 30
0.0
 40
60.0
  1

  7
MONO-SET
100
AcDbText
  0
TEXT
  5
861E
330
A79E
100
AcDbEntity
  8
SCALE
100
AcDbText
 10
2720.0
 20
1380.0
 30
0.0
 40
50.0
  1

100
AcDbText
  0
LINE
  5
8903
330
A79E
100
AcDbEntity
  8
0
100
AcDbLine
 10
1614.928143549499
 20
3276.839509000001
 30
0.0
 11
1614.928143549499
 21
3269.560460000001
 31
0.0
  0
LINE
  5
8904
330
A79E
100
AcDbEntity
  8
0
100
AcDbLine
 10
1621.856328549499
 20
3276.839503
 30
0.0
 11
1621.856328549499
 21
3269.560467
 31
0.0
  0
LINE
  5
8905
330
A79E
100
AcDbEntity
  8
0
100
AcDbLine
 10
1601.071744549499
 20
3276.839509000001
 30
0.0
 11
1601.071744549499
 21
3269.560460000001
 31
0.0
  0
LINE
  5
8906
330
A79E
100
AcDbEntity
  8
0
100
AcDbLine
 10
1594.143554549499
 20
3276.839509000001
 30
0.0
 11
1594.143554549499
 21
3269.560460000001
 31
0.0
  0
LINE
  5
8907
330
A79E
100
AcDbEntity
  8
0
100
AcDbLine
 10
1607.999934549499
 20
3321.65954330227
 30
0.0
 11
1607.999934549499
 21
3244.376168729482
 31
0.0
  0
LINE
  5
8908
330
A79E
100
AcDbEntity
  8
0
100
AcDbLine
 10
1618.392239394911
 20
3250.500000000002
 30
0.0
 11
1597.607629704085
 21
3250.500000000002
 31
0.0
  0
LINE
  5
890A
330
A79E
100
AcDbEntity
  8
0
100
AcDbLine
 10
1622.999934549499
 20
3268.200000000001
 30
0.0
 11
1592.999934549499
 21
3268.200000000001
 31
0.0
  0
ARC
  5
890B
330
A79E
100
AcDbEntity
  8
0
100
AcDbCircle
 10
1607.999934549499
 20
3286.521173
 30
0.0
 40
18.321183
100
AcDbArc
 50
247.7807000000248
 51
292.2193200000009
  0
ARC
  5
890C
330
A79E
100
AcDbEntity
  8
0
100
AcDbCircle
 10
1607.999934549498
 20
3259.107142857143
 30
0.0
 40
8.607142857142846
100
AcDbArc
 50
216.3958791981003
 51
323.6041208018997
  0
LINE
  5
8910
330
A79E
100
AcDbEntity
  8
0
100
AcDbLine
 10
1616.499934549499
 20
3265.000000000001
 30
0.0
 11
1616.499934549499
 21
3260.5
 31
0.0
  0
LINE
  5
8911
330
A79E
100
AcDbEntity
  8
0
100
AcDbLine
 10
1622.999934549499
 20
3265.000000000001
 30
0.0
 11
1622.999934549499
 21
3268.200000000001
 31
0.0
  0
ARC
  5
8912
330
A79E
100
AcDbEntity
  8
0
100
AcDbCircle
 10
1618.392239549499
 20
3273.290449
 30
0.0
 40
5.090450299999996
100
AcDbArc
 50
227.1166380000153
 51
312.883310000012
  0
LINE
  5
8913
330
A79E
100
AcDbEntity
  8
0
100
AcDbLine
 10
1614.928137779773
 20
3260.5
 30
0.0
 11
1614.928137779773
 21
3254.000000000001
 31
0.0
  0
LINE
  5
8914
330
A79E
100
AcDbEntity
  8
0
100
AcDbLine
 10
1621.856341010049
 20
3260.5
 30
0.0
 11
1621.856341010049
 21
3254.000000000001
 31
0.0
  0
ARC
  5
8915
330
A79E
100
AcDbEntity
  8
0
100
AcDbCircle
 10
1618.392239394911
 20
3253.964285714285
 30
0.0
 40
3.464285714285711
100
AcDbArc
 50
179.4093113971839
 51
0.5906886028160578
  0
ARC
  5
891C
330
A79E
100
AcDbEntity
  8
0
100
AcDbCircle
 10
1597.607634549499
 20
3273.290449
 30
0.0
 40
5.090450299999996
100
AcDbArc
 50
227.1166830000115
 51
312.8833600000124
  0
ARC
  5
891D
330
A79E
100
AcDbEntity
  8
0
100
AcDbCircle
 10
1597.607629704085
 20
3253.964285714285
 30
0.0
 40
3.464285714285711
100
AcDbArc
 50
179.4093113971839
 51
0.5906886028160578
  0
LINE
  5
891E
330
A79E
100
AcDbEntity
  8
0
100
AcDbLine
 10
1601.071731319222
 20
3260.5
 30
0.0
 11
1601.071731319222
 21
3254.000000000001
 31
0.0
  0
LINE
  5
8924
330
A79E
100
AcDbEntity
  8
0
100
AcDbLine
 10
1592.999934549499
 20
3265.000000000001
 30
0.0
 11
1592.999934549499
 21
3268.200000000001
 31
0.0
  0
LINE
  5
8926
330
A79E
100
AcDbEntity
  8
0
100
AcDbLine
 10
1599.499934549499
 20
3265.000000000001
 30
0.0
 11
1599.499934549499
 21
3260.500000000001
 31
0.0
  0
LINE
  5
8928
330
A79E
100
AcDbEntity
  8
0
100
AcDbLine
 10
1594.143528088947
 20
3254.000000000001
 30
0.0
 11
1594.143528088947
 21
3260.5
 31
0.0
  0
ARC
  5
8929
330
A79E
100
AcDbEntity
  8
0
100
AcDbCircle
 10
1607.999928154197
 20
3301.878820000001
 30
0.0
 40
18.321183
100
AcDbArc
 50
67.78066999999824
 51
112.2192899999842
  0
LINE
  5
892A
330
A79E
100
AcDbEntity
  8
0
100
AcDbLine
 10
1597.607618154197
 20
3320.199983000002
 30
0.0
 11
1618.392228154197
 21
3320.199983000002
 31
0.0
  0
LINE
  5
892D
330
A79E
100
AcDbEntity
  8
0
100
AcDbLine
 10
1597.607634549499
 20
3278.199970000001
 30
0.0
 11
1618.392239549499
 21
3278.199970000001
 31
0.0
  0
LINE
  5
892E
330
A79E
100
AcDbEntity
  8
0
100
AcDbLine
 10
1607.999934549499
 20
3284.000000000002
 30
0.0
 11
1587.999934549499
 21
3284.000000000002
 31
0.0
  0
LINE
  5
892F
330
A79E
100
AcDbEntity
  8
0
100
AcDbLine
 10
1607.999934549499
 20
3291.500000000002
 30
0.0
 11
1586.499934549499
 21
3291.500000000002
 31
0.0
  0
LINE
  5
8932
330
A79E
100
AcDbEntity
  8
0
100
AcDbLine
 10
1607.999934549499
 20
3304.500000000002
 30
0.0
 11
1588.009260718663
 21
3304.500000000002
 31
0.0
  0
LINE
  5
8933
330
A79E
100
AcDbEntity
  8
0
100
AcDbLine
 10
1608.009482760536
 20
3307.700000000001
 30
0.0
 11
1588.009260718663
 21
3307.700000000001
 31
0.0
  0
ARC
  5
8934
330
A79E
100
AcDbEntity
  8
0
100
AcDbCircle
 10
1607.999934549499
 20
3259.878790000001
 30
0.0
 40
18.321183
100
AcDbArc
 50
67.78066999999824
 51
112.2192899999842
  0
ARC
  5
8938
330
A79E
100
AcDbEntity
  8
0
100
AcDbCircle
 10
1618.392228154197
 20
3315.109534000001
 30
0.0
 40
5.090450299999996
100
AcDbArc
 50
47.11667999997996
 51
132.8833600000123
  0
LINE
  5
893C
330
A79E
100
AcDbEntity
  8
0
100
AcDbLine
 10
1616.026479164558
 20
3284.000000000002
 30
0.0
 11
1616.024842601403
 21
3278.199970000001
 31
0.0
  0
ARC
  5
893D
330
A79E
100
AcDbEntity
  8
0
100
AcDbCircle
 10
1618.392239549499
 20
3273.109521000002
 30
0.0
 40
5.090450299999996
100
AcDbArc
 50
47.11667999997996
 51
132.8833600000123
  0
LINE
  5
893E
330
A79E
100
AcDbEntity
  8
0
100
AcDbLine
 10
1619.799934549498
 20
3291.5
 30
0.0
 11
1619.799934549498
 21
3295.000000000002
 31
0.0
  0
LINE
  5
893F
330
A79E
100
AcDbEntity
  8
0
100
AcDbLine
 10
1627.999934549499
 20
3284.000000000002
 30
0.0
 11
1607.999934549499
 21
3284.000000000002
 31
0.0
  0
LINE
  5
8940
330
A79E
100
AcDbEntity
  8
0
100
AcDbLine
 10
1629.499934549499
 20
3291.500000000002
 30
0.0
 11
1607.999934549499
 21
3291.5
 31
0.0
  0
LINE
  5
8941
330
A79E
100
AcDbEntity
  8
0
100
AcDbLine
 10
1628.009261798387
 20
3304.500000000002
 30
0.0
 11
1607.999934549499
 21
3304.500000000002
 31
0.0
  0
LINE
  5
8942
330
A79E
100
AcDbEntity
  8
0
100
AcDbLine
 10
1628.009261798387
 20
3307.700000000001
 30
0.0
 11
1608.009482760536
 21
3307.699999999999
 31
0.0
  0
LINE
  5
8943
330
A79E
100
AcDbEntity
  8
0
100
AcDbLine
 10
1629.499934549499
 20
3284.000000000002
 30
0.0
 11
1627.999934549499
 21
3284.000000000002
 31
0.0
  0
LINE
  5
8944
330
A79E
100
AcDbEntity
  8
0
100
AcDbLine
 10
1628.009261798387
 20
3304.500000000002
 30
0.0
 11
1628.008546642282
 21
3299.500000000002
 31
0.0
  0
LINE
  5
8945
330
A79E
100
AcDbEntity
  8
0
100
AcDbLine
 10
1628.009261798387
 20
3307.700000000001
 30
0.0
 11
1628.009261798387
 21
3304.500000000002
 31
0.0
  0
LINE
  5
8946
330
A79E
100
AcDbEntity
  8
0
100
AcDbLine
 10
1629.499934549499
 20
3291.500000000002
 30
0.0
 11
1629.499934549499
 21
3284.000000000002
 31
0.0
  0
LINE
  5
894A
330
A79E
100
AcDbEntity
  8
0
100
AcDbLine
 10
1621.856318154197
 20
3318.839522000002
 30
0.0
 11
1621.856318154197
 21
3307.700000000001
 31
0.0
  0
LINE
  5
894B
330
A79E
100
AcDbEntity
  8
0
100
AcDbLine
 10
1614.928138154197
 20
3318.839522000002
 30
0.0
 11
1614.928138154197
 21
3307.700000000001
 31
0.0
  0
ARC
  5
8952
330
A79E
100
AcDbEntity
  8
0
100
AcDbCircle
 10
1597.607618154197
 20
3315.109534000001
 30
0.0
 40
5.090450299999996
100
AcDbArc
 50
47.11662999999878
 51
132.883310000012
  0
ARC
  5
8953
330
A79E
100
AcDbEntity
  8
0
100
AcDbCircle
 10
1597.607634549499
 20
3273.109521000002
 30
0.0
 40
5.090450299999996
100
AcDbArc
 50
47.11662999999878
 51
132.883310000012
  0
LINE
  5
8954
330
A79E
100
AcDbEntity
  8
0
100
AcDbLine
 10
1600.026478588119
 20
3284.0
 30
0.0
 11
1600.024842024965
 21
3278.199970000001
 31
0.0
  0
LINE
  5
8955
330
A79E
100
AcDbEntity
  8
0
100
AcDbLine
 10
1596.199934549499
 20
3291.500000000002
 30
0.0
 11
1596.199934549499
 21
3295.000000000002
 31
0.0
  0
LINE
  5
8957
330
A79E
100
AcDbEntity
  8
0
100
AcDbLine
 10
1588.009260718663
 20
3304.500000000002
 30
0.0
 11
1588.008545562558
 21
3299.500000000002
 31
0.0
  0
LINE
  5
8958
330
A79E
100
AcDbEntity
  8
0
100
AcDbLine
 10
1586.499934549499
 20
3291.500000000002
 30
0.0
 11
1586.499934549499
 21
3284.000000000002
 31
0.0
  0
LINE
  5
8959
330
A79E
100
AcDbEntity
  8
0
100
AcDbLine
 10
1587.999934549499
 20
3284.000000000002
 30
0.0
 11
1586.499934549499
 21
3284.000000000002
 31
0.0
  0
LINE
  5
895A
330
A79E
100
AcDbEntity
  8
0
100
AcDbLine
 10
1588.009260718663
 20
3307.700000000001
 30
0.0
 11
1588.009260718663
 21
3304.500000000002
 31
0.0
  0
LINE
  5
895E
330
A79E
100
AcDbEntity
  8
0
100
AcDbLine
 10
1601.071718154197
 20
3318.839522000002
 30
0.0
 11
1601.071718154197
 21
3307.700000000001
 31
0.0
  0
LINE
  5
895F
330
A79E
100
AcDbEntity
  8
0
100
AcDbLine
 10
1594.143528154195
 20
3318.839522000002
 30
0.0
 11
1594.143528154195
 21
3307.700000000001
 31
0.0
  0
LINE
  5
8960
330
A79E
100
AcDbEntity
  8
0
100
AcDbLine
 10
2341.919834849677
 20
4121.071920480579
 30
0.0
 11
2349.198883849676
 21
4121.071920480579
 31
0.0
  0
LINE
  5
8961
330
A79E
100
AcDbEntity
  8
0
100
AcDbLine
 10
2341.919840849677
 20
4114.143735480579
 30
0.0
 11
2349.198876849677
 21
4114.143735480579
 31
0.0
  0
LINE
  5
8962
330
A79E
100
AcDbEntity
  8
0
100
AcDbLine
 10
2341.919834849677
 20
4134.928319480579
 30
0.0
 11
2349.198883849676
 21
4134.928319480579
 31
0.0
  0
LINE
  5
8963
330
A79E
100
AcDbEntity
  8
0
100
AcDbLine
 10
2341.919834849677
 20
4141.856509480579
 30
0.0
 11
2349.198883849676
 21
4141.856509480579
 31
0.0
  0
LINE
  5
8964
330
A79E
100
AcDbEntity
  8
0
100
AcDbLine
 10
2297.099800547407
 20
4128.000129480579
 30
0.0
 11
2374.383175120196
 21
4128.000129480579
 31
0.0
  0
LINE
  5
8965
330
A79E
100
AcDbEntity
  8
0
100
AcDbLine
 10
2368.259343849677
 20
4117.607824635167
 30
0.0
 11
2368.259343849677
 21
4138.392434325993
 31
0.0
  0
LINE
  5
8967
330
A79E
100
AcDbEntity
  8
0
100
AcDbLine
 10
2350.559343849676
 20
4113.000129480577
 30
0.0
 11
2350.559343849676
 21
4143.000129480577
 31
0.0
  0
ARC
  5
8968
330
A79E
100
AcDbEntity
  8
0
100
AcDbCircle
 10
2332.238170849677
 20
4128.000129480579
 30
0.0
 40
18.321183
100
AcDbArc
 50
337.7806800000232
 51
22.21929999997516
  0
ARC
  5
8969
330
A79E
100
AcDbEntity
  8
0
100
AcDbCircle
 10
2359.652200992533
 20
4128.000129480581
 30
0.0
 40
8.607142857142846
100
AcDbArc
 50
306.3958791981002
 51
53.60412080189973
  0
LINE
  5
896D
330
A79E
100
AcDbEntity
  8
0
100
AcDbLine
 10
2353.759343849677
 20
4119.500129480579
 30
0.0
 11
2358.259343849677
 21
4119.500129480579
 31
0.0
  0
LINE
  5
896E
330
A79E
100
AcDbEntity
  8
0
100
AcDbLine
 10
2353.759343849677
 20
4113.000129480577
 30
0.0
 11
2350.559343849676
 21
4113.000129480577
 31
0.0
  0
ARC
  5
896F
330
A79E
100
AcDbEntity
  8
0
100
AcDbCircle
 10
2345.468894849677
 20
4117.607824480579
 30
0.0
 40
5.090450299999996
100
AcDbArc
 50
317.1166899999688
 51
42.88336199996567
  0
LINE
  5
8970
330
A79E
100
AcDbEntity
  8
0
100
AcDbLine
 10
2358.259343849677
 20
4121.071926250305
 30
0.0
 11
2364.759343849677
 21
4121.071926250304
 31
0.0
  0
LINE
  5
8971
330
A79E
100
AcDbEntity
  8
0
100
AcDbLine
 10
2358.259343849677
 20
4114.143723020029
 30
0.0
 11
2364.759343849677
 21
4114.143723020029
 31
0.0
  0
ARC
  5
8972
330
A79E
100
AcDbEntity
  8
0
100
AcDbCircle
 10
2364.795058135391
 20
4117.607824635167
 30
0.0
 40
3.464285714285711
100
AcDbArc
 50
269.409311397184
 51
90.59068860281604
  0
ARC
  5
8979
330
A79E
100
AcDbEntity
  8
0
100
AcDbCircle
 10
2345.468894849677
 20
4138.392429480579
 30
0.0
 40
5.090450299999996
100
AcDbArc
 50
317.1166399999876
 51
42.88331699998843
  0
ARC
  5
897A
330
A79E
100
AcDbEntity
  8
0
100
AcDbCircle
 10
2364.795058135391
 20
4138.392434325993
 30
0.0
 40
3.464285714285711
100
AcDbArc
 50
269.409311397184
 51
90.59068860281604
  0
LINE
  5
897B
330
A79E
100
AcDbEntity
  8
0
100
AcDbLine
 10
2358.259343849677
 20
4134.928332710855
 30
0.0
 11
2364.759343849677
 21
4134.928332710855
 31
0.0
  0
LINE
  5
8981
330
A79E
100
AcDbEntity
  8
0
100
AcDbLine
 10
2353.759343849676
 20
4143.000129480577
 30
0.0
 11
2350.559343849676
 21
4143.000129480577
 31
0.0
  0
LINE
  5
8983
330
A79E
100
AcDbEntity
  8
0
100
AcDbLine
 10
2353.759343849676
 20
4136.500129480577
 30
0.0
 11
2358.259343849676
 21
4136.500129480577
 31
0.0
  0
LINE
  5
8985
330
A79E
100
AcDbEntity
  8
0
100
AcDbLine
 10
2364.759343849677
 20
4141.856535941133
 30
0.0
 11
2358.259343849677
 21
4141.856535941133
 31
0.0
  0
ARC
  5
8986
330
A79E
100
AcDbEntity
  8
0
100
AcDbCircle
 10
2316.880523849675
 20
4128.000135875881
 30
0.0
 40
18.321183
100
AcDbArc
 50
157.7807100000158
 51
202.2193299999776
  0
LINE
  5
8987
330
A79E
100
AcDbEntity
  8
0
100
AcDbLine
 10
2298.559360849676
 20
4138.392445875881
 30
0.0
 11
2298.559360849676
 21
4117.607835875879
 31
0.0
  0
LINE
  5
898A
330
A79E
100
AcDbEntity
  8
0
100
AcDbLine
 10
2340.559373849677
 20
4138.392429480579
 30
0.0
 11
2340.559373849677
 21
4117.607824480579
 31
0.0
  0
LINE
  5
898B
330
A79E
100
AcDbEntity
  8
0
100
AcDbLine
 10
2334.759343849676
 20
4128.000129480579
 30
0.0
 11
2334.759343849676
 21
4148.000129480577
 31
0.0
  0
LINE
  5
898C
330
A79E
100
AcDbEntity
  8
0
100
AcDbLine
 10
2327.259343849676
 20
4128.000129480579
 30
0.0
 11
2327.259343849676
 21
4149.500129480577
 31
0.0
  0
LINE
  5
898F
330
A79E
100
AcDbEntity
  8
0
100
AcDbLine
 10
2314.259343849676
 20
4128.000129480579
 30
0.0
 11
2314.259343849676
 21
4147.990803311414
 31
0.0
  0
LINE
  5
8990
330
A79E
100
AcDbEntity
  8
0
100
AcDbLine
 10
2311.059343849677
 20
4127.990581269542
 30
0.0
 11
2311.059343849677
 21
4147.990803311414
 31
0.0
  0
ARC
  5
8991
330
A79E
100
AcDbEntity
  8
0
100
AcDbCircle
 10
2358.880553849676
 20
4128.000129480579
 30
0.0
 40
18.321183
100
AcDbArc
 50
157.7807100000158
 51
202.2193299999776
  0
ARC
  5
8995
330
A79E
100
AcDbEntity
  8
0
100
AcDbCircle
 10
2303.649809849676
 20
4117.607835875879
 30
0.0
 40
5.090450299999996
100
AcDbArc
 50
137.1166399999876
 51
222.8833200000009
  0
LINE
  5
8999
330
A79E
100
AcDbEntity
  8
0
100
AcDbLine
 10
2334.759343849676
 20
4119.97358486552
 30
0.0
 11
2340.559373849677
 21
4119.975221428672
 31
0.0
  0
ARC
  5
899A
330
A79E
100
AcDbEntity
  8
0
100
AcDbCircle
 10
2345.649822849677
 20
4117.607824480579
 30
0.0
 40
5.090450299999996
100
AcDbArc
 50
137.1166399999876
 51
222.8833200000009
  0
LINE
  5
899B
330
A79E
100
AcDbEntity
  8
0
100
AcDbLine
 10
2327.259343849677
 20
4116.200129480581
 30
0.0
 11
2323.759343849677
 21
4116.20012948058
 31
0.0
  0
LINE
  5
899C
330
A79E
100
AcDbEntity
  8
0
100
AcDbLine
 10
2334.759343849676
 20
4108.000129480577
 30
0.0
 11
2334.759343849676
 21
4128.000129480579
 31
0.0
  0
LINE
  5
899D
330
A79E
100
AcDbEntity
  8
0
100
AcDbLine
 10
2327.259343849676
 20
4106.500129480576
 30
0.0
 11
2327.259343849677
 21
4128.000129480579
 31
0.0
  0
LINE
  5
899E
330
A79E
100
AcDbEntity
  8
0
100
AcDbLine
 10
2314.259343849676
 20
4107.990802231691
 30
0.0
 11
2314.259343849677
 21
4128.000129480579
 31
0.0
  0
LINE
  5
899F
330
A79E
100
AcDbEntity
  8
0
100
AcDbLine
 10
2311.059343849677
 20
4107.990802231691
 30
0.0
 11
2311.059343849677
 21
4127.990581269542
 31
0.0
  0
LINE
  5
89A0
330
A79E
100
AcDbEntity
  8
0
100
AcDbLine
 10
2334.759343849676
 20
4106.500129480576
 30
0.0
 11
2334.759343849676
 21
4108.000129480577
 31
0.0
  0
LINE
  5
89A1
330
A79E
100
AcDbEntity
  8
0
100
AcDbLine
 10
2314.259343849676
 20
4107.990802231691
 30
0.0
 11
2319.259343849676
 21
4107.991517387794
 31
0.0
  0
LINE
  5
89A2
330
A79E
100
AcDbEntity
  8
0
100
AcDbLine
 10
2311.059343849677
 20
4107.990802231691
 30
0.0
 11
2314.259343849676
 21
4107.990802231691
 31
0.0
  0
LINE
  5
89A3
330
A79E
100
AcDbEntity
  8
0
100
AcDbLine
 10
2327.259343849676
 20
4106.500129480576
 30
0.0
 11
2334.759343849676
 21
4106.500129480576
 31
0.0
  0
LINE
  5
89A7
330
A79E
100
AcDbEntity
  8
0
100
AcDbLine
 10
2299.919821849676
 20
4114.143745875881
 30
0.0
 11
2311.059343849677
 21
4114.143745875881
 31
0.0
  0
LINE
  5
89A8
330
A79E
100
AcDbEntity
  8
0
100
AcDbLine
 10
2299.919821849676
 20
4121.07192587588
 30
0.0
 11
2311.059343849677
 21
4121.07192587588
 31
0.0
  0
ARC
  5
89AF
330
A79E
100
AcDbEntity
  8
0
100
AcDbCircle
 10
2303.649809849676
 20
4138.392445875881
 30
0.0
 40
5.090450299999996
100
AcDbArc
 50
137.1166899999688
 51
222.8833700000204
  0
ARC
  5
89B0
330
A79E
100
AcDbEntity
  8
0
100
AcDbCircle
 10
2345.649822849677
 20
4138.392429480579
 30
0.0
 40
5.090450299999996
100
AcDbArc
 50
137.1166899999688
 51
222.8833700000204
  0
LINE
  5
89B1
330
A79E
100
AcDbEntity
  8
0
100
AcDbLine
 10
2334.759343849677
 20
4135.973585441957
 30
0.0
 11
2340.559373849677
 21
4135.975222005114
 31
0.0
  0
LINE
  5
89B2
330
A79E
100
AcDbEntity
  8
0
100
AcDbLine
 10
2327.259343849676
 20
4139.80012948058
 30
0.0
 11
2323.759343849677
 21
4139.80012948058
 31
0.0
  0
LINE
  5
89B4
330
A79E
100
AcDbEntity
  8
0
100
AcDbLine
 10
2314.259343849676
 20
4147.990803311414
 30
0.0
 11
2319.259343849676
 21
4147.991518467519
 31
0.0
  0
LINE
  5
89B5
330
A79E
100
AcDbEntity
  8
0
100
AcDbLine
 10
2327.259343849676
 20
4149.500129480577
 30
0.0
 11
2334.759343849676
 21
4149.500129480577
 31
0.0
  0
LINE
  5
89B6
330
A79E
100
AcDbEntity
  8
0
100
AcDbLine
 10
2334.759343849676
 20
4148.000129480577
 30
0.0
 11
2334.759343849676
 21
4149.500129480577
 31
0.0
  0
LINE
  5
89B7
330
A79E
100
AcDbEntity
  8
0
100
AcDbLine
 10
2311.059343849677
 20
4147.990803311414
 30
0.0
 11
2314.259343849676
 21
4147.990803311414
 31
0.0
  0
LINE
  5
89BB
330
A79E
100
AcDbEntity
  8
0
100
AcDbLine
 10
2299.919821849676
 20
4134.928345875881
 30
0.0
 11
2311.059343849677
 21
4134.928345875881
 31
0.0
  0
LINE
  5
89BC
330
A79E
100
AcDbEntity
  8
0
100
AcDbLine
 10
2299.919821849676
 20
4141.85653587588
 30
0.0
 11
2311.059343849677
 21
4141.85653587588
 31
0.0
  0
LINE
  5
89BD
330
A79E
100
AcDbEntity
  8
0
100
AcDbLine
 10
2341.919817644996
 20
4834.928242119165
 30
0.0
 11
2349.198866644996
 21
4834.928242119165
 31
0.0
  0
LINE
  5
89BE
330
A79E
100
AcDbEntity
  8
0
100
AcDbLine
 10
2341.919823644996
 20
4841.856427119165
 30
0.0
 11
2349.198859644996
 21
4841.856427119165
 31
0.0
  0
LINE
  5
89BF
330
A79E
100
AcDbEntity
  8
0
100
AcDbLine
 10
2341.919817644996
 20
4821.071843119165
 30
0.0
 11
2349.198866644996
 21
4821.071843119165
 31
0.0
  0
LINE
  5
89C0
330
A79E
100
AcDbEntity
  8
0
100
AcDbLine
 10
2341.919817644996
 20
4814.143653119165
 30
0.0
 11
2349.198866644996
 21
4814.143653119165
 31
0.0
  0
LINE
  5
89C1
330
A79E
100
AcDbEntity
  8
0
100
AcDbLine
 10
2297.099783342727
 20
4828.000033119165
 30
0.0
 11
2374.383157915515
 21
4828.000033119165
 31
0.0
  0
LINE
  5
89C2
330
A79E
100
AcDbEntity
  8
0
100
AcDbLine
 10
2368.259326644996
 20
4838.392337964577
 30
0.0
 11
2368.259326644996
 21
4817.607728273752
 31
0.0
  0
LINE
  5
89C4
330
A79E
100
AcDbEntity
  8
0
100
AcDbLine
 10
2350.559326644996
 20
4843.000033119165
 30
0.0
 11
2350.559326644996
 21
4813.000033119165
 31
0.0
  0
ARC
  5
89C5
330
A79E
100
AcDbEntity
  8
0
100
AcDbCircle
 10
2332.238153644997
 20
4828.000033119165
 30
0.0
 40
18.321183
100
AcDbArc
 50
337.7807000000249
 51
22.2193199999768
  0
ARC
  5
89C6
330
A79E
100
AcDbEntity
  8
0
100
AcDbCircle
 10
2359.652183787854
 20
4828.000033119164
 30
0.0
 40
8.607142857142846
100
AcDbArc
 50
306.3958791981002
 51
53.60412080189973
  0
LINE
  5
89CA
330
A79E
100
AcDbEntity
  8
0
100
AcDbLine
 10
2353.759326644996
 20
4836.500033119165
 30
0.0
 11
2358.259326644996
 21
4836.500033119165
 31
0.0
  0
LINE
  5
89CB
330
A79E
100
AcDbEntity
  8
0
100
AcDbLine
 10
2353.759326644996
 20
4843.000033119165
 30
0.0
 11
2350.559326644996
 21
4843.000033119165
 31
0.0
  0
ARC
  5
89CC
330
A79E
100
AcDbEntity
  8
0
100
AcDbCircle
 10
2345.468877644997
 20
4838.392338119167
 30
0.0
 40
5.090450299999996
100
AcDbArc
 50
317.1166380000343
 51
42.88331000003113
  0
LINE
  5
89CD
330
A79E
100
AcDbEntity
  8
0
100
AcDbLine
 10
2358.259326644996
 20
4834.92823634944
 30
0.0
 11
2364.759326644996
 21
4834.92823634944
 31
0.0
  0
LINE
  5
89CE
330
A79E
100
AcDbEntity
  8
0
100
AcDbLine
 10
2358.259326644996
 20
4841.856439579714
 30
0.0
 11
2364.759326644996
 21
4841.856439579714
 31
0.0
  0
ARC
  5
89CF
330
A79E
100
AcDbEntity
  8
0
100
AcDbCircle
 10
2364.795040930711
 20
4838.392337964577
 30
0.0
 40
3.464285714285711
100
AcDbArc
 50
269.409311397184
 51
90.59068860281604
  0
ARC
  5
89D6
330
A79E
100
AcDbEntity
  8
0
100
AcDbCircle
 10
2345.468877644997
 20
4817.607733119166
 30
0.0
 40
5.090450299999996
100
AcDbArc
 50
317.1166830000116
 51
42.88336000001232
  0
ARC
  5
89D7
330
A79E
100
AcDbEntity
  8
0
100
AcDbCircle
 10
2364.795040930711
 20
4817.607728273752
 30
0.0
 40
3.464285714285711
100
AcDbArc
 50
269.409311397184
 51
90.59068860281604
  0
LINE
  5
89D8
330
A79E
100
AcDbEntity
  8
0
100
AcDbLine
 10
2358.259326644996
 20
4821.071829888888
 30
0.0
 11
2364.759326644996
 21
4821.071829888888
 31
0.0
  0
LINE
  5
89DE
330
A79E
100
AcDbEntity
  8
0
100
AcDbLine
 10
2353.759326644996
 20
4813.000033119165
 30
0.0
 11
2350.559326644996
 21
4813.000033119165
 31
0.0
  0
LINE
  5
89E0
330
A79E
100
AcDbEntity
  8
0
100
AcDbLine
 10
2353.759326644996
 20
4819.500033119165
 30
0.0
 11
2358.259326644996
 21
4819.500033119165
 31
0.0
  0
LINE
  5
89E2
330
A79E
100
AcDbEntity
  8
0
100
AcDbLine
 10
2364.759326644996
 20
4814.143626658613
 30
0.0
 11
2358.259326644996
 21
4814.143626658613
 31
0.0
  0
ARC
  5
89E3
330
A79E
100
AcDbEntity
  8
0
100
AcDbCircle
 10
2316.880506644996
 20
4828.000026723863
 30
0.0
 40
18.321183
100
AcDbArc
 50
157.7806700000224
 51
202.2192899999842
  0
LINE
  5
89E4
330
A79E
100
AcDbEntity
  8
0
100
AcDbLine
 10
2298.559343644996
 20
4817.607716723863
 30
0.0
 11
2298.559343644996
 21
4838.392326723863
 31
0.0
  0
LINE
  5
89E7
330
A79E
100
AcDbEntity
  8
0
100
AcDbLine
 10
2340.559356644996
 20
4817.607733119166
 30
0.0
 11
2340.559356644996
 21
4838.392338119167
 31
0.0
  0
LINE
  5
89E8
330
A79E
100
AcDbEntity
  8
0
100
AcDbLine
 10
2334.759326644996
 20
4828.000033119165
 30
0.0
 11
2334.759326644996
 21
4808.000033119165
 31
0.0
  0
LINE
  5
89E9
330
A79E
100
AcDbEntity
  8
0
100
AcDbLine
 10
2327.259326644997
 20
4828.000033119165
 30
0.0
 11
2327.259326644997
 21
4806.500033119164
 31
0.0
  0
LINE
  5
89EC
330
A79E
100
AcDbEntity
  8
0
100
AcDbLine
 10
2314.259326644997
 20
4828.000033119165
 30
0.0
 11
2314.259326644997
 21
4808.009359288329
 31
0.0
  0
LINE
  5
89ED
330
A79E
100
AcDbEntity
  8
0
100
AcDbLine
 10
2311.059326644996
 20
4828.009581330203
 30
0.0
 11
2311.059326644996
 21
4808.009359288329
 31
0.0
  0
ARC
  5
89EE
330
A79E
100
AcDbEntity
  8
0
100
AcDbCircle
 10
2358.880536644996
 20
4828.000033119165
 30
0.0
 40
18.321183
100
AcDbArc
 50
157.7806700000224
 51
202.2192899999842
  0
ARC
  5
89F2
330
A79E
100
AcDbEntity
  8
0
100
AcDbCircle
 10
2303.649792644996
 20
4838.392326723863
 30
0.0
 40
5.090450299999996
100
AcDbArc
 50
137.1166799999991
 51
222.8833600000124
  0
LINE
  5
89F6
330
A79E
100
AcDbEntity
  8
0
100
AcDbLine
 10
2334.759326644996
 20
4836.026577734224
 30
0.0
 11
2340.559356644996
 21
4836.024941171068
 31
0.0
  0
ARC
  5
89F7
330
A79E
100
AcDbEntity
  8
0
100
AcDbCircle
 10
2345.649805644996
 20
4838.392338119167
 30
0.0
 40
5.090450299999996
100
AcDbArc
 50
137.1166799999991
 51
222.8833600000124
  0
LINE
  5
89F8
330
A79E
100
AcDbEntity
  8
0
100
AcDbLine
 10
2327.259326644997
 20
4839.800033119164
 30
0.0
 11
2323.759326644996
 21
4839.800033119164
 31
0.0
  0
LINE
  5
89F9
330
A79E
100
AcDbEntity
  8
0
100
AcDbLine
 10
2334.759326644996
 20
4848.000033119165
 30
0.0
 11
2334.759326644996
 21
4828.000033119165
 31
0.0
  0
LINE
  5
89FA
330
A79E
100
AcDbEntity
  8
0
100
AcDbLine
 10
2327.259326644997
 20
4849.500033119165
 30
0.0
 11
2327.259326644998
 21
4828.000033119165
 31
0.0
  0
LINE
  5
89FB
330
A79E
100
AcDbEntity
  8
0
100
AcDbLine
 10
2314.259326644997
 20
4848.009360368052
 30
0.0
 11
2314.259326644997
 21
4828.000033119165
 31
0.0
  0
LINE
  5
89FC
330
A79E
100
AcDbEntity
  8
0
100
AcDbLine
 10
2311.059326644996
 20
4848.009360368052
 30
0.0
 11
2311.059326644996
 21
4828.009581330203
 31
0.0
  0
LINE
  5
89FD
330
A79E
100
AcDbEntity
  8
0
100
AcDbLine
 10
2334.759326644996
 20
4849.500033119165
 30
0.0
 11
2334.759326644996
 21
4848.000033119165
 31
0.0
  0
LINE
  5
89FE
330
A79E
100
AcDbEntity
  8
0
100
AcDbLine
 10
2314.259326644997
 20
4848.009360368052
 30
0.0
 11
2319.259326644997
 21
4848.008645211948
 31
0.0
  0
LINE
  5
89FF
330
A79E
100
AcDbEntity
  8
0
100
AcDbLine
 10
2311.059326644996
 20
4848.009360368052
 30
0.0
 11
2314.259326644997
 21
4848.009360368052
 31
0.0
  0
LINE
  5
8A00
330
A79E
100
AcDbEntity
  8
0
100
AcDbLine
 10
2327.259326644997
 20
4849.500033119165
 30
0.0
 11
2334.759326644996
 21
4849.500033119165
 31
0.0
  0
LINE
  5
8A04
330
A79E
100
AcDbEntity
  8
0
100
AcDbLine
 10
2299.919804644996
 20
4841.856416723863
 30
0.0
 11
2311.059326644996
 21
4841.856416723863
 31
0.0
  0
LINE
  5
8A05
330
A79E
100
AcDbEntity
  8
0
100
AcDbLine
 10
2299.919804644996
 20
4834.928236723863
 30
0.0
 11
2311.059326644996
 21
4834.928236723863
 31
0.0
  0
ARC
  5
8A0C
330
A79E
100
AcDbEntity
  8
0
100
AcDbCircle
 10
2303.649792644996
 20
4817.607716723863
 30
0.0
 40
5.090450299999996
100
AcDbArc
 50
137.1166299999796
 51
222.8833100000311
  0
ARC
  5
8A0D
330
A79E
100
AcDbEntity
  8
0
100
AcDbCircle
 10
2345.649805644996
 20
4817.607733119166
 30
0.0
 40
5.090450299999996
100
AcDbArc
 50
137.1166299999796
 51
222.8833100000311
  0
LINE
  5
8A0E
330
A79E
100
AcDbEntity
  8
0
100
AcDbLine
 10
2334.759326644997
 20
4820.026577157786
 30
0.0
 11
2340.559356644996
 21
4820.024940594631
 31
0.0
  0
LINE
  5
8A0F
330
A79E
100
AcDbEntity
  8
0
100
AcDbLine
 10
2327.259326644997
 20
4816.200033119165
 30
0.0
 11
2323.759326644996
 21
4816.200033119165
 31
0.0
  0
LINE
  5
8A11
330
A79E
100
AcDbEntity
  8
0
100
AcDbLine
 10
2314.259326644997
 20
4808.009359288329
 30
0.0
 11
2319.259326644997
 21
4808.008644132224
 31
0.0
  0
LINE
  5
8A12
330
A79E
100
AcDbEntity
  8
0
100
AcDbLine
 10
2327.259326644997
 20
4806.500033119164
 30
0.0
 11
2334.759326644996
 21
4806.500033119164
 31
0.0
  0
LINE
  5
8A13
330
A79E
100
AcDbEntity
  8
0
100
AcDbLine
 10
2334.759326644996
 20
4808.000033119165
 30
0.0
 11
2334.759326644996
 21
4806.500033119164
 31
0.0
  0
LINE
  5
8A14
330
A79E
100
AcDbEntity
  8
0
100
AcDbLine
 10
2311.059326644996
 20
4808.009359288329
 30
0.0
 11
2314.259326644997
 21
4808.009359288329
 31
0.0
  0
LINE
  5
8A18
330
A79E
100
AcDbEntity
  8
0
100
AcDbLine
 10
2299.919804644996
 20
4821.071816723863
 30
0.0
 11
2311.059326644996
 21
4821.071816723863
 31
0.0
  0
LINE
  5
8A19
330
A79E
100
AcDbEntity
  8
0
100
AcDbLine
 10
2299.919804644996
 20
4814.143626723863
 30
0.0
 11
2311.059326644996
 21
4814.143626723863
 31
0.0
  0
LINE
  5
8C60
330
A79E
100
AcDbEntity
  8
0
100
AcDbLine
 10
700.0
 20
4163.000071075837
 30
0.0
 11
700.0
 21
4792.999994354899
 31
0.0
  0
LINE
  5
8C61
330
A79E
100
AcDbEntity
  8
0
100
AcDbLine
 10
745.8565372963033
 20
3318.839522000002
 30
0.0
 11
745.8565372963033
 21
3307.700000000001
 31
0.0
  0
LINE
  5
8C62
330
A79E
100
AcDbEntity
  8
0
100
AcDbLine
 10
738.9283472963037
 20
3318.839522000002
 30
0.0
 11
738.9283472963037
 21
3307.700000000001
 31
0.0
  0
LINE
  5
8C63
330
A79E
100
AcDbEntity
  8
0
100
AcDbLine
 10
725.0719272963035
 20
3318.839522000002
 30
0.0
 11
725.0719272963035
 21
3307.700000000001
 31
0.0
  0
LINE
  5
8C64
330
A79E
100
AcDbEntity
  8
0
100
AcDbLine
 10
718.1437472963039
 20
3318.839522000002
 30
0.0
 11
718.1437472963039
 21
3307.700000000001
 31
0.0
  0
LINE
  5
8C65
330
A79E
100
AcDbEntity
  8
0
100
AcDbLine
 10
732.0001309010017
 20
3321.65954330227
 30
0.0
 11
732.0001309010017
 21
3244.376168729482
 31
0.0
  0
LINE
  5
8C66
330
A79E
100
AcDbEntity
  8
0
100
AcDbLine
 10
700.0001309010026
 20
3325.500000000002
 30
0.0
 11
700.0001309010026
 21
3295.000000000002
 31
0.0
  0
LINE
  5
8C67
330
A79E
100
AcDbEntity
  8
0
100
AcDbLine
 10
732.0001309010025
 20
3244.549458665261
 30
0.0
 11
732.0001309010025
 21
3323.613798255553
 31
0.0
  0
LINE
  5
8C68
330
A79E
100
AcDbEntity
  8
0
100
AcDbLine
 10
767.0001309010034
 20
3365.000000000002
 30
0.0
 11
767.0001309010034
 21
3302.5
 31
0.0
  0
LINE
  5
8C69
330
A79E
100
AcDbEntity
  8
0
100
AcDbLine
 10
762.5001309010034
 20
3365.000000000002
 30
0.0
 11
762.5001309010034
 21
3302.5
 31
0.0
  0
LINE
  5
8C6A
330
A79E
100
AcDbEntity
  8
0
100
AcDbLine
 10
711.9908036521142
 20
3307.700000000001
 30
0.0
 11
731.9905826899651
 21
3307.699999999999
 31
0.0
  0
LINE
  5
8C6B
330
A79E
100
AcDbEntity
  8
0
100
AcDbLine
 10
711.9908036521142
 20
3304.500000000002
 30
0.0
 11
732.0001309010017
 21
3304.500000000002
 31
0.0
  0
LINE
  5
8C6C
330
A79E
100
AcDbEntity
  8
0
100
AcDbLine
 10
710.5001309010017
 20
3291.500000000002
 30
0.0
 11
732.0001309010017
 21
3291.5
 31
0.0
  0
LINE
  5
8C6D
330
A79E
100
AcDbEntity
  8
0
100
AcDbLine
 10
712.0001309010017
 20
3284.000000000002
 30
0.0
 11
732.0001309010017
 21
3284.000000000002
 31
0.0
  0
ARC
  5
8C6E
330
A79E
100
AcDbEntity
  8
0
100
AcDbCircle
 10
732.0001309010017
 20
3259.878790000001
 30
0.0
 40
18.321183
100
AcDbArc
 50
67.78071000001583
 51
112.2193300000017
  0
LINE
  5
8C6F
330
A79E
100
AcDbEntity
  8
0
100
AcDbLine
 10
742.3924309010019
 20
3278.199970000001
 30
0.0
 11
721.6078259010022
 21
3278.199970000001
 31
0.0
  0
ARC
  5
8C70
330
A79E
100
AcDbEntity
  8
0
100
AcDbCircle
 10
732.0001309010031
 20
3259.107142857143
 30
0.0
 40
8.607142857142846
100
AcDbArc
 50
216.3958791981003
 51
323.6041208018997
  0
ARC
  5
8C71
330
A79E
100
AcDbEntity
  8
0
100
AcDbCircle
 10
732.0001309010017
 20
3286.521173
 30
0.0
 40
18.321183
100
AcDbArc
 50
247.7806799999991
 51
292.2192999999752
  0
LINE
  5
8C72
330
A79E
100
AcDbEntity
  8
0
100
AcDbLine
 10
717.0001309010017
 20
3268.200000000001
 30
0.0
 11
747.0001309010017
 21
3268.200000000001
 31
0.0
  0
LINE
  5
8C73
330
A79E
100
AcDbEntity
  8
0
100
AcDbLine
 10
721.6078260555899
 20
3250.500000000002
 30
0.0
 11
742.3924357464161
 21
3250.500000000002
 31
0.0
  0
LINE
  5
8C74
330
A79E
100
AcDbEntity
  8
0
100
AcDbLine
 10
700.0001309010026
 20
3299.500000000002
 30
0.0
 11
732.0001309010025
 21
3299.5
 31
0.0
  0
LINE
  5
8C75
330
A79E
100
AcDbEntity
  8
0
100
AcDbLine
 10
700.0001309010026
 20
3295.000000000002
 30
0.0
 11
732.0001309010025
 21
3295.0
 31
0.0
  0
LINE
  5
8C76
330
A79E
100
AcDbEntity
  8
0
100
AcDbLine
 10
767.0001309010034
 20
3227.0
 30
0.0
 11
706.3001309010028
 21
3227.0
 31
0.0
  0
LINE
  5
8C77
330
A79E
100
AcDbEntity
  8
0
100
AcDbLine
 10
714.0001309010036
 20
3242.000000000002
 30
0.0
 11
745.0001309010034
 21
3242.000000000002
 31
0.0
  0
LINE
  5
8C78
330
A79E
100
AcDbEntity
  8
0
100
AcDbLine
 10
700.0001309010026
 20
3260.5
 30
0.0
 11
758.5001309010034
 21
3260.500000000001
 31
0.0
  0
LINE
  5
8C79
330
A79E
100
AcDbEntity
  8
0
100
AcDbLine
 10
700.0001309010026
 20
3265.0
 30
0.0
 11
758.5001309010025
 21
3265.000000000001
 31
0.0
  0
LINE
  5
8C7A
330
A79E
100
AcDbEntity
  8
0
100
AcDbLine
 10
751.9908047318381
 20
3307.700000000001
 30
0.0
 11
751.9908047318381
 21
3304.500000000002
 31
0.0
  0
LINE
  5
8C7B
330
A79E
100
AcDbEntity
  8
0
100
AcDbLine
 10
752.0001309010017
 20
3284.000000000002
 30
0.0
 11
753.5001309010017
 21
3284.000000000002
 31
0.0
  0
LINE
  5
8C7C
330
A79E
100
AcDbEntity
  8
0
100
AcDbLine
 10
753.5001309010017
 20
3291.500000000002
 30
0.0
 11
753.5001309010017
 21
3284.000000000002
 31
0.0
  0
LINE
  5
8C7D
330
A79E
100
AcDbEntity
  8
0
100
AcDbLine
 10
751.9908047318381
 20
3304.500000000002
 30
0.0
 11
751.991519887943
 21
3299.500000000002
 31
0.0
  0
LINE
  5
8C7E
330
A79E
100
AcDbEntity
  8
0
100
AcDbLine
 10
743.8001309010021
 20
3291.500000000002
 30
0.0
 11
743.8001309010021
 21
3295.000000000002
 31
0.0
  0
LINE
  5
8C7F
330
A79E
100
AcDbEntity
  8
0
100
AcDbLine
 10
739.9735868623807
 20
3284.0
 30
0.0
 11
739.9752234255362
 21
3278.199970000001
 31
0.0
  0
ARC
  5
8C80
330
A79E
100
AcDbEntity
  8
0
100
AcDbCircle
 10
742.3924309010019
 20
3273.109521000002
 30
0.0
 40
5.090450299999996
100
AcDbArc
 50
47.11668999998792
 51
132.8833700000012
  0
LINE
  5
8C81
330
A79E
100
AcDbEntity
  8
0
100
AcDbLine
 10
731.9905826899651
 20
3307.700000000001
 30
0.0
 11
751.9908047318381
 21
3307.700000000001
 31
0.0
  0
LINE
  5
8C82
330
A79E
100
AcDbEntity
  8
0
100
AcDbLine
 10
732.0001309010017
 20
3304.500000000002
 30
0.0
 11
751.9908047318381
 21
3304.500000000002
 31
0.0
  0
LINE
  5
8C83
330
A79E
100
AcDbEntity
  8
0
100
AcDbLine
 10
732.0001309010017
 20
3291.500000000002
 30
0.0
 11
753.5001309010017
 21
3291.500000000002
 31
0.0
  0
LINE
  5
8C84
330
A79E
100
AcDbEntity
  8
0
100
AcDbLine
 10
732.0001309010017
 20
3284.000000000002
 30
0.0
 11
752.0001309010017
 21
3284.000000000002
 31
0.0
  0
LINE
  5
8C85
330
A79E
100
AcDbEntity
  8
0
100
AcDbLine
 10
745.8565373615543
 20
3254.000000000001
 30
0.0
 11
745.8565373615543
 21
3260.5
 31
0.0
  0
LINE
  5
8C86
330
A79E
100
AcDbEntity
  8
0
100
AcDbLine
 10
740.5001309010017
 20
3265.000000000001
 30
0.0
 11
740.5001309010017
 21
3260.500000000001
 31
0.0
  0
LINE
  5
8C87
330
A79E
100
AcDbEntity
  8
0
100
AcDbLine
 10
747.0001309010017
 20
3265.000000000001
 30
0.0
 11
747.0001309010017
 21
3268.200000000001
 31
0.0
  0
LINE
  5
8C88
330
A79E
100
AcDbEntity
  8
0
100
AcDbLine
 10
738.9283341312786
 20
3260.5
 30
0.0
 11
738.9283341312786
 21
3254.000000000001
 31
0.0
  0
ARC
  5
8C89
330
A79E
100
AcDbEntity
  8
0
100
AcDbCircle
 10
742.3924357464161
 20
3253.964285714285
 30
0.0
 40
3.464285714285711
100
AcDbArc
 50
179.4093113971839
 51
0.5906886028160692
  0
ARC
  5
8C8A
330
A79E
100
AcDbEntity
  8
0
100
AcDbCircle
 10
742.3924309010019
 20
3273.290449
 30
0.0
 40
5.090450299999996
100
AcDbArc
 50
227.1166399999877
 51
312.8833169999885
  0
LINE
  5
8C8B
330
A79E
100
AcDbEntity
  8
0
100
AcDbLine
 10
745.8565109010016
 20
3276.839509000001
 30
0.0
 11
745.8565109010016
 21
3269.560460000001
 31
0.0
  0
LINE
  5
8C8C
330
A79E
100
AcDbEntity
  8
0
100
AcDbLine
 10
738.9283209010019
 20
3276.839509000001
 30
0.0
 11
738.9283209010019
 21
3269.560460000001
 31
0.0
  0
ARC
  5
8C8D
330
A79E
100
AcDbEntity
  8
0
100
AcDbCircle
 10
759.5001309010036
 20
3302.5
 30
0.0
 40
7.5
100
AcDbArc
 50
270.0
 51
0.000000000000007
  0
ARC
  5
8C8E
330
A79E
100
AcDbEntity
  8
0
100
AcDbCircle
 10
759.5001309010036
 20
3302.5
 30
0.0
 40
3.0
100
AcDbArc
 50
270.0
 51
0.000000000000007
  0
ARC
  5
8C8F
330
A79E
100
AcDbEntity
  8
0
100
AcDbCircle
 10
758.5001309010034
 20
3256.500000000001
 30
0.0
 40
8.5
100
AcDbArc
 50
0.000000000000007
 51
90.0
  0
ARC
  5
8C90
330
A79E
100
AcDbEntity
  8
0
100
AcDbCircle
 10
758.5001309010034
 20
3256.500000000001
 30
0.0
 40
4.0
100
AcDbArc
 50
0.000000000000007
 51
90.0
  0
LINE
  5
8C91
330
A79E
100
AcDbEntity
  8
0
100
AcDbLine
 10
752.0001309010034
 20
3228.000000000001
 30
0.0
 11
752.0001309010034
 21
3235.000000000002
 31
0.0
  0
ARC
  5
8C92
330
A79E
100
AcDbEntity
  8
0
100
AcDbCircle
 10
753.0001309010034
 20
3228.0
 30
0.0
 40
1.0
100
AcDbArc
 50
180.0
 51
270.0
  0
LINE
  5
8C93
330
A79E
100
AcDbEntity
  8
0
100
AcDbLine
 10
767.0001309010034
 20
3227.0
 30
0.0
 11
767.0001309010034
 21
3256.500000000001
 31
0.0
  0
LINE
  5
8C94
330
A79E
100
AcDbEntity
  8
0
100
AcDbLine
 10
762.5001309010034
 20
3227.0
 30
0.0
 11
762.5001309010034
 21
3256.500000000001
 31
0.0
  0
ARC
  5
8C95
330
A79E
100
AcDbEntity
  8
0
100
AcDbCircle
 10
745.0001309010034
 20
3235.000000000002
 30
0.0
 40
7.0
100
AcDbArc
 50
0.000000000000007
 51
90.0
  0
LINE
  5
8C96
330
A79E
100
AcDbEntity
  8
0
100
AcDbLine
 10
732.0001309010017
 20
3299.500000000002
 30
0.0
 11
759.5001309010025
 21
3299.5
 31
0.0
  0
LINE
  5
8C97
330
A79E
100
AcDbEntity
  8
0
100
AcDbLine
 10
732.0001309010025
 20
3295.000000000002
 30
0.0
 11
759.5001309010025
 21
3295.0
 31
0.0
  0
LINE
  5
8C98
330
A79E
100
AcDbEntity
  8
0
100
AcDbLine
 10
710.5001309010017
 20
3291.500000000002
 30
0.0
 11
710.5001309010017
 21
3284.000000000002
 31
0.0
  0
LINE
  5
8C99
330
A79E
100
AcDbEntity
  8
0
100
AcDbLine
 10
711.9908036521142
 20
3307.700000000001
 30
0.0
 11
711.9908036521142
 21
3304.500000000002
 31
0.0
  0
LINE
  5
8C9A
330
A79E
100
AcDbEntity
  8
0
100
AcDbLine
 10
711.9908036521142
 20
3304.500000000002
 30
0.0
 11
711.9915188082179
 21
3299.500000000002
 31
0.0
  0
LINE
  5
8C9B
330
A79E
100
AcDbEntity
  8
0
100
AcDbLine
 10
710.5001309010017
 20
3284.000000000002
 30
0.0
 11
712.0001309010017
 21
3284.000000000002
 31
0.0
  0
LINE
  5
8C9C
330
A79E
100
AcDbEntity
  8
0
100
AcDbLine
 10
720.2001309010028
 20
3291.5
 30
0.0
 11
720.2001309010022
 21
3295.000000000002
 31
0.0
  0
ARC
  5
8C9D
330
A79E
100
AcDbEntity
  8
0
100
AcDbCircle
 10
721.6078259010022
 20
3273.109521000002
 30
0.0
 40
5.090450299999996
100
AcDbArc
 50
47.11663999998765
 51
132.88332000002
  0
LINE
  5
8C9E
330
A79E
100
AcDbEntity
  8
0
100
AcDbLine
 10
723.9735862859427
 20
3284.000000000002
 30
0.0
 11
723.975222849098
 21
3278.199970000001
 31
0.0
  0
ARC
  5
8C9F
330
A79E
100
AcDbEntity
  8
0
100
AcDbCircle
 10
721.6078260555899
 20
3253.964285714285
 30
0.0
 40
3.464285714285711
100
AcDbArc
 50
179.4093113971839
 51
0.5906886028160692
  0
LINE
  5
8CA0
330
A79E
100
AcDbEntity
  8
0
100
AcDbLine
 10
718.1437244404518
 20
3260.5
 30
0.0
 11
718.1437244404518
 21
3254.000000000001
 31
0.0
  0
LINE
  5
8CA1
330
A79E
100
AcDbEntity
  8
0
100
AcDbLine
 10
725.0719276707277
 20
3260.5
 30
0.0
 11
725.0719276707277
 21
3254.000000000001
 31
0.0
  0
ARC
  5
8CA2
330
A79E
100
AcDbEntity
  8
0
100
AcDbCircle
 10
721.6078259010022
 20
3273.290449
 30
0.0
 40
5.090450299999996
100
AcDbArc
 50
227.1166899999879
 51
312.8833619999848
  0
LINE
  5
8CA3
330
A79E
100
AcDbEntity
  8
0
100
AcDbLine
 10
717.0001309010017
 20
3265.000000000001
 30
0.0
 11
717.0001309010017
 21
3268.200000000001
 31
0.0
  0
LINE
  5
8CA4
330
A79E
100
AcDbEntity
  8
0
100
AcDbLine
 10
723.5001309010017
 20
3265.000000000001
 30
0.0
 11
723.5001309010017
 21
3260.5
 31
0.0
  0
LINE
  5
8CA5
330
A79E
100
AcDbEntity
  8
0
100
AcDbLine
 10
718.1437369010024
 20
3276.839503
 30
0.0
 11
718.1437369010024
 21
3269.560467
 31
0.0
  0
LINE
  5
8CA6
330
A79E
100
AcDbEntity
  8
0
100
AcDbLine
 10
725.0719219010019
 20
3276.839509000001
 30
0.0
 11
725.0719219010019
 21
3269.560460000001
 31
0.0
  0
ARC
  5
8CA7
330
A79E
100
AcDbEntity
  8
0
100
AcDbCircle
 10
703.0001309010026
 20
3230.0
 30
0.0
 40
3.0
100
AcDbArc
 50
180.0
 51
270.0
  0
LINE
  5
8CA8
330
A79E
100
AcDbEntity
  8
0
100
AcDbLine
 10
707.0001309010034
 20
3228.0
 30
0.0
 11
707.0001309010034
 21
3235.000000000002
 31
0.0
  0
ARC
  5
8CA9
330
A79E
100
AcDbEntity
  8
0
100
AcDbCircle
 10
706.0001309010034
 20
3228.0
 30
0.0
 40
1.0
100
AcDbArc
 50
270.0
 51
0.000000000000007
  0
LINE
  5
8CAA
330
A79E
100
AcDbEntity
  8
0
100
AcDbLine
 10
706.0001309010034
 20
3227.0
 30
0.0
 11
703.0001309010026
 21
3227.0
 31
0.0
  0
LINE
  5
8CAB
330
A79E
100
AcDbEntity
  8
0
100
AcDbLine
 10
700.0001309010026
 20
3230.0
 30
0.0
 11
700.0001309010026
 21
3265.0
 31
0.0
  0
LINE
  5
8CAC
330
A79E
100
AcDbEntity
  8
0
100
AcDbLine
 10
700.0001309010026
 20
3252.7
 30
0.0
 11
700.0001309010026
 21
3231.3
 31
0.0
  0
ARC
  5
8CAD
330
A79E
100
AcDbEntity
  8
0
100
AcDbCircle
 10
714.0001309010036
 20
3235.000000000002
 30
0.0
 40
7.0
100
AcDbArc
 50
90.0
 51
180.0
  0
LINE
  5
8CAE
330
A79E
100
AcDbEntity
  8
0
100
AcDbLine
 10
742.3924472963037
 20
3320.199983000002
 30
0.0
 11
721.6078372963036
 21
3320.199983000002
 31
0.0
  0
ARC
  5
8CAF
330
A79E
100
AcDbEntity
  8
0
100
AcDbCircle
 10
732.0001372963035
 20
3301.878820000001
 30
0.0
 40
18.321183
100
AcDbArc
 50
67.78071000001583
 51
112.2193300000017
  0
LINE
  5
8CB0
330
A79E
100
AcDbEntity
  8
0
100
AcDbLine
 10
767.0001309010034
 20
3365.000000000002
 30
0.0
 11
700.0001309010026
 21
3365.000000000002
 31
0.0
  0
LINE
  5
8CB1
330
A79E
100
AcDbEntity
  8
0
100
AcDbLine
 10
762.5001309010034
 20
3360.500000000002
 30
0.0
 11
706.5001309010017
 21
3360.500000000002
 31
0.0
  0
ARC
  5
8CB2
330
A79E
100
AcDbEntity
  8
0
100
AcDbCircle
 10
742.3924472963037
 20
3315.109534000001
 30
0.0
 40
5.090450299999996
100
AcDbArc
 50
47.11668999998792
 51
132.8833700000012
  0
ARC
  5
8CB3
330
A79E
100
AcDbEntity
  8
0
100
AcDbCircle
 10
742.1340621536851
 20
3340.300000000001
 30
0.0
 40
2.0
100
AcDbArc
 50
172.3377443392154
 51
270.0
  0
ARC
  5
8CB4
330
A79E
100
AcDbEntity
  8
0
100
AcDbCircle
 10
755.0001309010034
 20
3340.300000000001
 30
0.0
 40
2.0
100
AcDbArc
 50
270.0
 51
0.000000000000007
  0
ARC
  5
8CB5
330
A79E
100
AcDbEntity
  8
0
100
AcDbCircle
 10
755.0001309010034
 20
3353.16606874732
 30
0.0
 40
2.0
100
AcDbArc
 50
0.000000000000007
 51
97.66225566075876
  0
LINE
  5
8CB6
330
A79E
100
AcDbEntity
  8
0
100
AcDbLine
 10
757.0001309010034
 20
3340.300000000001
 30
0.0
 11
757.0001309010034
 21
3353.16606874732
 31
0.0
  0
LINE
  5
8CB7
330
A79E
100
AcDbEntity
  8
0
100
AcDbLine
 10
755.0001309010034
 20
3338.300000000001
 30
0.0
 11
742.1340621536851
 21
3338.300000000001
 31
0.0
  0
ARC
  5
8CB8
330
A79E
100
AcDbEntity
  8
0
100
AcDbCircle
 10
757.0001309010034
 20
3338.300000000001
 30
0.0
 40
17.0
100
AcDbArc
 50
97.66225566075876
 51
172.3377443392154
  0
ARC
  5
8CB9
330
A79E
100
AcDbEntity
  8
0
100
AcDbCircle
 10
721.6078372963036
 20
3315.109534000001
 30
0.0
 40
5.090450299999996
100
AcDbArc
 50
47.11663999998765
 51
132.88332000002
  0
LINE
  5
8CBA
330
A79E
100
AcDbEntity
  8
0
100
AcDbLine
 10
703.5001309010017
 20
3357.500000000002
 30
0.0
 11
699.0001309010026
 21
3357.500000000002
 31
0.0
  0
LINE
  5
8CBB
330
A79E
100
AcDbEntity
  8
0
100
AcDbLine
 10
703.5001309010034
 20
3325.500000000002
 30
0.0
 11
699.0001309010026
 21
3325.500000000002
 31
0.0
  0
LINE
  5
8CBC
330
A79E
100
AcDbEntity
  8
0
100
AcDbLine
 10
703.5001309010034
 20
3325.500000000002
 30
0.0
 11
703.5001309010017
 21
3357.500000000002
 31
0.0
  0
LINE
  5
8CBD
330
A79E
100
AcDbEntity
  8
0
100
AcDbLine
 10
699.0001309010026
 20
3357.500000000002
 30
0.0
 11
699.0001309010026
 21
3325.500000000002
 31
0.0
  0
LINE
  5
8CBE
330
A79E
100
AcDbEntity
  8
0
100
AcDbLine
 10
700.0001309010026
 20
3365.000000000002
 30
0.0
 11
700.0001309010026
 21
3361.241657386775
 31
0.0
  0
LINE
  5
8CBF
330
A79E
100
AcDbEntity
  8
0
100
AcDbLine
 10
709.0001309010034
 20
3338.300000000001
 30
0.0
 11
721.8661996483216
 21
3338.300000000001
 31
0.0
  0
ARC
  5
8CC0
330
A79E
100
AcDbEntity
  8
0
100
AcDbCircle
 10
707.0001309010034
 20
3338.300000000001
 30
0.0
 40
17.0
100
AcDbArc
 50
7.662255660784585
 51
82.3377443392412
  0
ARC
  5
8CC1
330
A79E
100
AcDbEntity
  8
0
100
AcDbCircle
 10
721.8661996483216
 20
3340.300000000001
 30
0.0
 40
2.0
100
AcDbArc
 50
270.0
 51
7.662255660784585
  0
LINE
  5
8CC2
330
A79E
100
AcDbEntity
  8
0
100
AcDbLine
 10
707.0001309010034
 20
3340.300000000001
 30
0.0
 11
707.0001309010034
 21
3353.16606874732
 31
0.0
  0
ARC
  5
8CC3
330
A79E
100
AcDbEntity
  8
0
100
AcDbCircle
 10
709.0001309010034
 20
3340.300000000001
 30
0.0
 40
2.0
100
AcDbArc
 50
180.0
 51
270.0
  0
ARC
  5
8CC4
330
A79E
100
AcDbEntity
  8
0
100
AcDbCircle
 10
709.0001309010034
 20
3353.16606874732
 30
0.0
 40
2.0
100
AcDbArc
 50
82.3377443392412
 51
180.0
  0
ARC
  5
8CC5
330
A79E
100
AcDbEntity
  8
0
100
AcDbCircle
 10
706.5001309010017
 20
3357.500000000002
 30
0.0
 40
3.0
100
AcDbArc
 50
90.0
 51
180.0
  0
ARC
  5
8CC6
330
A79E
100
AcDbEntity
  8
0
100
AcDbCircle
 10
706.5001309010034
 20
3357.500000000002
 30
0.0
 40
7.5
100
AcDbArc
 50
90.0
 51
180.0
  0
LINE
  5
8CC7
330
A79E
100
AcDbEntity
  8
0
100
AcDbLine
 10
709.7348397869186
 20
3341.500000000002
 30
0.0
 11
692.7159516196484
 21
3341.500000000002
 31
0.0
  0
CIRCLE
  5
8CD4
330
A79E
100
AcDbEntity
  8
0
100
AcDbCircle
 10
790.0
 20
4840.000075946779
 30
0.0
 40
8.0
  0
LINE
  5
8CDB
330
A79E
100
AcDbEntity
  8
0
100
AcDbLine
 10
777.935397612673
 20
4840.000075946779
 30
0.0
 11
802.0646023873265
 21
4840.000075946779
 31
0.0
  0
LINE
  5
8CDC
330
A79E
100
AcDbEntity
  8
0
100
AcDbLine
 10
790.0
 20
4827.935473559453
 30
0.0
 11
790.0
 21
4852.064678334107
 31
0.0
  0
LINE
  5
8CDD
330
A79E
100
AcDbEntity
  8
0
100
AcDbLine
 10
1562.064667837829
 20
4840.000075946779
 30
0.0
 11
1537.935463063174
 21
4840.000075946779
 31
0.0
  0
CIRCLE
  5
8CDE
330
A79E
100
AcDbEntity
  8
0
100
AcDbCircle
 10
1550.000065450502
 20
4840.000075946779
 30
0.0
 40
8.0
  0
LINE
  5
8CDF
330
A79E
100
AcDbEntity
  8
0
100
AcDbLine
 10
1550.000065450502
 20
4827.935473559453
 30
0.0
 11
1550.000065450502
 21
4852.064678334107
 31
0.0
  0
LINE
  5
8CE0
330
A79E
100
AcDbEntity
  8
0
100
AcDbLine
 10
777.935397612673
 20
4115.999989483956
 30
0.0
 11
802.0646023873265
 21
4115.999989483956
 31
0.0
  0
CIRCLE
  5
8CE1
330
A79E
100
AcDbEntity
  8
0
100
AcDbCircle
 10
790.0
 20
4115.999989483956
 30
0.0
 40
8.0
  0
LINE
  5
8CE2
330
A79E
100
AcDbEntity
  8
0
100
AcDbLine
 10
790.0
 20
4128.064591871281
 30
0.0
 11
790.0
 21
4103.935387096629
 31
0.0
  0
LINE
  5
8CE3
330
A79E
100
AcDbEntity
  8
0
100
AcDbLine
 10
1562.064667837829
 20
4115.999989483956
 30
0.0
 11
1537.935463063174
 21
4115.999989483956
 31
0.0
  0
LINE
  5
8CE4
330
A79E
100
AcDbEntity
  8
0
100
AcDbLine
 10
1550.000065450502
 20
4128.064591871281
 30
0.0
 11
1550.000065450502
 21
4103.935387096629
 31
0.0
  0
CIRCLE
  5
8CE5
330
A79E
100
AcDbEntity
  8
0
100
AcDbCircle
 10
1550.000065450502
 20
4115.999989483956
 30
0.0
 40
8.0
  0
LINE
  5
8CFA
330
A79E
100
AcDbEntity
  8
0
100
AcDbLine
 10
805.6730361152654
 20
4876.801651170262
 30
0.0
 11
883.693455622564
 21
5059.999999999999
 31
0.0
  0
LINE
  5
8E1C
330
A79E
100
AcDbEntity
  8
0
100
AcDbLine
 10
790.0
 20
3384.409566556132
 30
0.0
 11
790.0
 21
3315.533579202256
 31
0.0
  0
LINE
  5
8E1D
330
A79E
100
AcDbEntity
  8
0
100
AcDbLine
 10
1550.000065450502
 20
3384.409566556132
 30
0.0
 11
1550.000065450502
 21
3315.533579202256
 31
0.0
  0
LINE
  5
8E92
330
A79E
100
AcDbEntity
  8
0
100
AcDbLine
 10
2258.259344119083
 20
4150.182439373049
 30
0.0
 11
2258.259344119083
 21
4158.500129474542
 31
0.0
  0
LINE
  5
8E95
330
A79E
100
AcDbEntity
  8
0
100
AcDbLine
 10
2258.259344119083
 20
4805.803819737224
 30
0.0
 11
2258.259344119083
 21
4797.499935956195
 31
0.0
  0
TEXT
  5
9303
330
A79E
100
AcDbEntity
  8
SCALE
100
AcDbText
 10
2253.574502320105
 20
660.0
 30
0.0
 40
50.0
  1

100
AcDbText
  0
ARC
  5
9334
330
A79E
100
AcDbEntity
  8
0
100
AcDbCircle
 10
1608.000017497107
 20
4827.999992935483
 30
0.0
 40
20.0
100
AcDbArc
 50
344.0379920807351
 51
195.9620079192648
  0
LINE
  5
9335
330
A79E
100
AcDbEntity
  8
0
100
AcDbLine
 10
1641.000017497107
 20
4854.499994354899
 30
0.0
 11
1641.000017497107
 21
4797.499994354899
 31
0.0
  0
LINE
  5
9336
330
A79E
100
AcDbEntity
  8
0
100
AcDbLine
 10
1640.000020874026
 20
4792.999994354899
 30
0.0
 11
1640.000017497106
 21
4835.999952580411
 31
0.0
  0
LINE
  5
9337
330
A79E
100
AcDbEntity
  8
0
100
AcDbLine
 10
1636.500017497106
 20
4854.499994354899
 30
0.0
 11
1636.500017497106
 21
4822.499994354899
 31
0.0
  0
LINE
  5
9338
330
A79E
100
AcDbEntity
  8
0
100
AcDbLine
 10
1608.000017497107
 20
4857.02586627813
 30
0.0
 11
1608.000017497107
 21
4798.974118240885
 31
0.0
  0
LINE
  5
9339
330
A79E
100
AcDbEntity
  8
0
100
AcDbLine
 10
1608.000020874026
 20
4857.02586627813
 30
0.0
 11
1608.000020874026
 21
4798.974118240887
 31
0.0
  0
LINE
  5
933A
330
A79E
100
AcDbEntity
  8
0
100
AcDbLine
 10
1573.000020874026
 20
4792.999994354899
 30
0.0
 11
1573.000020874026
 21
4859.999988439162
 31
0.0
  0
LINE
  5
933B
330
A79E
100
AcDbEntity
  8
0
100
AcDbLine
 10
1577.500017497106
 20
4797.499994354899
 30
0.0
 11
1577.500017497106
 21
4860.000077080787
 31
0.0
  0
ARC
  5
933C
330
A79E
100
AcDbEntity
  8
0
100
AcDbCircle
 10
1608.000017497107
 20
4827.999992935483
 30
0.0
 40
18.0
100
AcDbArc
 50
202.0243128370432
 51
337.9756871629567
  0
LINE
  5
933D
330
A79E
100
AcDbEntity
  8
0
100
AcDbLine
 10
1641.000017497107
 20
4797.499994354899
 30
0.0
 11
1573.000017497107
 21
4797.499994354899
 31
0.0
  0
LINE
  5
933E
330
A79E
100
AcDbEntity
  8
0
100
AcDbLine
 10
1640.000020874026
 20
4792.999994354899
 30
0.0
 11
1573.000020874026
 21
4792.999994354899
 31
0.0
  0
LINE
  5
933F
330
A79E
100
AcDbEntity
  8
0
100
AcDbLine
 10
1588.771132374737
 20
4822.499995030874
 30
0.0
 11
1577.500017497106
 21
4822.499995030874
 31
0.0
  0
ARC
  5
9340
330
A79E
100
AcDbEntity
  8
0
100
AcDbCircle
 10
1589.459521279368
 20
4820.499992935483
 30
0.0
 40
2.0
100
AcDbArc
 50
22.02431283704329
 51
90.0
  0
LINE
  5
9341
330
A79E
100
AcDbEntity
  8
0
100
AcDbLine
 10
1588.771132374737
 20
4822.499995030874
 30
0.0
 11
1589.459521279368
 21
4822.499992935483
 31
0.0
  0
ARC
  5
9342
330
A79E
100
AcDbEntity
  8
0
100
AcDbCircle
 10
1576.000020874027
 20
4795.999994354899
 30
0.0
 40
3.0
100
AcDbArc
 50
180.0
 51
270.0
  0
LINE
  5
9343
330
A79E
100
AcDbEntity
  8
0
100
AcDbLine
 10
1584.500017497107
 20
4797.499994354899
 30
0.0
 11
1577.500017497106
 21
4804.499994354899
 31
0.0
  0
LINE
  5
9344
330
A79E
100
AcDbEntity
  8
0
100
AcDbLine
 10
1638.000017497106
 20
4822.499995030874
 30
0.0
 11
1627.228902619476
 21
4822.499995030873
 31
0.0
  0
ARC
  5
9345
330
A79E
100
AcDbEntity
  8
0
100
AcDbCircle
 10
1626.540513714846
 20
4820.499992935483
 30
0.0
 40
2.0
100
AcDbArc
 50
90.0
 51
157.9756871629567
  0
LINE
  5
9346
330
A79E
100
AcDbEntity
  8
0
100
AcDbLine
 10
1626.540513714846
 20
4822.499992935483
 30
0.0
 11
1627.228902619476
 21
4822.499995030873
 31
0.0
  0
LINE
  5
9347
330
A79E
100
AcDbEntity
  8
0
100
AcDbLine
 10
1636.500017497106
 20
4822.499994354899
 30
0.0
 11
1636.500017497106
 21
4797.499994354899
 31
0.0
  0
ARC
  5
9348
330
A79E
100
AcDbEntity
  8
0
100
AcDbCircle
 10
1638.000017497106
 20
4825.499994354899
 30
0.0
 40
3.0
100
AcDbArc
 50
270.0
 51
0.0
  0
LINE
  5
9349
330
A79E
100
AcDbEntity
  8
0
100
AcDbLine
 10
1616.000038321127
 20
4859.999950695606
 30
0.0
 11
1573.000020874026
 21
4859.999988439162
 31
0.0
  0
LINE
  5
934A
330
A79E
100
AcDbEntity
  8
0
100
AcDbLine
 10
1578.974143478485
 20
4827.999992259507
 30
0.0
 11
1637.025891515729
 21
4827.999992259507
 31
0.0
  0
LINE
  5
934B
330
A79E
100
AcDbEntity
  8
0
100
AcDbLine
 10
1578.974146855404
 20
4827.999992259509
 30
0.0
 11
1637.025894892648
 21
4827.999992259509
 31
0.0
  0
ARC
  5
934C
330
A79E
100
AcDbEntity
  8
0
100
AcDbCircle
 10
1616.000017497106
 20
4835.999950695615
 30
0.0
 40
24.0
100
AcDbArc
 50
0.0
 51
35.6590876961637
  0
LINE
  5
934D
330
A79E
100
AcDbEntity
  8
0
100
AcDbLine
 10
1641.000017497107
 20
4854.499994354899
 30
0.0
 11
1636.500017497106
 21
4854.499994354899
 31
0.0
  0
ARC
  5
934E
330
A79E
100
AcDbEntity
  8
0
100
AcDbCircle
 10
1616.000017497106
 20
4835.999950695615
 30
0.0
 40
24.0
100
AcDbArc
 50
35.6590876961637
 51
89.99995028631451
  0
ARC
  5
9350
330
A79E
100
AcDbEntity
  8
0
100
AcDbCircle
 10
732.0000479533951
 20
4827.999992935483
 30
0.0
 40
20.0
100
AcDbArc
 50
344.0379920807351
 51
195.9620079192648
  0
LINE
  5
9351
330
A79E
100
AcDbEntity
  8
0
100
AcDbLine
 10
699.0000479533943
 20
4854.499994354899
 30
0.0
 11
699.0000479533935
 21
4797.499994354899
 31
0.0
  0
LINE
  5
9352
330
A79E
100
AcDbEntity
  8
0
100
AcDbLine
 10
700.0000445764753
 20
4792.999994354899
 30
0.0
 11
700.0000479533943
 21
4835.999952580411
 31
0.0
  0
LINE
  5
9353
330
A79E
100
AcDbEntity
  8
0
100
AcDbLine
 10
703.5000479533943
 20
4854.499994354899
 30
0.0
 11
703.5000479533943
 21
4822.499994354899
 31
0.0
  0
LINE
  5
9354
330
A79E
100
AcDbEntity
  8
0
100
AcDbLine
 10
732.0000479533943
 20
4857.02586627813
 30
0.0
 11
732.0000479533943
 21
4798.974118240885
 31
0.0
  0
LINE
  5
9355
330
A79E
100
AcDbEntity
  8
0
100
AcDbLine
 10
732.0000445764754
 20
4857.02586627813
 30
0.0
 11
732.0000445764754
 21
4798.974118240887
 31
0.0
  0
LINE
  5
9356
330
A79E
100
AcDbEntity
  8
0
100
AcDbLine
 10
767.0000445764753
 20
4792.999994354899
 30
0.0
 11
767.0000445764757
 21
4859.999988439162
 31
0.0
  0
LINE
  5
9357
330
A79E
100
AcDbEntity
  8
0
100
AcDbLine
 10
762.5000479533943
 20
4797.499994354899
 30
0.0
 11
762.5000479533955
 21
4860.000077080787
 31
0.0
  0
ARC
  5
9358
330
A79E
100
AcDbEntity
  8
0
100
AcDbCircle
 10
732.0000479533951
 20
4827.999992935483
 30
0.0
 40
18.0
100
AcDbArc
 50
202.0243128370432
 51
337.9756871629567
  0
LINE
  5
9359
330
A79E
100
AcDbEntity
  8
0
100
AcDbLine
 10
699.0000479533935
 20
4797.499994354899
 30
0.0
 11
767.0000479533943
 21
4797.499994354899
 31
0.0
  0
LINE
  5
935A
330
A79E
100
AcDbEntity
  8
0
100
AcDbLine
 10
700.0000445764753
 20
4792.999994354899
 30
0.0
 11
767.0000445764753
 21
4792.999994354899
 31
0.0
  0
LINE
  5
935B
330
A79E
100
AcDbEntity
  8
0
100
AcDbLine
 10
751.2289330757646
 20
4822.499995030874
 30
0.0
 11
762.5000479533951
 21
4822.499995030874
 31
0.0
  0
ARC
  5
935C
330
A79E
100
AcDbEntity
  8
0
100
AcDbCircle
 10
750.540544171134
 20
4820.499992935483
 30
0.0
 40
2.0
100
AcDbArc
 50
90.0
 51
157.9756871629567
  0
LINE
  5
935D
330
A79E
100
AcDbEntity
  8
0
100
AcDbLine
 10
751.2289330757646
 20
4822.499995030874
 30
0.0
 11
750.540544171134
 21
4822.499992935483
 31
0.0
  0
ARC
  5
935E
330
A79E
100
AcDbEntity
  8
0
100
AcDbCircle
 10
764.000044576475
 20
4795.999994354899
 30
0.0
 40
3.0
100
AcDbArc
 50
270.0
 51
0.000000000000007
  0
LINE
  5
935F
330
A79E
100
AcDbEntity
  8
0
100
AcDbLine
 10
755.5000479533942
 20
4797.499994354899
 30
0.0
 11
762.5000479533943
 21
4804.499994354899
 31
0.0
  0
LINE
  5
9360
330
A79E
100
AcDbEntity
  8
0
100
AcDbLine
 10
702.0000479533949
 20
4822.499995030874
 30
0.0
 11
712.7711628310252
 21
4822.499995030873
 31
0.0
  0
ARC
  5
9361
330
A79E
100
AcDbEntity
  8
0
100
AcDbCircle
 10
713.4595517356558
 20
4820.499992935483
 30
0.0
 40
2.0
100
AcDbArc
 50
22.0243128370433
 51
90.0
  0
LINE
  5
9362
330
A79E
100
AcDbEntity
  8
0
100
AcDbLine
 10
713.4595517356558
 20
4822.499992935483
 30
0.0
 11
712.7711628310252
 21
4822.499995030873
 31
0.0
  0
LINE
  5
9363
330
A79E
100
AcDbEntity
  8
0
100
AcDbLine
 10
703.5000479533943
 20
4822.499994354899
 30
0.0
 11
703.5000479533943
 21
4797.499994354899
 31
0.0
  0
ARC
  5
9364
330
A79E
100
AcDbEntity
  8
0
100
AcDbCircle
 10
702.0000479533942
 20
4825.499994354899
 30
0.0
 40
3.0
100
AcDbArc
 50
180.0
 51
270.0
  0
LINE
  5
9365
330
A79E
100
AcDbEntity
  8
0
100
AcDbLine
 10
724.0000271293745
 20
4859.999950695606
 30
0.0
 11
767.0000445764757
 21
4859.999988439162
 31
0.0
  0
LINE
  5
9366
330
A79E
100
AcDbEntity
  8
0
100
AcDbLine
 10
761.0259219720164
 20
4827.999992259507
 30
0.0
 11
702.9741739347728
 21
4827.999992259507
 31
0.0
  0
LINE
  5
9367
330
A79E
100
AcDbEntity
  8
0
100
AcDbLine
 10
761.0259185950978
 20
4827.999992259509
 30
0.0
 11
702.9741705578536
 21
4827.999992259509
 31
0.0
  0
ARC
  5
9368
330
A79E
100
AcDbEntity
  8
0
100
AcDbCircle
 10
724.0000479533943
 20
4835.999950695615
 30
0.0
 40
24.0
100
AcDbArc
 50
144.3409123038363
 51
180.0
  0
LINE
  5
9369
330
A79E
100
AcDbEntity
  8
0
100
AcDbLine
 10
699.0000479533943
 20
4854.499994354899
 30
0.0
 11
703.5000479533943
 21
4854.499994354899
 31
0.0
  0
ARC
  5
936A
330
A79E
100
AcDbEntity
  8
0
100
AcDbCircle
 10
724.0000479533943
 20
4835.999950695615
 30
0.0
 40
24.0
100
AcDbArc
 50
90.00004971368547
 51
144.3409123038363
  0
LINE
  5
936B
330
A79E
100
AcDbEntity
  8
0
100
AcDbLine
 10
762.5000479533943
 20
4158.500071075837
 30
0.0
 11
762.5000479533955
 21
4095.999988349951
 31
0.0
  0
LINE
  5
936C
330
A79E
100
AcDbEntity
  8
0
100
AcDbLine
 10
767.0000445764753
 20
4163.000071075837
 30
0.0
 11
767.0000445764757
 21
4096.000076991573
 31
0.0
  0
LINE
  5
936D
330
A79E
100
AcDbEntity
  8
0
100
AcDbLine
 10
732.0000445764754
 20
4098.974199152606
 30
0.0
 11
732.0000445764754
 21
4157.025947189849
 31
0.0
  0
LINE
  5
936E
330
A79E
100
AcDbEntity
  8
0
100
AcDbLine
 10
732.0000479533943
 20
4098.974199152606
 30
0.0
 11
732.0000479533943
 21
4157.025947189849
 31
0.0
  0
LINE
  5
936F
330
A79E
100
AcDbEntity
  8
0
100
AcDbLine
 10
703.5000479533943
 20
4101.500071075838
 30
0.0
 11
703.5000479533943
 21
4133.500071075838
 31
0.0
  0
LINE
  5
9370
330
A79E
100
AcDbEntity
  8
0
100
AcDbLine
 10
700.0000445764753
 20
4163.000071075837
 30
0.0
 11
700.0000479533943
 21
4120.000112850326
 31
0.0
  0
LINE
  5
9371
330
A79E
100
AcDbEntity
  8
0
100
AcDbLine
 10
699.0000479533943
 20
4101.500071075838
 30
0.0
 11
699.0000479533935
 21
4158.500071075837
 31
0.0
  0
ARC
  5
9372
330
A79E
100
AcDbEntity
  8
0
100
AcDbCircle
 10
732.0000479533951
 20
4128.000072495254
 30
0.0
 40
20.0
100
AcDbArc
 50
164.0379920807351
 51
15.96200791926489
  0
LINE
  5
9374
330
A79E
100
AcDbEntity
  8
0
100
AcDbLine
 10
702.0000479533949
 20
4133.500070399863
 30
0.0
 11
712.7711628310252
 21
4133.500070399864
 31
0.0
  0
LINE
  5
9375
330
A79E
100
AcDbEntity
  8
0
100
AcDbLine
 10
700.0000445764753
 20
4163.000071075837
 30
0.0
 11
767.0000445764753
 21
4163.000071075837
 31
0.0
  0
LINE
  5
9376
330
A79E
100
AcDbEntity
  8
0
100
AcDbLine
 10
699.0000479533935
 20
4158.500071075837
 30
0.0
 11
767.0000479533943
 21
4158.500071075837
 31
0.0
  0
ARC
  5
9377
330
A79E
100
AcDbEntity
  8
0
100
AcDbCircle
 10
702.0000479533942
 20
4130.500071075838
 30
0.0
 40
3.0
100
AcDbArc
 50
90.00000000000005
 51
180.0
  0
LINE
  5
9378
330
A79E
100
AcDbEntity
  8
0
100
AcDbLine
 10
755.5000479533942
 20
4158.500071075837
 30
0.0
 11
762.5000479533943
 21
4151.500071075838
 31
0.0
  0
LINE
  5
9379
330
A79E
100
AcDbEntity
  8
0
100
AcDbLine
 10
751.2289330757646
 20
4133.500070399863
 30
0.0
 11
762.5000479533951
 21
4133.500070399863
 31
0.0
  0
LINE
  5
937A
330
A79E
100
AcDbEntity
  8
0
100
AcDbLine
 10
703.5000479533943
 20
4133.500071075838
 30
0.0
 11
703.5000479533943
 21
4158.500071075837
 31
0.0
  0
LINE
  5
937B
330
A79E
100
AcDbEntity
  8
0
100
AcDbLine
 10
713.4595517356558
 20
4133.500072495254
 30
0.0
 11
712.7711628310252
 21
4133.500070399864
 31
0.0
  0
ARC
  5
937C
330
A79E
100
AcDbEntity
  8
0
100
AcDbCircle
 10
713.4595517356558
 20
4135.500072495254
 30
0.0
 40
2.0
100
AcDbArc
 50
270.0
 51
337.9756871629567
  0
LINE
  5
937D
330
A79E
100
AcDbEntity
  8
0
100
AcDbLine
 10
751.2289330757646
 20
4133.500070399863
 30
0.0
 11
750.540544171134
 21
4133.500072495254
 31
0.0
  0
ARC
  5
937E
330
A79E
100
AcDbEntity
  8
0
100
AcDbCircle
 10
750.540544171134
 20
4135.500072495254
 30
0.0
 40
2.0
100
AcDbArc
 50
202.0243128370432
 51
270.0
  0
ARC
  5
937F
330
A79E
100
AcDbEntity
  8
0
100
AcDbCircle
 10
732.0000479533951
 20
4128.000072495254
 30
0.0
 40
18.0
100
AcDbArc
 50
22.02431283704329
 51
157.9756871629567
  0
ARC
  5
9380
330
A79E
100
AcDbEntity
  8
0
100
AcDbCircle
 10
764.000044576475
 20
4160.000071075836
 30
0.0
 40
3.0
100
AcDbArc
 50
0.0
 51
90.00000000000005
  0
LINE
  5
9381
330
A79E
100
AcDbEntity
  8
0
100
AcDbLine
 10
699.0000479533943
 20
4101.500071075838
 30
0.0
 11
703.5000479533943
 21
4101.500071075838
 31
0.0
  0
ARC
  5
9382
330
A79E
100
AcDbEntity
  8
0
100
AcDbCircle
 10
724.0000479533943
 20
4120.00011473512
 30
0.0
 40
24.0
100
AcDbArc
 50
180.0
 51
215.6590876961637
  0
LINE
  5
9383
330
A79E
100
AcDbEntity
  8
0
100
AcDbLine
 10
761.0259185950978
 20
4128.000073171228
 30
0.0
 11
702.9741705578536
 21
4128.000073171228
 31
0.0
  0
LINE
  5
9384
330
A79E
100
AcDbEntity
  8
0
100
AcDbLine
 10
761.0259219720164
 20
4128.000073171229
 30
0.0
 11
702.9741739347728
 21
4128.000073171229
 31
0.0
  0
LINE
  5
9385
330
A79E
100
AcDbEntity
  8
0
100
AcDbLine
 10
724.0000271293745
 20
4096.000114735129
 30
0.0
 11
767.0000445764757
 21
4096.000076991573
 31
0.0
  0
ARC
  5
9386
330
A79E
100
AcDbEntity
  8
0
100
AcDbCircle
 10
724.0000479533943
 20
4120.00011473512
 30
0.0
 40
24.0
100
AcDbArc
 50
215.6590876961637
 51
269.9999502863144
  0
ARC
  5
9388
330
A79E
100
AcDbEntity
  8
0
100
AcDbCircle
 10
1608.000017497107
 20
4128.000072495254
 30
0.0
 40
20.0
100
AcDbArc
 50
164.0379920807351
 51
15.96200791926489
  0
LINE
  5
9389
330
A79E
100
AcDbEntity
  8
0
100
AcDbLine
 10
1641.000017497107
 20
4101.500071075838
 30
0.0
 11
1641.000017497107
 21
4158.500071075837
 31
0.0
  0
LINE
  5
938A
330
A79E
100
AcDbEntity
  8
0
100
AcDbLine
 10
1640.000020874026
 20
4163.000071075837
 30
0.0
 11
1640.000017497106
 21
4120.000112850326
 31
0.0
  0
LINE
  5
938B
330
A79E
100
AcDbEntity
  8
0
100
AcDbLine
 10
1636.500017497106
 20
4101.500071075838
 30
0.0
 11
1636.500017497106
 21
4133.500071075838
 31
0.0
  0
LINE
  5
938C
330
A79E
100
AcDbEntity
  8
0
100
AcDbLine
 10
1608.000017497107
 20
4098.974199152606
 30
0.0
 11
1608.000017497107
 21
4157.025947189849
 31
0.0
  0
LINE
  5
938D
330
A79E
100
AcDbEntity
  8
0
100
AcDbLine
 10
1608.000020874026
 20
4098.974199152606
 30
0.0
 11
1608.000020874026
 21
4157.025947189849
 31
0.0
  0
LINE
  5
938E
330
A79E
100
AcDbEntity
  8
0
100
AcDbLine
 10
1573.000020874026
 20
4163.000071075837
 30
0.0
 11
1573.000020874026
 21
4096.000076991573
 31
0.0
  0
LINE
  5
938F
330
A79E
100
AcDbEntity
  8
0
100
AcDbLine
 10
1577.500017497106
 20
4158.500071075837
 30
0.0
 11
1577.500017497106
 21
4095.999988349951
 31
0.0
  0
ARC
  5
9390
330
A79E
100
AcDbEntity
  8
0
100
AcDbCircle
 10
1608.000017497107
 20
4128.000072495254
 30
0.0
 40
18.0
100
AcDbArc
 50
22.02431283704329
 51
157.9756871629567
  0
LINE
  5
9391
330
A79E
100
AcDbEntity
  8
0
100
AcDbLine
 10
1641.000017497107
 20
4158.500071075837
 30
0.0
 11
1573.000017497107
 21
4158.500071075837
 31
0.0
  0
LINE
  5
9392
330
A79E
100
AcDbEntity
  8
0
100
AcDbLine
 10
1640.000020874026
 20
4163.000071075837
 30
0.0
 11
1573.000020874026
 21
4163.000071075837
 31
0.0
  0
LINE
  5
9393
330
A79E
100
AcDbEntity
  8
0
100
AcDbLine
 10
1588.771132374737
 20
4133.500070399863
 30
0.0
 11
1577.500017497106
 21
4133.500070399863
 31
0.0
  0
ARC
  5
9394
330
A79E
100
AcDbEntity
  8
0
100
AcDbCircle
 10
1589.459521279368
 20
4135.500072495254
 30
0.0
 40
2.0
100
AcDbArc
 50
270.0
 51
337.9756871629567
  0
LINE
  5
9395
330
A79E
100
AcDbEntity
  8
0
100
AcDbLine
 10
1588.771132374737
 20
4133.500070399863
 30
0.0
 11
1589.459521279368
 21
4133.500072495254
 31
0.0
  0
ARC
  5
9396
330
A79E
100
AcDbEntity
  8
0
100
AcDbCircle
 10
1576.000020874027
 20
4160.000071075836
 30
0.0
 40
3.0
100
AcDbArc
 50
90.00000000000005
 51
180.0
  0
LINE
  5
9397
330
A79E
100
AcDbEntity
  8
0
100
AcDbLine
 10
1584.500017497107
 20
4158.500071075837
 30
0.0
 11
1577.500017497106
 21
4151.500071075838
 31
0.0
  0
LINE
  5
9398
330
A79E
100
AcDbEntity
  8
0
100
AcDbLine
 10
1638.000017497106
 20
4133.500070399863
 30
0.0
 11
1627.228902619476
 21
4133.500070399864
 31
0.0
  0
ARC
  5
9399
330
A79E
100
AcDbEntity
  8
0
100
AcDbCircle
 10
1626.540513714846
 20
4135.500072495254
 30
0.0
 40
2.0
100
AcDbArc
 50
202.0243128370432
 51
270.0
  0
LINE
  5
939A
330
A79E
100
AcDbEntity
  8
0
100
AcDbLine
 10
1626.540513714846
 20
4133.500072495254
 30
0.0
 11
1627.228902619476
 21
4133.500070399864
 31
0.0
  0
LINE
  5
939B
330
A79E
100
AcDbEntity
  8
0
100
AcDbLine
 10
1636.500017497106
 20
4133.500071075838
 30
0.0
 11
1636.500017497106
 21
4158.500071075837
 31
0.0
  0
ARC
  5
939C
330
A79E
100
AcDbEntity
  8
0
100
AcDbCircle
 10
1638.000017497106
 20
4130.500071075838
 30
0.0
 40
3.0
100
AcDbArc
 50
0.0
 51
90.00000000000005
  0
LINE
  5
939D
330
A79E
100
AcDbEntity
  8
0
100
AcDbLine
 10
1616.000038321127
 20
4096.000114735129
 30
0.0
 11
1573.000020874026
 21
4096.000076991573
 31
0.0
  0
LINE
  5
939E
330
A79E
100
AcDbEntity
  8
0
100
AcDbLine
 10
1578.974143478485
 20
4128.000073171229
 30
0.0
 11
1637.025891515729
 21
4128.000073171229
 31
0.0
  0
LINE
  5
939F
330
A79E
100
AcDbEntity
  8
0
100
AcDbLine
 10
1578.974146855404
 20
4128.000073171228
 30
0.0
 11
1637.025894892648
 21
4128.000073171228
 31
0.0
  0
ARC
  5
93A0
330
A79E
100
AcDbEntity
  8
0
100
AcDbCircle
 10
1616.000017497106
 20
4120.00011473512
 30
0.0
 40
24.0
100
AcDbArc
 50
324.3409123038363
 51
0.0
  0
LINE
  5
93A1
330
A79E
100
AcDbEntity
  8
0
100
AcDbLine
 10
1641.000017497107
 20
4101.500071075838
 30
0.0
 11
1636.500017497106
 21
4101.500071075838
 31
0.0
  0
ARC
  5
93A2
330
A79E
100
AcDbEntity
  8
0
100
AcDbCircle
 10
1616.000017497106
 20
4120.00011473512
 30
0.0
 40
24.0
100
AcDbArc
 50
270.0000497136854
 51
324.3409123038363
  0
ARC
  5
9BC7
330
A79E
100
AcDbEntity
  8
0
100
AcDbCircle
 10
964.9999335615609
 20
3285.499999999609
 30
0.0
 40
1.0
100
AcDbArc
 50
270.0
 51
90.0
  0
ARC
  5
9BC8
330
A79E
100
AcDbEntity
  8
0
100
AcDbCircle
 10
954.9999335615607
 20
3307.243557214411
 30
0.0
 40
10.0
100
AcDbArc
 50
0.0
 51
14.32271997980582
  0
LINE
  5
9BC9
330
A79E
100
AcDbEntity
  8
0
100
AcDbLine
 10
964.9999335615609
 20
3276.49999999961
 30
0.0
 11
964.9999335615609
 21
3284.499999999609
 31
0.0
  0
LINE
  5
9BCA
330
A79E
100
AcDbEntity
  8
0
100
AcDbLine
 10
964.9999335615609
 20
3286.499999999609
 30
0.0
 11
964.9999335615609
 21
3307.243557214411
 31
0.0
  0
LINE
  5
9BCB
330
A79E
100
AcDbEntity
  8
0
100
AcDbLine
 10
964.6891106676607
 20
3309.717389667411
 30
0.0
 11
958.9999335608604
 21
3332.000000000011
 31
0.0
  0
ARC
  5
9BCC
330
A79E
100
AcDbEntity
  8
0
100
AcDbCircle
 10
957.9999335608604
 20
3333.000000000011
 30
0.0
 40
1.0
100
AcDbArc
 50
0.0
 51
90.0
  0
LINE
  5
9BCD
330
A79E
100
AcDbEntity
  8
0
100
AcDbLine
 10
958.9999335608604
 20
3332.000000000011
 30
0.0
 11
958.9999335608604
 21
3333.000000000011
 31
0.0
  0
LINE
  5
9BCE
330
A79E
100
AcDbEntity
  8
0
100
AcDbLine
 10
929.999933562161
 20
3286.499999999609
 30
0.0
 11
964.9999335615609
 21
3286.499999999609
 31
0.0
  0
LINE
  5
9BCF
330
A79E
100
AcDbEntity
  8
0
100
AcDbLine
 10
929.999933562161
 20
3284.499999999609
 30
0.0
 11
964.9999335615609
 21
3284.499999999609
 31
0.0
  0
LINE
  5
9BD0
330
A79E
100
AcDbEntity
  8
0
100
AcDbLine
 10
929.999933562161
 20
3276.49999999961
 30
0.0
 11
964.9999335615609
 21
3276.49999999961
 31
0.0
  0
LINE
  5
9BD1
330
A79E
100
AcDbEntity
  8
0
100
AcDbLine
 10
929.999933562161
 20
3334.000000000009
 30
0.0
 11
957.9999335608604
 21
3334.000000000009
 31
0.0
  0
LINE
  5
9BD2
330
A79E
100
AcDbEntity
  8
0
100
AcDbLine
 10
959.9999335625447
 20
3246.0
 30
0.0
 11
929.999933562161
 21
3246.0
 31
0.0
  0
LINE
  5
9BD3
330
A79E
100
AcDbEntity
  8
0
100
AcDbLine
 10
959.9999335625447
 20
3246.0
 30
0.0
 11
959.9999335625447
 21
3259.0
 31
0.0
  0
LINE
  5
9BD4
330
A79E
100
AcDbEntity
  8
0
100
AcDbLine
 10
959.9999335625447
 20
3257.0
 30
0.0
 11
959.9999335625447
 21
3257.0
 31
0.0
  0
LINE
  5
9BD5
330
A79E
100
AcDbEntity
  8
0
100
AcDbLine
 10
958.9999335621612
 20
3259.0
 30
0.0
 11
958.9999335621612
 21
3276.500000000148
 31
0.0
  0
LINE
  5
9BD6
330
A79E
100
AcDbEntity
  8
0
100
AcDbLine
 10
959.9999335625447
 20
3259.0
 30
0.0
 11
959.9999335625447
 21
3257.0
 31
0.0
  0
LINE
  5
9BD7
330
A79E
100
AcDbEntity
  8
0
100
AcDbLine
 10
959.9999335625447
 20
3259.0
 30
0.0
 11
929.999933562161
 21
3259.0
 31
0.0
  0
LINE
  5
9BD8
330
A79E
100
AcDbEntity
  8
0
100
AcDbLine
 10
929.999933562161
 20
3276.500000000148
 30
0.0
 11
958.9999335621612
 21
3276.500000000148
 31
0.0
  0
LINE
  5
9BD9
330
A79E
100
AcDbEntity
  8
0
100
AcDbLine
 10
946.999933562161
 20
3335.000000000002
 30
0.0
 11
946.999933562161
 21
3334.000000000009
 31
0.0
  0
LINE
  5
9BDA
330
A79E
100
AcDbEntity
  8
0
100
AcDbLine
 10
946.999933562161
 20
3335.000000000002
 30
0.0
 11
929.999933562161
 21
3335.000000000002
 31
0.0
  0
ARC
  5
9BDB
330
A79E
100
AcDbEntity
  8
0
100
AcDbCircle
 10
894.9999335627609
 20
3285.499999999609
 30
0.0
 40
1.0
100
AcDbArc
 50
90.0
 51
270.0
  0
ARC
  5
9BDC
330
A79E
100
AcDbEntity
  8
0
100
AcDbCircle
 10
904.9999335627612
 20
3307.243557214411
 30
0.0
 40
10.0
100
AcDbArc
 50
165.6772800201942
 51
180.0
  0
LINE
  5
9BDD
330
A79E
100
AcDbEntity
  8
0
100
AcDbLine
 10
894.9999335627609
 20
3276.49999999961
 30
0.0
 11
894.9999335627609
 21
3284.499999999609
 31
0.0
  0
LINE
  5
9BDE
330
A79E
100
AcDbEntity
  8
0
100
AcDbLine
 10
894.9999335627609
 20
3286.499999999609
 30
0.0
 11
894.9999335627609
 21
3307.243557214411
 31
0.0
  0
LINE
  5
9BDF
330
A79E
100
AcDbEntity
  8
0
100
AcDbLine
 10
895.3107564566613
 20
3309.717389667411
 30
0.0
 11
900.9999335634605
 21
3332.000000000011
 31
0.0
  0
ARC
  5
9BE0
330
A79E
100
AcDbEntity
  8
0
100
AcDbCircle
 10
901.9999335634606
 20
3333.000000000011
 30
0.0
 40
1.0
100
AcDbArc
 50
90.0
 51
180.0
  0
LINE
  5
9BE1
330
A79E
100
AcDbEntity
  8
0
100
AcDbLine
 10
900.9999335634605
 20
3332.000000000011
 30
0.0
 11
900.9999335634605
 21
3333.000000000011
 31
0.0
  0
LINE
  5
9BE2
330
A79E
100
AcDbEntity
  8
0
100
AcDbLine
 10
929.999933562161
 20
3286.499999999609
 30
0.0
 11
894.9999335627609
 21
3286.499999999609
 31
0.0
  0
LINE
  5
9BE3
330
A79E
100
AcDbEntity
  8
0
100
AcDbLine
 10
929.999933562161
 20
3284.499999999609
 30
0.0
 11
894.9999335627609
 21
3284.499999999609
 31
0.0
  0
LINE
  5
9BE4
330
A79E
100
AcDbEntity
  8
0
100
AcDbLine
 10
929.999933562161
 20
3276.49999999961
 30
0.0
 11
894.9999335627609
 21
3276.49999999961
 31
0.0
  0
LINE
  5
9BE5
330
A79E
100
AcDbEntity
  8
0
100
AcDbLine
 10
929.999933562161
 20
3334.000000000009
 30
0.0
 11
901.9999335634606
 21
3334.000000000009
 31
0.0
  0
LINE
  5
9BE6
330
A79E
100
AcDbEntity
  8
0
100
AcDbLine
 10
899.9999335617772
 20
3246.0
 30
0.0
 11
929.999933562161
 21
3246.0
 31
0.0
  0
LINE
  5
9BE7
330
A79E
100
AcDbEntity
  8
0
100
AcDbLine
 10
899.9999335617772
 20
3246.0
 30
0.0
 11
899.9999335617772
 21
3259.0
 31
0.0
  0
LINE
  5
9BE8
330
A79E
100
AcDbEntity
  8
0
100
AcDbLine
 10
899.9999335617772
 20
3257.0
 30
0.0
 11
899.9999335617772
 21
3257.0
 31
0.0
  0
LINE
  5
9BE9
330
A79E
100
AcDbEntity
  8
0
100
AcDbLine
 10
900.9999335621612
 20
3259.0
 30
0.0
 11
900.9999335621612
 21
3276.500000000148
 31
0.0
  0
LINE
  5
9BEA
330
A79E
100
AcDbEntity
  8
0
100
AcDbLine
 10
899.9999335617772
 20
3259.0
 30
0.0
 11
899.9999335617772
 21
3257.0
 31
0.0
  0
LINE
  5
9BEB
330
A79E
100
AcDbEntity
  8
0
100
AcDbLine
 10
899.9999335617772
 20
3259.0
 30
0.0
 11
929.999933562161
 21
3259.0
 31
0.0
  0
LINE
  5
9BEC
330
A79E
100
AcDbEntity
  8
0
100
AcDbLine
 10
929.999933562161
 20
3276.500000000148
 30
0.0
 11
900.9999335621612
 21
3276.500000000148
 31
0.0
  0
LINE
  5
9BED
330
A79E
100
AcDbEntity
  8
0
100
AcDbLine
 10
912.999933562161
 20
3335.000000000002
 30
0.0
 11
912.999933562161
 21
3334.000000000009
 31
0.0
  0
LINE
  5
9BEE
330
A79E
100
AcDbEntity
  8
0
100
AcDbLine
 10
912.999933562161
 20
3335.000000000002
 30
0.0
 11
929.999933562161
 21
3335.000000000002
 31
0.0
  0
ARC
  5
9BEF
330
A79E
100
AcDbEntity
  8
0
100
AcDbCircle
 10
1483.603423955097
 20
3285.499999999609
 30
0.0
 40
1.0
100
AcDbArc
 50
270.0
 51
90.0
  0
ARC
  5
9BF0
330
A79E
100
AcDbEntity
  8
0
100
AcDbCircle
 10
1473.603423955097
 20
3307.243557214411
 30
0.0
 40
10.0
100
AcDbArc
 50
0.0
 51
14.32271997980582
  0
LINE
  5
9BF1
330
A79E
100
AcDbEntity
  8
0
100
AcDbLine
 10
1483.603423955097
 20
3276.49999999961
 30
0.0
 11
1483.603423955097
 21
3284.499999999609
 31
0.0
  0
LINE
  5
9BF2
330
A79E
100
AcDbEntity
  8
0
100
AcDbLine
 10
1483.603423955097
 20
3286.499999999609
 30
0.0
 11
1483.603423955097
 21
3307.243557214411
 31
0.0
  0
LINE
  5
9BF3
330
A79E
100
AcDbEntity
  8
0
100
AcDbLine
 10
1483.292601061197
 20
3309.717389667411
 30
0.0
 11
1477.603423954397
 21
3332.000000000011
 31
0.0
  0
ARC
  5
9BF4
330
A79E
100
AcDbEntity
  8
0
100
AcDbCircle
 10
1476.603423954396
 20
3333.000000000011
 30
0.0
 40
1.0
100
AcDbArc
 50
0.0
 51
90.0
  0
LINE
  5
9BF5
330
A79E
100
AcDbEntity
  8
0
100
AcDbLine
 10
1477.603423954397
 20
3332.000000000011
 30
0.0
 11
1477.603423954397
 21
3333.000000000011
 31
0.0
  0
LINE
  5
9BF6
330
A79E
100
AcDbEntity
  8
0
100
AcDbLine
 10
1448.603423955697
 20
3286.499999999609
 30
0.0
 11
1483.603423955097
 21
3286.499999999609
 31
0.0
  0
LINE
  5
9BF7
330
A79E
100
AcDbEntity
  8
0
100
AcDbLine
 10
1448.603423955697
 20
3284.499999999609
 30
0.0
 11
1483.603423955097
 21
3284.499999999609
 31
0.0
  0
LINE
  5
9BF8
330
A79E
100
AcDbEntity
  8
0
100
AcDbLine
 10
1448.603423955697
 20
3276.49999999961
 30
0.0
 11
1483.603423955097
 21
3276.49999999961
 31
0.0
  0
LINE
  5
9BF9
330
A79E
100
AcDbEntity
  8
0
100
AcDbLine
 10
1448.603423955697
 20
3334.000000000009
 30
0.0
 11
1476.603423954396
 21
3334.000000000009
 31
0.0
  0
LINE
  5
9BFA
330
A79E
100
AcDbEntity
  8
0
100
AcDbLine
 10
1478.603423956081
 20
3246.0
 30
0.0
 11
1448.603423955697
 21
3246.0
 31
0.0
  0
LINE
  5
9BFB
330
A79E
100
AcDbEntity
  8
0
100
AcDbLine
 10
1478.603423956081
 20
3246.0
 30
0.0
 11
1478.603423956081
 21
3259.0
 31
0.0
  0
LINE
  5
9BFC
330
A79E
100
AcDbEntity
  8
0
100
AcDbLine
 10
1478.603423956081
 20
3257.0
 30
0.0
 11
1478.603423956081
 21
3257.0
 31
0.0
  0
LINE
  5
9BFD
330
A79E
100
AcDbEntity
  8
0
100
AcDbLine
 10
1477.603423955697
 20
3259.0
 30
0.0
 11
1477.603423955697
 21
3276.500000000148
 31
0.0
  0
LINE
  5
9BFE
330
A79E
100
AcDbEntity
  8
0
100
AcDbLine
 10
1478.603423956081
 20
3259.0
 30
0.0
 11
1478.603423956081
 21
3257.0
 31
0.0
  0
LINE
  5
9BFF
330
A79E
100
AcDbEntity
  8
0
100
AcDbLine
 10
1478.603423956081
 20
3259.0
 30
0.0
 11
1448.603423955697
 21
3259.0
 31
0.0
  0
LINE
  5
9C00
330
A79E
100
AcDbEntity
  8
0
100
AcDbLine
 10
1448.603423955697
 20
3276.500000000148
 30
0.0
 11
1477.603423955697
 21
3276.500000000148
 31
0.0
  0
LINE
  5
9C01
330
A79E
100
AcDbEntity
  8
0
100
AcDbLine
 10
1465.603423955697
 20
3335.000000000002
 30
0.0
 11
1465.603423955697
 21
3334.000000000009
 31
0.0
  0
LINE
  5
9C02
330
A79E
100
AcDbEntity
  8
0
100
AcDbLine
 10
1465.603423955697
 20
3335.000000000002
 30
0.0
 11
1448.603423955697
 21
3335.000000000002
 31
0.0
  0
ARC
  5
9C03
330
A79E
100
AcDbEntity
  8
0
100
AcDbCircle
 10
1413.603423956297
 20
3285.499999999609
 30
0.0
 40
1.0
100
AcDbArc
 50
90.0
 51
270.0
  0
ARC
  5
9C04
330
A79E
100
AcDbEntity
  8
0
100
AcDbCircle
 10
1423.603423956298
 20
3307.243557214411
 30
0.0
 40
10.0
100
AcDbArc
 50
165.6772800201942
 51
180.0
  0
LINE
  5
9C05
330
A79E
100
AcDbEntity
  8
0
100
AcDbLine
 10
1413.603423956297
 20
3276.49999999961
 30
0.0
 11
1413.603423956297
 21
3284.499999999609
 31
0.0
  0
LINE
  5
9C06
330
A79E
100
AcDbEntity
  8
0
100
AcDbLine
 10
1413.603423956297
 20
3286.499999999609
 30
0.0
 11
1413.603423956297
 21
3307.243557214411
 31
0.0
  0
LINE
  5
9C07
330
A79E
100
AcDbEntity
  8
0
100
AcDbLine
 10
1413.914246850198
 20
3309.717389667411
 30
0.0
 11
1419.603423956997
 21
3332.000000000011
 31
0.0
  0
ARC
  5
9C08
330
A79E
100
AcDbEntity
  8
0
100
AcDbCircle
 10
1420.603423956997
 20
3333.000000000011
 30
0.0
 40
1.0
100
AcDbArc
 50
90.0
 51
180.0
  0
LINE
  5
9C09
330
A79E
100
AcDbEntity
  8
0
100
AcDbLine
 10
1419.603423956997
 20
3332.000000000011
 30
0.0
 11
1419.603423956997
 21
3333.000000000011
 31
0.0
  0
LINE
  5
9C0A
330
A79E
100
AcDbEntity
  8
0
100
AcDbLine
 10
1448.603423955697
 20
3286.499999999609
 30
0.0
 11
1413.603423956297
 21
3286.499999999609
 31
0.0
  0
LINE
  5
9C0B
330
A79E
100
AcDbEntity
  8
0
100
AcDbLine
 10
1448.603423955697
 20
3284.499999999609
 30
0.0
 11
1413.603423956297
 21
3284.499999999609
 31
0.0
  0
LINE
  5
9C0C
330
A79E
100
AcDbEntity
  8
0
100
AcDbLine
 10
1448.603423955697
 20
3276.49999999961
 30
0.0
 11
1413.603423956297
 21
3276.49999999961
 31
0.0
  0
LINE
  5
9C0D
330
A79E
100
AcDbEntity
  8
0
100
AcDbLine
 10
1448.603423955697
 20
3334.000000000009
 30
0.0
 11
1420.603423956997
 21
3334.000000000009
 31
0.0
  0
LINE
  5
9C0E
330
A79E
100
AcDbEntity
  8
0
100
AcDbLine
 10
1418.603423955314
 20
3246.0
 30
0.0
 11
1448.603423955697
 21
3246.0
 31
0.0
  0
LINE
  5
9C0F
330
A79E
100
AcDbEntity
  8
0
100
AcDbLine
 10
1418.603423955314
 20
3246.0
 30
0.0
 11
1418.603423955314
 21
3259.0
 31
0.0
  0
LINE
  5
9C10
330
A79E
100
AcDbEntity
  8
0
100
AcDbLine
 10
1418.603423955314
 20
3257.0
 30
0.0
 11
1418.603423955314
 21
3257.0
 31
0.0
  0
LINE
  5
9C11
330
A79E
100
AcDbEntity
  8
0
100
AcDbLine
 10
1419.603423955697
 20
3259.0
 30
0.0
 11
1419.603423955697
 21
3276.500000000148
 31
0.0
  0
LINE
  5
9C12
330
A79E
100
AcDbEntity
  8
0
100
AcDbLine
 10
1418.603423955314
 20
3259.0
 30
0.0
 11
1418.603423955314
 21
3257.0
 31
0.0
  0
LINE
  5
9C13
330
A79E
100
AcDbEntity
  8
0
100
AcDbLine
 10
1418.603423955314
 20
3259.0
 30
0.0
 11
1448.603423955697
 21
3259.0
 31
0.0
  0
LINE
  5
9C14
330
A79E
100
AcDbEntity
  8
0
100
AcDbLine
 10
1448.603423955697
 20
3276.500000000148
 30
0.0
 11
1419.603423955697
 21
3276.500000000148
 31
0.0
  0
LINE
  5
9C15
330
A79E
100
AcDbEntity
  8
0
100
AcDbLine
 10
1431.603423955697
 20
3335.000000000002
 30
0.0
 11
1431.603423955697
 21
3334.000000000009
 31
0.0
  0
LINE
  5
9C16
330
A79E
100
AcDbEntity
  8
0
100
AcDbLine
 10
1431.603423955697
 20
3335.000000000002
 30
0.0
 11
1448.603423955697
 21
3335.000000000002
 31
0.0
  0
LINE
  5
9C17
330
A79E
100
AcDbEntity
  8
0
100
AcDbLine
 10
959.9999335625447
 20
3257.0
 30
0.0
 11
1418.603423955314
 21
3257.0
 31
0.0
  0
LINE
  5
9C1A
330
A79E
100
AcDbEntity
  8
0
100
AcDbLine
 10
1478.603423956081
 20
3257.0
 30
0.0
 11
1573.014653175259
 21
3257.0
 31
0.0
  0
LINE
  5
9DFC
330
A79E
100
AcDbEntity
  8
0
100
AcDbLine
 10
1096.243467339774
 20
4113.166869107446
 30
0.0
 11
1213.478899839154
 21
4113.166869107446
 31
0.0
  0
LINE
  5
9DFD
330
A79E
100
AcDbEntity
  8
0
100
AcDbLine
 10
1096.243467339774
 20
4133.166869107443
 30
0.0
 11
1213.478899839154
 21
4133.166869107443
 31
0.0
  0
LINE
  5
9DFE
330
A79E
100
AcDbEntity
  8
0
100
AcDbLine
 10
1096.243467339774
 20
4133.166869107443
 30
0.0
 11
1096.243467339774
 21
4113.166869107446
 31
0.0
  0
LINE
  5
9DFF
330
A79E
100
AcDbEntity
  8
0
100
AcDbLine
 10
1213.478899839154
 20
4133.166869107443
 30
0.0
 11
1213.478899839154
 21
4113.166869107446
 31
0.0
  0
LINE
  5
9F19
330
A79E
100
AcDbEntity
  8
0
100
AcDbLine
 10
160.0
 20
5616.0
 30
0.0
 11
3760.0
 21
5616.0
 31
0.0
  0
LINE
  5
9F1B
330
A79E
100
AcDbEntity
  8
0
100
AcDbLine
 10
160.0
 20
5616.0
 30
0.0
 11
160.0
 21
-0.0000000000000178
 31
0.0
  0
LINE
  5
9FEA
330
A79E
100
AcDbEntity
  8
0
100
AcDbLine
 10
3760.000000000002
 20
5616.0
 30
0.0
 11
3760.000000000002
 21
-0.0000000000009059
 31
0.0
  0
LINE
  5
9FF6
330
A79E
100
AcDbEntity
  8
0
100
AcDbLine
 10
160.0
 20
0.0
 30
0.0
 11
3760.0
 21
0.0
 31
0.0
  0
LINE
  5
9FF7
330
A79E
100
AcDbEntity
  8
0
100
AcDbLine
 10
160.0
 20
0.0
 30
0.0
 11
3760.0
 21
0.0
 31
0.0
  0
LINE
  5
A06E
330
A79E
100
AcDbEntity
  8
0
100
AcDbLine
 10
776.0641429177316
 20
2511.146815315461
 30
0.0
 11
363.999934549498
 21
2511.146815315461
 31
0.0
  0
LINE
  5
A06F
330
A79E
100
AcDbEntity
  8
0
100
AcDbLine
 10
776.0641429177316
 20
1807.14674928178
 30
0.0
 11
363.9999345494978
 21
1807.14674928178
 31
0.0
  0
LINE
  5
A070
330
A79E
100
AcDbEntity
  8
0
100
AcDbLine
 10
399.999934549498
 20
2471.146815315461
 30
0.0
 11
399.9999345494978
 21
1847.14674928178
 31
0.0
  0
LINE
  5
A074
330
A79E
100
AcDbEntity
  8
0
100
AcDbLine
 10
1539.999920849256
 20
2535.082527302523
 30
0.0
 11
1539.999920849256
 21
2722.155257845712
 31
0.0
  0
LINE
  5
A075
330
A79E
100
AcDbEntity
  8
0
100
AcDbLine
 10
799.9999208492556
 20
2535.082593246984
 30
0.0
 11
799.9999208492556
 21
2722.155257845712
 31
0.0
  0
LINE
  5
A076
330
A79E
100
AcDbEntity
  8
0
100
AcDbLine
 10
1499.999920849256
 20
2686.155257845712
 30
0.0
 11
839.9999208492555
 21
2686.155257845712
 31
0.0
  0
TEXT
  5
A07A
330
A79E
100
AcDbEntity
  8
0
100
AcDbText
 10
938.4776018697175
 20
1639.380050124301
 30
0.0
 40
50.0
  1
4-\U+220520
100
AcDbText
  0
LINE
  5
A07B
330
A79E
100
AcDbEntity
  8
0
100
AcDbLine
 10
799.9999208492551
 20
1807.14674928178
 30
0.0
 11
828.5873341473468
 21
1777.186198010428
 31
0.0
  0
LINE
  5
A07C
330
A79E
100
AcDbEntity
  8
0
100
AcDbLine
 10
799.9999208492551
 20
1807.14674928178
 30
0.0
 11
809.7770713582137
 21
1766.906444120358
 31
0.0
  0
LINE
  5
A07D
330
A79E
100
AcDbEntity
  8
0
100
AcDbLine
 10
819.1822027527816
 20
1772.046321065394
 30
0.0
 11
799.9999208492551
 21
1807.14674928178
 31
0.0
  0
LINE
  5
A07E
330
A79E
100
AcDbEntity
  8
0
100
AcDbLine
 10
1640.0
 20
4794.999994354899
 30
0.0
 11
1640.0
 21
5295.999988439159
 31
0.0
  0
LINE
  5
A07F
330
A79E
100
AcDbEntity
  8
0
100
AcDbLine
 10
700.0
 20
4794.999994354899
 30
0.0
 11
700.0
 21
5295.999988439159
 31
0.0
  0
LINE
  5
A080
330
A79E
100
AcDbEntity
  8
0
100
AcDbLine
 10
1600.0
 20
5259.99998843916
 30
0.0
 11
740.0
 21
5259.99998843916
 31
0.0
  0
LINE
  5
A084
330
A79E
100
AcDbEntity
  8
0
100
AcDbLine
 10
725.0718063808583
 20
4815.999981652803
 30
0.0
 11
738.9282183808583
 21
4815.999981652803
 31
0.0
  0
LINE
  5
A085
330
A79E
100
AcDbEntity
  8
0
100
AcDbLine
 10
725.0718063808583
 20
4839.999961652802
 30
0.0
 11
738.9282183808589
 21
4839.999961652802
 31
0.0
  0
CIRCLE
  5
A086
330
A79E
100
AcDbEntity
  8
0
100
AcDbCircle
 10
732.0000063808589
 20
4827.999971652801
 30
0.0
 40
11.499999
  0
CIRCLE
  5
A087
330
A79E
100
AcDbEntity
  8
0
100
AcDbCircle
 10
732.0000063808589
 20
4827.999971652801
 30
0.0
 40
6.999999799999997
  0
CIRCLE
  5
A088
330
A79E
100
AcDbEntity
  8
0
100
AcDbCircle
 10
732.0000063808589
 20
4827.999971652801
 30
0.0
 40
8.0
  0
LINE
  5
A089
330
A79E
100
AcDbEntity
  8
0
100
AcDbLine
 10
745.8564093808591
 20
4827.999971652801
 30
0.0
 11
738.9282183808589
 21
4839.999961652802
 31
0.0
  0
LINE
  5
A08A
330
A79E
100
AcDbEntity
  8
0
100
AcDbLine
 10
745.8564093808591
 20
4827.999971652801
 30
0.0
 11
738.9282183808583
 21
4815.999981652803
 31
0.0
  0
LINE
  5
A08B
330
A79E
100
AcDbEntity
  8
0
100
AcDbLine
 10
718.1436163808588
 20
4827.999971652801
 30
0.0
 11
725.0718163808588
 21
4839.999961652802
 31
0.0
  0
LINE
  5
A08C
330
A79E
100
AcDbEntity
  8
0
100
AcDbLine
 10
725.0718063808583
 20
4815.999981652803
 30
0.0
 11
718.1436163808588
 21
4827.999971652801
 31
0.0
  0
LINE
  5
A08D
330
A79E
100
AcDbEntity
  8
0
100
AcDbLine
 10
698.0000023096809
 20
4860.000080246561
 30
0.0
 11
263.9999345494981
 21
4860.000080246561
 31
0.0
  0
LINE
  5
A08E
330
A79E
100
AcDbEntity
  8
0
100
AcDbLine
 10
697.9999997543215
 20
4096.000164127524
 30
0.0
 11
263.9999345494979
 21
4096.000164127524
 31
0.0
  0
LINE
  5
A08F
330
A79E
100
AcDbEntity
  8
0
100
AcDbLine
 10
299.999934549498
 20
4820.000080246561
 30
0.0
 11
299.9999345494979
 21
4136.000164127525
 31
0.0
  0
LINE
  5
A093
330
A79E
100
AcDbEntity
  8
0
100
AcDbLine
 10
698.0
 20
3365.0
 30
0.0
 11
363.9999345494981
 21
3365.0
 31
0.0
  0
LINE
  5
A094
330
A79E
100
AcDbEntity
  8
0
100
AcDbLine
 10
701.0
 20
3226.999999999999
 30
0.0
 11
363.9999345494981
 21
3226.999999999999
 31
0.0
  0
LINE
  5
A095
330
A79E
100
AcDbEntity
  8
0
100
AcDbLine
 10
399.999934549498
 20
3325.0
 30
0.0
 11
399.999934549498
 21
3266.999999999999
 31
0.0
  0
LINE
  5
A099
330
A79E
100
AcDbEntity
  8
0
100
AcDbLine
 10
698.0
 20
3335.0
 30
0.0
 11
463.9999345494977
 21
3335.0
 31
0.0
  0
LINE
  5
A09A
330
A79E
100
AcDbEntity
  8
0
100
AcDbLine
 10
497.999934549498
 20
3365.0
 30
0.0
 11
463.9999345494977
 21
3365.0
 31
0.0
  0
LINE
  5
A09B
330
A79E
100
AcDbEntity
  8
0
100
AcDbLine
 10
499.999934549498
 20
3315.0
 30
0.0
 11
499.999934549498
 21
3295.0
 31
0.0
  0
LINE
  5
A09C
330
A79E
100
AcDbEntity
  8
0
100
AcDbLine
 10
499.999934549498
 20
3385.000000000002
 30
0.0
 11
499.999934549498
 21
3480.000000000002
 31
0.0
  0
LINE
  5
A09D
330
A79E
100
AcDbEntity
  8
0
100
AcDbLine
 10
499.999934549498
 20
3335.0
 30
0.0
 11
499.999934549498
 21
3365.0
 31
0.0
  0
LINE
  5
A0A1
330
A79E
100
AcDbEntity
  8
0
100
AcDbLine
 10
698.0
 20
3257.0
 30
0.0
 11
463.9999345494977
 21
3257.0
 31
0.0
  0
LINE
  5
A0A2
330
A79E
100
AcDbEntity
  8
0
100
AcDbLine
 10
497.999934549498
 20
3227.0
 30
0.0
 11
463.9999345494977
 21
3227.0
 31
0.0
  0
LINE
  5
A0A3
330
A79E
100
AcDbEntity
  8
0
100
AcDbLine
 10
499.999934549498
 20
3277.0
 30
0.0
 11
499.999934549498
 21
3292.0
 31
0.0
  0
LINE
  5
A0A4
330
A79E
100
AcDbEntity
  8
0
100
AcDbLine
 10
499.999934549498
 20
3206.999999999999
 30
0.0
 11
499.9999345494976
 21
3112.0
 31
0.0
  0
LINE
  5
A0A5
330
A79E
100
AcDbEntity
  8
0
100
AcDbLine
 10
499.999934549498
 20
3257.0
 30
0.0
 11
499.999934549498
 21
3227.0
 31
0.0
  0
LINE
  5
A0AF
330
A79E
100
AcDbEntity
  8
0
100
AcDbLine
 10
725.0718063808583
 20
4140.000083777934
 30
0.0
 11
738.9282183808589
 21
4140.000083777934
 31
0.0
  0
LINE
  5
A0B0
330
A79E
100
AcDbEntity
  8
0
100
AcDbLine
 10
725.0718063808583
 20
4116.000103777933
 30
0.0
 11
738.9282183808583
 21
4116.000103777933
 31
0.0
  0
CIRCLE
  5
A0B1
330
A79E
100
AcDbEntity
  8
0
100
AcDbCircle
 10
732.0000063808589
 20
4128.000093777933
 30
0.0
 40
11.499999
  0
CIRCLE
  5
A0B2
330
A79E
100
AcDbEntity
  8
0
100
AcDbCircle
 10
732.0000063808589
 20
4128.000093777933
 30
0.0
 40
6.999999799999997
  0
CIRCLE
  5
A0B3
330
A79E
100
AcDbEntity
  8
0
100
AcDbCircle
 10
732.0000063808589
 20
4128.000093777933
 30
0.0
 40
8.0
  0
LINE
  5
A0B4
330
A79E
100
AcDbEntity
  8
0
100
AcDbLine
 10
745.8564093808591
 20
4128.000093777933
 30
0.0
 11
738.9282183808583
 21
4116.000103777933
 31
0.0
  0
LINE
  5
A0B5
330
A79E
100
AcDbEntity
  8
0
100
AcDbLine
 10
745.8564093808591
 20
4128.000093777933
 30
0.0
 11
738.9282183808589
 21
4140.000083777934
 31
0.0
  0
LINE
  5
A0B6
330
A79E
100
AcDbEntity
  8
0
100
AcDbLine
 10
718.1436163808588
 20
4128.000093777933
 30
0.0
 11
725.0718163808588
 21
4116.000103777933
 31
0.0
  0
LINE
  5
A0B7
330
A79E
100
AcDbEntity
  8
0
100
AcDbLine
 10
725.0718063808583
 20
4140.000083777934
 30
0.0
 11
718.1436163808588
 21
4128.000093777933
 31
0.0
  0
LINE
  5
A0B8
330
A79E
100
AcDbEntity
  8
0
100
AcDbLine
 10
1614.928259069643
 20
4815.999981652803
 30
0.0
 11
1601.071847069643
 21
4815.999981652803
 31
0.0
  0
LINE
  5
A0B9
330
A79E
100
AcDbEntity
  8
0
100
AcDbLine
 10
1614.928259069643
 20
4839.999961652802
 30
0.0
 11
1601.071847069643
 21
4839.999961652802
 31
0.0
  0
CIRCLE
  5
A0BA
330
A79E
100
AcDbEntity
  8
0
100
AcDbCircle
 10
1608.000059069643
 20
4827.999971652801
 30
0.0
 40
11.499999
  0
CIRCLE
  5
A0BB
330
A79E
100
AcDbEntity
  8
0
100
AcDbCircle
 10
1608.000059069643
 20
4827.999971652801
 30
0.0
 40
6.999999799999997
  0
CIRCLE
  5
A0BC
330
A79E
100
AcDbEntity
  8
0
100
AcDbCircle
 10
1608.000059069643
 20
4827.999971652801
 30
0.0
 40
8.0
  0
LINE
  5
A0BD
330
A79E
100
AcDbEntity
  8
0
100
AcDbLine
 10
1594.143656069643
 20
4827.999971652801
 30
0.0
 11
1601.071847069643
 21
4839.999961652802
 31
0.0
  0
LINE
  5
A0BE
330
A79E
100
AcDbEntity
  8
0
100
AcDbLine
 10
1594.143656069643
 20
4827.999971652801
 30
0.0
 11
1601.071847069643
 21
4815.999981652803
 31
0.0
  0
LINE
  5
A0BF
330
A79E
100
AcDbEntity
  8
0
100
AcDbLine
 10
1621.856449069643
 20
4827.999971652801
 30
0.0
 11
1614.928249069643
 21
4839.999961652802
 31
0.0
  0
LINE
  5
A0C0
330
A79E
100
AcDbEntity
  8
0
100
AcDbLine
 10
1614.928259069643
 20
4815.999981652803
 30
0.0
 11
1621.856449069643
 21
4827.999971652801
 31
0.0
  0
LINE
  5
A0C1
330
A79E
100
AcDbEntity
  8
0
100
AcDbLine
 10
1028.019189013904
 20
3964.32313742927
 30
0.0
 11
1027.959189013905
 21
3964.32313742927
 31
0.0
  0
LINE
  5
A0C2
330
A79E
100
AcDbEntity
  8
0
100
AcDbLine
 10
1027.959189013905
 20
3964.32313742927
 30
0.0
 11
991.8025112911053
 21
3964.32313742927
 31
0.0
  0
LINE
  5
A0C3
330
A79E
100
AcDbEntity
  8
0
100
AcDbLine
 10
991.8025112911053
 20
3964.32313742927
 30
0.0
 11
1080.633250026851
 21
4095.485718636928
 31
0.0
  0
LINE
  5
A0C4
330
A79E
100
AcDbEntity
  8
0
100
AcDbLine
 10
1080.633250026851
 20
4095.485718636928
 30
0.0
 11
1100.820460143681
 21
4125.293042362801
 31
0.0
  0
LINE
  5
A0C5
330
A79E
100
AcDbEntity
  8
0
100
AcDbLine
 10
1088.620098275266
 20
4090.076572037765
 30
0.0
 11
1100.820460143681
 21
4125.293042362801
 31
0.0
  0
LINE
  5
A0C6
330
A79E
100
AcDbEntity
  8
0
100
AcDbLine
 10
1100.820460143681
 20
4125.293042362801
 30
0.0
 11
1072.646401778436
 21
4100.894865236094
 31
0.0
  0
TEXT
  5
A164
330
A79E
100
AcDbEntity
  8
SCALE
 62
     2
100
AcDbText
 10
1028.08
 20
3917.58
 30
0.0
 40
36.0
  1
 
100
AcDbText
  0
LINE
  5
A0C8
330
A79E
100
AcDbEntity
  8
0
100
AcDbLine
 10
1614.928259069643
 20
4140.000083777934
 30
0.0
 11
1601.071847069643
 21
4140.000083777934
 31
0.0
  0
LINE
  5
A0C9
330
A79E
100
AcDbEntity
  8
0
100
AcDbLine
 10
1614.928259069643
 20
4116.000103777933
 30
0.0
 11
1601.071847069643
 21
4116.000103777933
 31
0.0
  0
CIRCLE
  5
A0CA
330
A79E
100
AcDbEntity
  8
0
100
AcDbCircle
 10
1608.000059069643
 20
4128.000093777933
 30
0.0
 40
11.499999
  0
CIRCLE
  5
A0CB
330
A79E
100
AcDbEntity
  8
0
100
AcDbCircle
 10
1608.000059069643
 20
4128.000093777933
 30
0.0
 40
6.999999799999997
  0
CIRCLE
  5
A0CC
330
A79E
100
AcDbEntity
  8
0
100
AcDbCircle
 10
1608.000059069643
 20
4128.000093777933
 30
0.0
 40
8.0
  0
LINE
  5
A0CD
330
A79E
100
AcDbEntity
  8
0
100
AcDbLine
 10
1594.143656069643
 20
4128.000093777933
 30
0.0
 11
1601.071847069643
 21
4116.000103777933
 31
0.0
  0
LINE
  5
A0CE
330
A79E
100
AcDbEntity
  8
0
100
AcDbLine
 10
1594.143656069643
 20
4128.000093777933
 30
0.0
 11
1601.071847069643
 21
4140.000083777934
 31
0.0
  0
LINE
  5
A0CF
330
A79E
100
AcDbEntity
  8
0
100
AcDbLine
 10
1621.856449069643
 20
4128.000093777933
 30
0.0
 11
1614.928249069643
 21
4116.000103777933
 31
0.0
  0
LINE
  5
A0D0
330
A79E
100
AcDbEntity
  8
0
100
AcDbLine
 10
1614.928259069643
 20
4140.000083777934
 30
0.0
 11
1621.856449069643
 21
4128.000093777933
 31
0.0
  0
LINE
  5
A0D1
330
A79E
100
AcDbEntity
  8
0
100
AcDbLine
 10
790.0000000000003
 20
4840.000075946779
 30
0.0
 11
795.8120837539409
 21
4881.00122854029
 31
0.0
  0
LINE
  5
A0D2
330
A79E
100
AcDbEntity
  8
0
100
AcDbLine
 10
790.0000000000003
 20
4840.000075946779
 30
0.0
 11
815.5339884765897
 21
4872.602073800234
 31
0.0
  0
LINE
  5
A0D3
330
A79E
100
AcDbEntity
  8
0
100
AcDbLine
 10
805.6730361152657
 20
4876.801651170262
 30
0.0
 11
790.0000000000003
 21
4840.000075946779
 31
0.0
  0
LINE
  5
A0D4
330
A79E
100
AcDbEntity
  8
0
100
AcDbLine
 10
399.999934549498
 20
1807.14674928178
 30
0.0
 11
389.2819668522534
 21
1847.14674928178
 31
0.0
  0
LINE
  5
A0D5
330
A79E
100
AcDbEntity
  8
0
100
AcDbLine
 10
399.999934549498
 20
1807.14674928178
 30
0.0
 11
410.7179022467424
 21
1847.14674928178
 31
0.0
  0
LINE
  5
A0D6
330
A79E
100
AcDbEntity
  8
0
100
AcDbLine
 10
399.999934549498
 20
1847.14674928178
 30
0.0
 11
399.999934549498
 21
1807.14674928178
 31
0.0
  0
TEXT
  5
A0D7
330
A79E
100
AcDbEntity
  8
0
100
AcDbText
 10
374.9999345494976
 20
2096.646782298621
 30
0.0
 40
50.0
  1
704
 50
90.0
100
AcDbText
  0
LINE
  5
A0D8
330
A79E
100
AcDbEntity
  8
0
100
AcDbLine
 10
399.999934549498
 20
2511.146815315461
 30
0.0
 11
410.7179022467424
 21
2471.146815315461
 31
0.0
  0
LINE
  5
A0D9
330
A79E
100
AcDbEntity
  8
0
100
AcDbLine
 10
399.999934549498
 20
2511.146815315461
 30
0.0
 11
389.2819668522534
 21
2471.146815315461
 31
0.0
  0
LINE
  5
A0DA
330
A79E
100
AcDbEntity
  8
0
100
AcDbLine
 10
399.999934549498
 20
2471.146815315461
 30
0.0
 11
399.999934549498
 21
2511.146815315461
 31
0.0
  0
TEXT
  5
A0DB
330
A79E
100
AcDbEntity
  8
0
100
AcDbText
 10
1107.499920849256
 20
2711.155257845712
 30
0.0
 40
50.0
  1
740
100
AcDbText
  0
LINE
  5
A0DC
330
A79E
100
AcDbEntity
  8
0
100
AcDbLine
 10
799.9999208492564
 20
2686.155257845712
 30
0.0
 11
839.9999208492561
 21
2696.873225542957
 31
0.0
  0
LINE
  5
A0DD
330
A79E
100
AcDbEntity
  8
0
100
AcDbLine
 10
799.9999208492564
 20
2686.155257845712
 30
0.0
 11
839.9999208492561
 21
2675.437290148467
 31
0.0
  0
LINE
  5
A0DE
330
A79E
100
AcDbEntity
  8
0
100
AcDbLine
 10
839.9999208492561
 20
2686.155257845712
 30
0.0
 11
799.9999208492564
 21
2686.155257845712
 31
0.0
  0
LINE
  5
A0DF
330
A79E
100
AcDbEntity
  8
0
100
AcDbLine
 10
1539.999920849255
 20
2686.155257845712
 30
0.0
 11
1499.999920849255
 21
2675.437290148467
 31
0.0
  0
LINE
  5
A0E0
330
A79E
100
AcDbEntity
  8
0
100
AcDbLine
 10
1539.999920849255
 20
2686.155257845712
 30
0.0
 11
1499.999920849255
 21
2696.873225542957
 31
0.0
  0
LINE
  5
A0E1
330
A79E
100
AcDbEntity
  8
0
100
AcDbLine
 10
1499.999920849255
 20
2686.155257845712
 30
0.0
 11
1539.999920849255
 21
2686.155257845712
 31
0.0
  0
LINE
  5
A0E2
330
A79E
100
AcDbEntity
  8
0
100
AcDbLine
 10
299.999934549498
 20
4860.000080246561
 30
0.0
 11
310.7179022467426
 21
4820.000080246561
 31
0.0
  0
LINE
  5
A0E3
330
A79E
100
AcDbEntity
  8
0
100
AcDbLine
 10
299.999934549498
 20
4860.000080246561
 30
0.0
 11
289.2819668522534
 21
4820.000080246561
 31
0.0
  0
LINE
  5
A0E4
330
A79E
100
AcDbEntity
  8
0
100
AcDbLine
 10
299.999934549498
 20
4820.000080246561
 30
0.0
 11
299.999934549498
 21
4860.000080246561
 31
0.0
  0
TEXT
  5
A0E5
330
A79E
100
AcDbEntity
  8
0
100
AcDbText
 10
474.9999345494972
 20
3405.000000000002
 30
0.0
 40
50.0
  1
30
 50
90.0
100
AcDbText
  0
TEXT
  5
A0E6
330
A79E
100
AcDbEntity
  8
0
100
AcDbText
 10
474.9999345494972
 20
3112.0
 30
0.0
 40
50.0
  1
30
 50
90.0
100
AcDbText
  0
TEXT
  5
A0E7
330
A79E
100
AcDbEntity
  8
0
100
AcDbText
 10
375.2880028508408
 20
3058.139556138953
 30
0.0
 40
50.0
  1
据付時約 138
 50
90.0
100
AcDbText
  0
LINE
  5
A0EF
330
A79E
100
AcDbEntity
  8
0
100
AcDbLine
 10
399.999934549498
 20
3226.999999999999
 30
0.0
 11
389.2819668522534
 21
3266.999999999999
 31
0.0
  0
LINE
  5
A0F0
330
A79E
100
AcDbEntity
  8
0
100
AcDbLine
 10
399.999934549498
 20
3226.999999999999
 30
0.0
 11
410.7179022467424
 21
3266.999999999999
 31
0.0
  0
LINE
  5
A0F1
330
A79E
100
AcDbEntity
  8
0
100
AcDbLine
 10
399.999934549498
 20
3266.999999999999
 30
0.0
 11
399.999934549498
 21
3226.999999999999
 31
0.0
  0
LINE
  5
A0F2
330
A79E
100
AcDbEntity
  8
0
100
AcDbLine
 10
399.999934549498
 20
3365.0
 30
0.0
 11
410.7179022467424
 21
3325.0
 31
0.0
  0
LINE
  5
A0F3
330
A79E
100
AcDbEntity
  8
0
100
AcDbLine
 10
399.999934549498
 20
3365.0
 30
0.0
 11
389.2819668522534
 21
3325.0
 31
0.0
  0
LINE
  5
A0F4
330
A79E
100
AcDbEntity
  8
0
100
AcDbLine
 10
399.999934549498
 20
3325.0
 30
0.0
 11
399.999934549498
 21
3365.0
 31
0.0
  0
LINE
  5
A0F5
330
A79E
100
AcDbEntity
  8
0
100
AcDbLine
 10
499.999934549498
 20
3277.0
 30
0.0
 11
499.999934549498
 21
3257.0
 31
0.0
  0
LINE
  5
A0F7
330
A79E
100
AcDbEntity
  8
0
100
AcDbLine
 10
499.999934549498
 20
3206.999999999999
 30
0.0
 11
499.999934549498
 21
3227.0
 31
0.0
  0
LINE
  5
A0F9
330
A79E
100
AcDbEntity
  8
0
100
AcDbLine
 10
499.999934549498
 20
3315.0
 30
0.0
 11
499.999934549498
 21
3335.0
 31
0.0
  0
LINE
  5
A0FB
330
A79E
100
AcDbEntity
  8
0
100
AcDbLine
 10
499.999934549498
 20
3385.000000000002
 30
0.0
 11
499.999934549498
 21
3365.0
 31
0.0
  0
LINE
  5
A0FD
330
A79E
100
AcDbEntity
  8
0
100
AcDbLine
 10
299.999934549498
 20
4096.000164127524
 30
0.0
 11
289.2819668522534
 21
4136.000164127525
 31
0.0
  0
LINE
  5
A0FE
330
A79E
100
AcDbEntity
  8
0
100
AcDbLine
 10
299.999934549498
 20
4096.000164127524
 30
0.0
 11
310.7179022467426
 21
4136.000164127525
 31
0.0
  0
LINE
  5
A0FF
330
A79E
100
AcDbEntity
  8
0
100
AcDbLine
 10
299.999934549498
 20
4136.000164127525
 30
0.0
 11
299.999934549498
 21
4096.000164127524
 31
0.0
  0
TEXT
  5
A100
330
A79E
100
AcDbEntity
  8
0
100
AcDbText
 10
274.9999345494972
 20
4411.333455520376
 30
0.0
 40
50.0
  1
764
 50
90.0
100
AcDbText
  0
LINE
  5
A101
330
A79E
100
AcDbEntity
  8
0
100
AcDbLine
 10
700.0
 20
5259.999988439159
 30
0.0
 11
740.0
 21
5270.717956136404
 31
0.0
  0
LINE
  5
A102
330
A79E
100
AcDbEntity
  8
0
100
AcDbLine
 10
700.0
 20
5259.999988439159
 30
0.0
 11
740.0
 21
5249.282020741914
 31
0.0
  0
LINE
  5
A103
330
A79E
100
AcDbEntity
  8
0
100
AcDbLine
 10
740.0
 20
5259.999988439159
 30
0.0
 11
700.0
 21
5259.999988439159
 31
0.0
  0
TEXT
  5
A104
330
A79E
100
AcDbEntity
  8
0
100
AcDbText
 10
1107.5
 20
5284.99998843916
 30
0.0
 40
50.0
  1
940
100
AcDbText
  0
LINE
  5
A105
330
A79E
100
AcDbEntity
  8
0
100
AcDbLine
 10
1640.0
 20
5259.99998843916
 30
0.0
 11
1600.0
 21
5249.282020741915
 31
0.0
  0
LINE
  5
A106
330
A79E
100
AcDbEntity
  8
0
100
AcDbLine
 10
1640.0
 20
5259.99998843916
 30
0.0
 11
1600.0
 21
5270.717956136405
 31
0.0
  0
LINE
  5
A107
330
A79E
100
AcDbEntity
  8
0
100
AcDbLine
 10
1600.0
 20
5259.99998843916
 30
0.0
 11
1640.0
 21
5259.99998843916
 31
0.0
  0
ARC
  5
A108
330
A79E
100
AcDbEntity
  8
0
100
AcDbCircle
 10
499.999934549498
 20
3257.0
 30
0.0
 40
2.5
100
AcDbArc
 50
90.0
 51
270.0
  0
ARC
  5
A109
330
A79E
100
AcDbEntity
  8
0
100
AcDbCircle
 10
499.999934549498
 20
3257.0
 30
0.0
 40
2.5
100
AcDbArc
 50
270.0
 51
90.0
  0
ARC
  5
A10A
330
A79E
100
AcDbEntity
  8
0
100
AcDbCircle
 10
499.999934549498
 20
3227.0
 30
0.0
 40
2.5
100
AcDbArc
 50
270.0
 51
90.0
  0
ARC
  5
A10B
330
A79E
100
AcDbEntity
  8
0
100
AcDbCircle
 10
499.999934549498
 20
3227.0
 30
0.0
 40
2.5
100
AcDbArc
 50
90.0
 51
270.0
  0
ARC
  5
A10C
330
A79E
100
AcDbEntity
  8
0
100
AcDbCircle
 10
499.999934549498
 20
3335.0
 30
0.0
 40
2.5
100
AcDbArc
 50
270.0
 51
90.0
  0
ARC
  5
A10D
330
A79E
100
AcDbEntity
  8
0
100
AcDbCircle
 10
499.999934549498
 20
3335.0
 30
0.0
 40
2.5
100
AcDbArc
 50
90.0
 51
270.0
  0
ARC
  5
A10E
330
A79E
100
AcDbEntity
  8
0
100
AcDbCircle
 10
499.999934549498
 20
3365.0
 30
0.0
 40
2.5
100
AcDbArc
 50
90.0
 51
270.0
  0
ARC
  5
A10F
330
A79E
100
AcDbEntity
  8
0
100
AcDbCircle
 10
499.999934549498
 20
3365.0
 30
0.0
 40
2.5
100
AcDbArc
 50
270.0
 51
90.0
  0
LINE
  5
A869
330
A79E
100
AcDbEntity
  8
0
100
AcDbLine
 10
799.9999208492551
 20
2513.146749371002
 30
0.0
 11
799.9999208492551
 21
2722.155257845712
 31
0.0
  0
LINE
  5
A86A
330
A79E
100
AcDbEntity
  8
0
100
AcDbLine
 10
699.9999208492556
 20
2543.146699833037
 30
0.0
 11
699.9999208492556
 21
2722.155257845712
 31
0.0
  0
LINE
  5
A86B
330
A79E
100
AcDbEntity
  8
0
100
AcDbLine
 10
759.9999208492552
 20
2686.155257845712
 30
0.0
 11
739.999920849256
 21
2686.155257845712
 31
0.0
  0
LINE
  5
A86C
330
A79E
100
AcDbEntity
  8
0
100
AcDbLine
 10
699.9999208492556
 20
2686.155257845712
 30
0.0
 11
559.9999208492555
 21
2686.155257845712
 31
0.0
  0
TEXT
  5
A86F
330
A79E
100
AcDbEntity
  8
0
100
AcDbText
 10
559.4117013764551
 20
2715.325440359422
 30
0.0
 40
50.0
  1
100
100
AcDbText
  0
LINE
  5
A872
330
A79E
100
AcDbEntity
  8
0
  6
ByBlock
100
AcDbLine
 10
739.9999208492556
 20
2675.437290245712
 30
0.0
 11
699.9999208492556
 21
2686.155257845712
 31
0.0
  0
LINE
  5
A873
330
A79E
100
AcDbEntity
  8
0
  6
ByBlock
100
AcDbLine
 10
699.9999208492556
 20
2686.155257845712
 30
0.0
 11
739.9999208492556
 21
2696.873225445714
 31
0.0
  0
LINE
  5
A874
330
A79E
100
AcDbEntity
  8
0
  6
ByBlock
100
AcDbLine
 10
699.9999208492556
 20
2686.155257845712
 30
0.0
 11
739.9999208492556
 21
2686.155257845712
 31
0.0
  0
LINE
  5
A875
330
A79E
100
AcDbEntity
  8
0
  6
ByBlock
100
AcDbLine
 10
759.9999208492552
 20
2696.873225445714
 30
0.0
 11
799.9999208492551
 21
2686.155257845712
 31
0.0
  0
LINE
  5
A876
330
A79E
100
AcDbEntity
  8
0
  6
ByBlock
100
AcDbLine
 10
799.9999208492551
 20
2686.155257845712
 30
0.0
 11
759.9999208492552
 21
2675.437290245712
 31
0.0
  0
LINE
  5
A877
330
A79E
100
AcDbEntity
  8
0
  6
ByBlock
100
AcDbLine
 10
799.9999208492551
 20
2686.155257845712
 30
0.0
 11
759.9999208492552
 21
2686.155257845712
 31
0.0
  0
LINE
  5
A878
330
A79E
100
AcDbEntity
  8
0
100
AcDbLine
 10
1539.999920849255
 20
2513.146749371002
 30
0.0
 11
1539.999920849255
 21
2722.155257845712
 31
0.0
  0
LINE
  5
A879
330
A79E
100
AcDbEntity
  8
0
100
AcDbLine
 10
1639.999920849255
 20
2543.146699833037
 30
0.0
 11
1639.999920849255
 21
2722.155257845712
 31
0.0
  0
LINE
  5
A87A
330
A79E
100
AcDbEntity
  8
0
100
AcDbLine
 10
1579.999920849255
 20
2686.155257845712
 30
0.0
 11
1599.999920849255
 21
2686.155257845712
 31
0.0
  0
LINE
  5
A87B
330
A79E
100
AcDbEntity
  8
0
100
AcDbLine
 10
1639.999920849255
 20
2686.155257845712
 30
0.0
 11
1779.999920849255
 21
2686.155257845712
 31
0.0
  0
TEXT
  5
A87E
330
A79E
100
AcDbEntity
  8
0
100
AcDbText
 10
1683.07186051103
 20
2717.15432509462
 30
0.0
 40
50.0
  1
100
100
AcDbText
  0
LINE
  5
A87F
330
A79E
100
AcDbEntity
  8
0
  6
ByBlock
100
AcDbLine
 10
1579.999920849255
 20
2675.437290245712
 30
0.0
 11
1539.999920849255
 21
2686.155257845712
 31
0.0
  0
LINE
  5
A880
330
A79E
100
AcDbEntity
  8
0
  6
ByBlock
100
AcDbLine
 10
1539.999920849255
 20
2686.155257845712
 30
0.0
 11
1579.999920849255
 21
2696.873225445714
 31
0.0
  0
LINE
  5
A881
330
A79E
100
AcDbEntity
  8
0
  6
ByBlock
100
AcDbLine
 10
1539.999920849255
 20
2686.155257845712
 30
0.0
 11
1579.999920849255
 21
2686.155257845712
 31
0.0
  0
LINE
  5
A882
330
A79E
100
AcDbEntity
  8
0
  6
ByBlock
100
AcDbLine
 10
1599.999920849255
 20
2696.873225445714
 30
0.0
 11
1639.999920849255
 21
2686.155257845712
 31
0.0
  0
LINE
  5
A883
330
A79E
100
AcDbEntity
  8
0
  6
ByBlock
100
AcDbLine
 10
1639.999920849255
 20
2686.155257845712
 30
0.0
 11
1599.999920849255
 21
2675.437290245712
 31
0.0
  0
LINE
  5
A884
330
A79E
100
AcDbEntity
  8
0
  6
ByBlock
100
AcDbLine
 10
1639.999920849255
 20
2686.155257845712
 30
0.0
 11
1599.999920849255
 21
2686.155257845712
 31
0.0
  0
LINE
  5
A885
330
A79E
100
AcDbEntity
  8
0
100
AcDbLine
 10
797.9999208492552
 20
2511.146815315461
 30
0.0
 11
363.979498350882
 21
2511.146815315461
 31
0.0
  0
LINE
  5
A886
330
A79E
100
AcDbEntity
  8
0
100
AcDbLine
 10
697.9999208492556
 20
2541.14682982981
 30
0.0
 11
363.979498350882
 21
2541.14682982981
 31
0.0
  0
LINE
  5
A887
330
A79E
100
AcDbEntity
  8
0
100
AcDbLine
 10
399.979498350882
 20
2471.146815315461
 30
0.0
 11
399.979498350882
 21
2431.146815315461
 31
0.0
  0
LINE
  5
A888
330
A79E
100
AcDbEntity
  8
0
100
AcDbLine
 10
399.979498350882
 20
2581.146829829811
 30
0.0
 11
399.979498350882
 21
2696.14682982981
 31
0.0
  0
LINE
  5
A889
330
A79E
100
AcDbEntity
  8
0
100
AcDbLine
 10
399.979498350882
 20
2511.146815315461
 30
0.0
 11
399.979498350882
 21
2541.14682982981
 31
0.0
  0
TEXT
  5
A88C
330
A79E
100
AcDbEntity
  8
0
100
AcDbText
 10
375.2255414146603
 20
2621.884430045811
 30
0.0
 40
50.0
  1
30
 50
90.0
100
AcDbText
  0
LINE
  5
A88D
330
A79E
100
AcDbEntity
  8
0
  6
ByBlock
100
AcDbLine
 10
410.697465950882
 20
2581.146829829811
 30
0.0
 11
399.979498350882
 21
2541.14682982981
 31
0.0
  0
LINE
  5
A88E
330
A79E
100
AcDbEntity
  8
0
  6
ByBlock
100
AcDbLine
 10
399.979498350882
 20
2541.14682982981
 30
0.0
 11
389.2615307508821
 21
2581.146829829811
 31
0.0
  0
LINE
  5
A88F
330
A79E
100
AcDbEntity
  8
0
  6
ByBlock
100
AcDbLine
 10
399.979498350882
 20
2541.14682982981
 30
0.0
 11
399.979498350882
 21
2581.146829829811
 31
0.0
  0
LINE
  5
A890
330
A79E
100
AcDbEntity
  8
0
  6
ByBlock
100
AcDbLine
 10
389.2615307508821
 20
2471.146815315461
 30
0.0
 11
399.979498350882
 21
2511.146815315461
 31
0.0
  0
LINE
  5
A891
330
A79E
100
AcDbEntity
  8
0
  6
ByBlock
100
AcDbLine
 10
399.979498350882
 20
2511.146815315461
 30
0.0
 11
410.697465950882
 21
2471.146815315461
 31
0.0
  0
LINE
  5
A892
330
A79E
100
AcDbEntity
  8
0
  6
ByBlock
100
AcDbLine
 10
399.979498350882
 20
2511.146815315461
 30
0.0
 11
399.979498350882
 21
2471.146815315461
 31
0.0
  0
LINE
  5
A893
330
A79E
100
AcDbEntity
  8
0
100
AcDbLine
 10
797.9999208492552
 20
1807.14674928178
 30
0.0
 11
363.979498350882
 21
1807.14674928178
 31
0.0
  0
LINE
  5
A894
330
A79E
100
AcDbEntity
  8
0
100
AcDbLine
 10
697.9999208492556
 20
1777.146734767431
 30
0.0
 11
363.979498350882
 21
1777.146734767431
 31
0.0
  0
LINE
  5
A895
330
A79E
100
AcDbEntity
  8
0
100
AcDbLine
 10
399.979498350882
 20
1847.14674928178
 30
0.0
 11
399.979498350882
 21
1887.14674928178
 31
0.0
  0
LINE
  5
A896
330
A79E
100
AcDbEntity
  8
0
100
AcDbLine
 10
399.979498350882
 20
1737.146734767431
 30
0.0
 11
399.979498350882
 21
1622.146734767431
 31
0.0
  0
LINE
  5
A897
330
A79E
100
AcDbEntity
  8
0
100
AcDbLine
 10
399.979498350882
 20
1807.14674928178
 30
0.0
 11
399.979498350882
 21
1777.146734767431
 31
0.0
  0
TEXT
  5
A89A
330
A79E
100
AcDbEntity
  8
0
100
AcDbText
 10
363.1913444796228
 20
1653.275785963526
 30
0.0
 40
50.0
  1
30
 50
90.0
100
AcDbText
  0
LINE
  5
A89B
330
A79E
100
AcDbEntity
  8
0
  6
ByBlock
100
AcDbLine
 10
410.697465950882
 20
1847.14674928178
 30
0.0
 11
399.979498350882
 21
1807.14674928178
 31
0.0
  0
LINE
  5
A89C
330
A79E
100
AcDbEntity
  8
0
  6
ByBlock
100
AcDbLine
 10
399.979498350882
 20
1807.14674928178
 30
0.0
 11
389.2615307508821
 21
1847.14674928178
 31
0.0
  0
LINE
  5
A89D
330
A79E
100
AcDbEntity
  8
0
  6
ByBlock
100
AcDbLine
 10
399.979498350882
 20
1807.14674928178
 30
0.0
 11
399.979498350882
 21
1847.14674928178
 31
0.0
  0
LINE
  5
A89E
330
A79E
100
AcDbEntity
  8
0
  6
ByBlock
100
AcDbLine
 10
389.2615307508821
 20
1737.146734767431
 30
0.0
 11
399.979498350882
 21
1777.146734767431
 31
0.0
  0
LINE
  5
A89F
330
A79E
100
AcDbEntity
  8
0
  6
ByBlock
100
AcDbLine
 10
399.979498350882
 20
1777.146734767431
 30
0.0
 11
410.697465950882
 21
1737.146734767431
 31
0.0
  0
LINE
  5
A8A0
330
A79E
100
AcDbEntity
  8
0
  6
ByBlock
100
AcDbLine
 10
399.979498350882
 20
1777.146734767431
 30
0.0
 11
399.979498350882
 21
1737.146734767431
 31
0.0
  0
TEXT
  5
A93E
330
A79E
100
AcDbEntity
  8
0
100
AcDbText
 10
587.1976394839475
 20
3066.573934222355
 30
0.0
 40
45.0
  1
※搭載機器や施工状況等によって、据え付け高さは若干変更になる可能性があります。
100
AcDbText
  0
ENDSEC
  0
SECTION
  2
OBJECTS
  0
DICTIONARY
  5
A73B
330
0
100
AcDbDictionary
281
     1
  3
ACAD_CIP_PREVIOUS_PRODUCT_INFO
350
A7F7
  3
ACAD_COLOR
350
A791
  3
ACAD_DETAILVIEWSTYLE
350
A798
  3
ACAD_FIELDLIST
350
A840
  3
ACAD_GROUP
350
A73C
  3
ACAD_LAYOUT
350
A790
  3
ACAD_MATERIAL
350
A73F
  3
ACAD_MLEADERSTYLE
350
A794
  3
ACAD_MLINESTYLE
350
A78D
  3
ACAD_PLOTSETTINGS
350
A78F
  3
ACAD_PLOTSTYLENAME
350
A73D
  3
ACAD_SCALELIST
350
A771
  3
ACAD_SECTIONVIEWSTYLE
350
A796
  3
ACAD_TABLESTYLE
350
A792
  3
ACAD_VISUALSTYLE
350
A758
  3
ACDB_RECOMPOSE_DATA
350
AA91
  3
AcDbVariableDictionary
350
A8B4
  3
AcmDictionary
350
A81D
  3
AMG
350
A7F8
  3
AMGSNAPSETTINGS
350
A862
  0
DICTIONARY
  5
A8A4
330
A731
100
AcDbDictionary
280
     1
281
     1
  3
ACAD_LAYERSTATES
360
A8A5
  0
DICTIONARY
  5
A852
330
A783
100
AcDbDictionary
280
     1
281
     1
  3
ADSK_XREC_LAYER_RECONCILED
360
A853
  0
DICTIONARY
  5
A854
330
A7B6
100
AcDbDictionary
280
     1
281
     1
  3
ADSK_XREC_LAYER_RECONCILED
360
A855
  0
DICTIONARY
  5
A856
330
A7B7
100
AcDbDictionary
280
     1
281
     1
  3
ADSK_XREC_LAYER_RECONCILED
360
A857
  0
DICTIONARY
  5
A870
330
A79E
100
AcDbDictionary
280
     1
281
     1
  3
ACAD_SORTENTS
360
A871
  0
XRECORD
  5
A7F7
102
{ACAD_REACTORS
330
A73B
102
}
330
A73B
100
AcDbXrecord
280
     1
300
AMECH_PP
300
2021
300
87400AMECH_PP_2021_0F
  0
DICTIONARY
  5
A791
102
{ACAD_REACTORS
330
A73B
102
}
330
A73B
100
AcDbDictionary
281
     1
  0
DICTIONARY
  5
A798
102
{ACAD_REACTORS
330
A73B
102
}
330
A73B
100
AcDbDictionary
281
     1
  3
Imperial24
350
A799
  3
Metric50
350
A934
  0
FIELDLIST
  5
A840
102
{ACAD_REACTORS
330
A73B
102
}
330
A73B
100
AcDbIdSet
 90
        8
330
AA7B
330
AA7C
330
AA7D
330
AA7E
330
AA82
330
AA83
330
AA84
330
AA85
100
AcDbFieldList
  0
DICTIONARY
  5
A73C
102
{ACAD_REACTORS
330
A73B
102
}
330
A73B
100
AcDbDictionary
281
     1
  0
DICTIONARY
  5
A790
102
{ACAD_REACTORS
330
A73B
102
}
330
A73B
100
AcDbDictionary
281
     1
  3
Model
350
A7A1
  3
レイアウト1
350
A79D
  0
DICTIONARY
  5
A73F
102
{ACAD_REACTORS
330
A73B
102
}
330
A73B
100
AcDbDictionary
281
     1
  3
ByBlock
350
A748
  3
ByLayer
350
A740
  3
Global
350
A750
  0
DICTIONARY
  5
A794
102
{ACAD_REACTORS
330
A73B
102
}
330
A73B
100
AcDbDictionary
281
     1
  3
Standard
350
A795
  0
DICTIONARY
  5
A78D
102
{ACAD_REACTORS
330
A73B
102
}
330
A73B
100
AcDbDictionary
281
     1
  3
Standard
350
A78E
  0
DICTIONARY
  5
A78F
102
{ACAD_REACTORS
330
A73B
102
}
330
A73B
100
AcDbDictionary
281
     1
  0
ACDBDICTIONARYWDFLT
  5
A73D
102
{ACAD_REACTORS
330
A73B
102
}
330
A73B
100
AcDbDictionary
281
     1
  3
Normal
350
A73E
100
AcDbDictionaryWithDefault
340
A73E
  0
DICTIONARY
  5
A771
102
{ACAD_REACTORS
330
A73B
102
}
330
A73B
100
AcDbDictionary
281
     1
  3
A0
350
A772
  3
A1
350
A773
  3
A2
350
A774
  3
A3
350
A775
  3
A4
350
A776
  3
A5
350
A777
  3
A6
350
A778
  3
A7
350
A779
  3
A8
350
A77A
  3
A9
350
A77B
  3
B0
350
A77C
  3
B1
350
A77D
  3
B2
350
A77E
  3
B3
350
A77F
  3
B4
350
A780
  3
B5
350
A781
  3
B6
350
A782
  0
DICTIONARY
  5
A796
102
{ACAD_REACTORS
330
A73B
102
}
330
A73B
100
AcDbDictionary
281
     1
  3
Imperial24
350
A797
  3
Metric50
350
A933
  0
DICTIONARY
  5
A792
102
{ACAD_REACTORS
330
A73B
102
}
330
A73B
100
AcDbDictionary
281
     1
  3
Standard
350
A793
  0
DICTIONARY
  5
A758
102
{ACAD_REACTORS
330
A73B
102
}
330
A73B
100
AcDbDictionary
281
     1
  3
2dWireframe
350
A75E
  3
Basic
350
A75D
  3
Brighten
350
A764
  3
ColorChange
350
A768
  3
Conceptual
350
A761
  3
Dim
350
A763
  3
EdgeColorOff
350
A770
  3
Facepattern
350
A767
  3
Flat
350
A759
  3
FlatWithEdges
350
A75A
  3
Gouraud
350
A75B
  3
GouraudWithEdges
350
A75C
  3
Hidden
350
A760
  3
JitterOff
350
A76E
  3
Linepattern
350
A766
  3
OverhangOff
350
A76F
  3
Realistic
350
A762
  3
Shaded
350
A76D
  3
Shaded with edges
350
A76C
  3
Shades of Gray
350
A769
  3
Sketchy
350
A76A
  3
Thicken
350
A765
  3
Wireframe
350
A75F
  3
X-Ray
350
A76B
  0
XRECORD
  5
AA91
102
{ACAD_REACTORS
330
A73B
102
}
330
A73B
100
AcDbXrecord
280
     1
 90
        1
330
A793
  0
DICTIONARY
  5
A8B4
102
{ACAD_REACTORS
330
A73B
102
}
330
A73B
100
AcDbDictionary
281
     1
  3
CANNOSCALE
350
A8BA
  3
CMLEADERSTYLE
350
A8B6
  3
CTABLESTYLE
350
A8B5
  3
CVIEWDETAILSTYLE
350
A8B7
  3
CVIEWSECTIONSTYLE
350
A8B8
  3
LAYEREVAL
350
A8BC
  3
LAYERNOTIFY
350
A8BD
  3
LIGHTINGUNITS
350
A8BB
  3
LOFTANG1
350
AA8D
  3
LOFTANG2
350
AA8E
  3
MSLTSCALE
350
A8B9
  3
XCLIPFRAME
350
AA8F
  0
DICTIONARY
  5
A81D
102
{ACAD_REACTORS
330
A73B
102
}
330
A73B
100
AcDbDictionary
281
     1
  3
AcmStdDictionary
350
A824
  0
DICTIONARY
  5
A7F8
102
{ACAD_REACTORS
330
A73B
102
}
330
A73B
100
AcDbDictionary
281
     1
  0
DICTIONARY
  5
A862
102
{ACAD_REACTORS
330
A73B
102
}
330
A73B
100
AcDbDictionary
281
     1
  0
DICTIONARY
  5
A8A5
102
{ACAD_REACTORS
330
A8A4
102
}
330
A8A4
100
AcDbDictionary
281
     1
  0
XRECORD
  5
A853
102
{ACAD_REACTORS
330
A852
102
}
330
A852
100
AcDbXrecord
280
     1
290
     1
  0
XRECORD
  5
A855
102
{ACAD_REACTORS
330
A854
102
}
330
A854
100
AcDbXrecord
280
     1
290
     1
  0
XRECORD
  5
A857
102
{ACAD_REACTORS
330
A856
102
}
330
A856
100
AcDbXrecord
280
     1
290
     1
  0
SORTENTSTABLE
  5
A871
102
{ACAD_REACTORS
330
A870
102
}
330
A870
100
AcDbSortentsTable
330
A79E
331
91
  5
C3
331
99
  5
D2
331
C3
  5
180
331
D2
  5
1C8
331
180
  5
531
331
1C8
  5
533
331
531
  5
A86
331
533
  5
1131
331
A86
  5
271D
331
1131
  5
271E
331
271D
  5
29AD
331
271E
  5
29AE
331
29AD
  5
3B8C
331
29AE
  5
3BE0
331
3B8C
  5
3D64
331
3BE0
  5
3F38
331
3D64
  5
3F39
331
3F38
  5
3F3A
331
3F39
  5
3F3B
331
3F3A
  5
40CA
331
3F3B
  5
40CB
331
40CA
  5
40CC
331
40CB
  5
40CD
331
40CC
  5
40CE
331
40CD
  5
40CF
331
40CE
  5
40D0
331
40CF
  5
40D1
331
40D0
  5
40D2
331
40D1
  5
4157
331
40D2
  5
4158
331
4157
  5
4159
331
4158
  5
415A
331
4159
  5
415B
331
415A
  5
415C
331
415B
  5
415D
331
415C
  5
415E
331
415D
  5
415F
331
415E
  5
4160
331
415F
  5
4161
331
4160
  5
4162
331
4161
  5
4163
331
4162
  5
5941
331
4163
  5
5947
331
5941
  5
5B67
331
5947
  5
5B68
331
5B67
  5
5B69
331
5B68
  5
5B6A
331
5B69
  5
6A9F
331
5B6A
  5
6CDC
331
6A9F
  5
6CDD
331
6CDC
  5
6CE2
331
6CDD
  5
6CE3
331
6CE2
  5
6CED
331
6CE3
  5
6CEE
331
6CED
  5
6CF0
331
6CEE
  5
6CF4
331
6CF0
  5
6CF5
331
6CF4
  5
6CFB
331
6CF5
  5
6CFC
331
6CFB
  5
6D00
331
6CFC
  5
6D02
331
6D00
  5
6D03
331
6D02
  5
6D04
331
6D03
  5
6D05
331
6D04
  5
6D06
331
6D05
  5
6D07
331
6D06
  5
6D0F
331
6D07
  5
6D10
331
6D0F
  5
6D11
331
6D10
  5
6D14
331
6D11
  5
6D15
331
6D14
  5
6D17
331
6D15
  5
6E92
331
6D17
  5
764B
331
6E92
  5
7C85
331
764B
  5
7C86
331
7C85
  5
7C87
331
7C86
  5
7C88
331
7C87
  5
7C95
331
7C88
  5
7D8E
331
7C95
  5
7D8F
331
7D8E
  5
7D90
331
7D8F
  5
7D91
331
7D90
  5
7D93
331
7D91
  5
7D94
331
7D93
  5
7DC6
331
7D94
  5
7DC7
331
7DC6
  5
7DC8
331
7DC7
  5
7DC9
331
7DC8
  5
7DCA
331
7DC9
  5
7DCB
331
7DCA
  5
7DCC
331
7DCB
  5
7DCD
331
7DCC
  5
7DCE
331
7DCD
  5
7DD2
331
7DCE
  5
7DD4
331
7DD2
  5
7DD5
331
7DD4
  5
7DD6
331
7DD5
  5
7DD7
331
7DD6
  5
7DD8
331
7DD7
  5
7DD9
331
7DD8
  5
7DDA
331
7DD9
  5
7DE1
331
7DDA
  5
7DE2
331
7DE1
  5
7DE3
331
7DE2
  5
7DE4
331
7DE3
  5
7DE5
331
7DE4
  5
7DE6
331
7DE5
  5
7DE7
331
7DE6
  5
7DEA
331
7DE7
  5
7DEB
331
7DEA
  5
7DEC
331
7DEB
  5
7DED
331
7DEC
  5
7DEF
331
7DED
  5
7DF0
331
7DEF
  5
7DF1
331
7DF0
  5
7E00
331
7DF1
  5
7E01
331
7E00
  5
7E02
331
7E01
  5
7E03
331
7E02
  5
7E1E
331
7E03
  5
7E1F
331
7E1E
  5
7E20
331
7E1F
  5
7E32
331
7E20
  5
7E33
331
7E32
  5
7E34
331
7E33
  5
7E35
331
7E34
  5
7E36
331
7E35
  5
7E37
331
7E36
  5
7E38
331
7E37
  5
7E39
331
7E38
  5
7E3A
331
7E39
  5
7E3B
331
7E3A
  5
7E6E
331
7E3B
  5
7E6F
331
7E6E
  5
7E70
331
7E6F
  5
7E71
331
7E70
  5
7E72
331
7E71
  5
7E73
331
7E72
  5
7E74
331
7E73
  5
7E75
331
7E74
  5
7E76
331
7E75
  5
7E77
331
7E76
  5
7E78
331
7E77
  5
7E7A
331
7E78
  5
7E7B
331
7E7A
  5
7E7C
331
7E7B
  5
7E7D
331
7E7C
  5
7E7E
331
7E7D
  5
7E7F
331
7E7E
  5
7E80
331
7E7F
  5
7E81
331
7E80
  5
7E82
331
7E81
  5
7E83
331
7E82
  5
7E84
331
7E83
  5
7E85
331
7E84
  5
7E86
331
7E85
  5
7E87
331
7E86
  5
7E88
331
7E87
  5
7E89
331
7E88
  5
7E8A
331
7E89
  5
7E8B
331
7E8A
  5
7E8C
331
7E8B
  5
7E8D
331
7E8C
  5
7E8E
331
7E8D
  5
7E8F
331
7E8E
  5
7E90
331
7E8F
  5
7E91
331
7E90
  5
7E9A
331
7E91
  5
7E9B
331
7E9A
  5
7E9C
331
7E9B
  5
7E9D
331
7E9C
  5
7ECA
331
7E9D
  5
7ED6
331
7ECA
  5
7ED7
331
7ED6
  5
7ED8
331
7ED7
  5
7ED9
331
7ED8
  5
7EDA
331
7ED9
  5
7EDB
331
7EDA
  5
7EDC
331
7EDB
  5
7EDD
331
7EDC
  5
7EE8
331
7EDD
  5
7EE9
331
7EE8
  5
7EEA
331
7EE9
  5
7EEB
331
7EEA
  5
7F3D
331
7EEB
  5
8081
331
7F3D
  5
8082
331
8081
  5
8083
331
8082
  5
8088
331
8083
  5
8089
331
8088
  5
808E
331
8089
  5
808F
331
808E
  5
8091
331
808F
  5
8092
331
8091
  5
8093
331
8092
  5
8098
331
8093
  5
8099
331
8098
  5
809A
331
8099
  5
809B
331
809A
  5
809C
331
809B
  5
809D
331
809C
  5
80A0
331
809D
  5
80A2
331
80A0
  5
80B1
331
80A2
  5
80B2
331
80B1
  5
80B6
331
80B2
  5
80B9
331
80B6
  5
80BD
331
80B9
  5
80BE
331
80BD
  5
80BF
331
80BE
  5
80C2
331
80BF
  5
80C3
331
80C2
  5
80C4
331
80C3
  5
80C5
331
80C4
  5
80C6
331
80C5
  5
80C7
331
80C6
  5
80C8
331
80C7
  5
80C9
331
80C8
  5
80DB
331
80C9
  5
80DC
331
80DB
  5
80DD
331
80DC
  5
80EE
331
80DD
  5
80EF
331
80EE
  5
80F0
331
80EF
  5
80F1
331
80F0
  5
80F2
331
80F1
  5
80F3
331
80F2
  5
80F4
331
80F3
  5
80F5
331
80F4
  5
80F6
331
80F5
  5
80F7
331
80F6
  5
80F8
331
80F7
  5
80F9
331
80F8
  5
80FA
331
80F9
  5
80FB
331
80FA
  5
80FC
331
80FB
  5
8618
331
80FC
  5
861E
331
8618
  5
8903
331
861E
  5
8904
331
8903
  5
8905
331
8904
  5
8906
331
8905
  5
8907
331
8906
  5
8908
331
8907
  5
890A
331
8908
  5
890B
331
890A
  5
890C
331
890B
  5
8910
331
890C
  5
8911
331
8910
  5
8912
331
8911
  5
8913
331
8912
  5
8914
331
8913
  5
8915
331
8914
  5
891C
331
8915
  5
891D
331
891C
  5
891E
331
891D
  5
8924
331
891E
  5
8926
331
8924
  5
8928
331
8926
  5
8929
331
8928
  5
892A
331
8929
  5
892D
331
892A
  5
892E
331
892D
  5
892F
331
892E
  5
8932
331
892F
  5
8933
331
8932
  5
8934
331
8933
  5
8938
331
8934
  5
893C
331
8938
  5
893D
331
893C
  5
893E
331
893D
  5
893F
331
893E
  5
8940
331
893F
  5
8941
331
8940
  5
8942
331
8941
  5
8943
331
8942
  5
8944
331
8943
  5
8945
331
8944
  5
8946
331
8945
  5
894A
331
8946
  5
894B
331
894A
  5
8952
331
894B
  5
8953
331
8952
  5
8954
331
8953
  5
8955
331
8954
  5
8957
331
8955
  5
8958
331
8957
  5
8959
331
8958
  5
895A
331
8959
  5
895E
331
895A
  5
895F
331
895E
  5
8960
331
895F
  5
8961
331
8960
  5
8962
331
8961
  5
8963
331
8962
  5
8964
331
8963
  5
8965
331
8964
  5
8967
331
8965
  5
8968
331
8967
  5
8969
331
8968
  5
896D
331
8969
  5
896E
331
896D
  5
896F
331
896E
  5
8970
331
896F
  5
8971
331
8970
  5
8972
331
8971
  5
8979
331
8972
  5
897A
331
8979
  5
897B
331
897A
  5
8981
331
897B
  5
8983
331
8981
  5
8985
331
8983
  5
8986
331
8985
  5
8987
331
8986
  5
898A
331
8987
  5
898B
331
898A
  5
898C
331
898B
  5
898F
331
898C
  5
8990
331
898F
  5
8991
331
8990
  5
8995
331
8991
  5
8999
331
8995
  5
899A
331
8999
  5
899B
331
899A
  5
899C
331
899B
  5
899D
331
899C
  5
899E
331
899D
  5
899F
331
899E
  5
89A0
331
899F
  5
89A1
331
89A0
  5
89A2
331
89A1
  5
89A3
331
89A2
  5
89A7
331
89A3
  5
89A8
331
89A7
  5
89AF
331
89A8
  5
89B0
331
89AF
  5
89B1
331
89B0
  5
89B2
331
89B1
  5
89B4
331
89B2
  5
89B5
331
89B4
  5
89B6
331
89B5
  5
89B7
331
89B6
  5
89BB
331
89B7
  5
89BC
331
89BB
  5
89BD
331
89BC
  5
89BE
331
89BD
  5
89BF
331
89BE
  5
89C0
331
89BF
  5
89C1
331
89C0
  5
89C2
331
89C1
  5
89C4
331
89C2
  5
89C5
331
89C4
  5
89C6
331
89C5
  5
89CA
331
89C6
  5
89CB
331
89CA
  5
89CC
331
89CB
  5
89CD
331
89CC
  5
89CE
331
89CD
  5
89CF
331
89CE
  5
89D6
331
89CF
  5
89D7
331
89D6
  5
89D8
331
89D7
  5
89DE
331
89D8
  5
89E0
331
89DE
  5
89E2
331
89E0
  5
89E3
331
89E2
  5
89E4
331
89E3
  5
89E7
331
89E4
  5
89E8
331
89E7
  5
89E9
331
89E8
  5
89EC
331
89E9
  5
89ED
331
89EC
  5
89EE
331
89ED
  5
89F2
331
89EE
  5
89F6
331
89F2
  5
89F7
331
89F6
  5
89F8
331
89F7
  5
89F9
331
89F8
  5
89FA
331
89F9
  5
89FB
331
89FA
  5
89FC
331
89FB
  5
89FD
331
89FC
  5
89FE
331
89FD
  5
89FF
331
89FE
  5
8A00
331
89FF
  5
8A04
331
8A00
  5
8A05
331
8A04
  5
8A0C
331
8A05
  5
8A0D
331
8A0C
  5
8A0E
331
8A0D
  5
8A0F
331
8A0E
  5
8A11
331
8A0F
  5
8A12
331
8A11
  5
8A13
331
8A12
  5
8A14
331
8A13
  5
8A18
331
8A14
  5
8A19
331
8A18
  5
8C60
331
8A19
  5
8C61
331
8C60
  5
8C62
331
8C61
  5
8C63
331
8C62
  5
8C64
331
8C63
  5
8C65
331
8C64
  5
8C66
331
8C65
  5
8C67
331
8C66
  5
8C68
331
8C67
  5
8C69
331
8C68
  5
8C6A
331
8C69
  5
8C6B
331
8C6A
  5
8C6C
331
8C6B
  5
8C6D
331
8C6C
  5
8C6E
331
8C6D
  5
8C6F
331
8C6E
  5
8C70
331
8C6F
  5
8C71
331
8C70
  5
8C72
331
8C71
  5
8C73
331
8C72
  5
8C74
331
8C73
  5
8C75
331
8C74
  5
8C76
331
8C75
  5
8C77
331
8C76
  5
8C78
331
8C77
  5
8C79
331
8C78
  5
8C7A
331
8C79
  5
8C7B
331
8C7A
  5
8C7C
331
8C7B
  5
8C7D
331
8C7C
  5
8C7E
331
8C7D
  5
8C7F
331
8C7E
  5
8C80
331
8C7F
  5
8C81
331
8C80
  5
8C82
331
8C81
  5
8C83
331
8C82
  5
8C84
331
8C83
  5
8C85
331
8C84
  5
8C86
331
8C85
  5
8C87
331
8C86
  5
8C88
331
8C87
  5
8C89
331
8C88
  5
8C8A
331
8C89
  5
8C8B
331
8C8A
  5
8C8C
331
8C8B
  5
8C8D
331
8C8C
  5
8C8E
331
8C8D
  5
8C8F
331
8C8E
  5
8C90
331
8C8F
  5
8C91
331
8C90
  5
8C92
331
8C91
  5
8C93
331
8C92
  5
8C94
331
8C93
  5
8C95
331
8C94
  5
8C96
331
8C95
  5
8C97
331
8C96
  5
8C98
331
8C97
  5
8C99
331
8C98
  5
8C9A
331
8C99
  5
8C9B
331
8C9A
  5
8C9C
331
8C9B
  5
8C9D
331
8C9C
  5
8C9E
331
8C9D
  5
8C9F
331
8C9E
  5
8CA0
331
8C9F
  5
8CA1
331
8CA0
  5
8CA2
331
8CA1
  5
8CA3
331
8CA2
  5
8CA4
331
8CA3
  5
8CA5
331
8CA4
  5
8CA6
331
8CA5
  5
8CA7
331
8CA6
  5
8CA8
331
8CA7
  5
8CA9
331
8CA8
  5
8CAA
331
8CA9
  5
8CAB
331
8CAA
  5
8CAC
331
8CAB
  5
8CAD
331
8CAC
  5
8CAE
331
8CAD
  5
8CAF
331
8CAE
  5
8CB0
331
8CAF
  5
8CB1
331
8CB0
  5
8CB2
331
8CB1
  5
8CB3
331
8CB2
  5
8CB4
331
8CB3
  5
8CB5
331
8CB4
  5
8CB6
331
8CB5
  5
8CB7
331
8CB6
  5
8CB8
331
8CB7
  5
8CB9
331
8CB8
  5
8CBA
331
8CB9
  5
8CBB
331
8CBA
  5
8CBC
331
8CBB
  5
8CBD
331
8CBC
  5
8CBE
331
8CBD
  5
8CBF
331
8CBE
  5
8CC0
331
8CBF
  5
8CC1
331
8CC0
  5
8CC2
331
8CC1
  5
8CC3
331
8CC2
  5
8CC4
331
8CC3
  5
8CC5
331
8CC4
  5
8CC6
331
8CC5
  5
8CC7
331
8CC6
  5
8CD4
331
8CC7
  5
8CDB
331
8CD4
  5
8CDC
331
8CDB
  5
8CDD
331
8CDC
  5
8CDE
331
8CDD
  5
8CDF
331
8CDE
  5
8CE0
331
8CDF
  5
8CE1
331
8CE0
  5
8CE2
331
8CE1
  5
8CE3
331
8CE2
  5
8CE4
331
8CE3
  5
8CE5
331
8CE4
  5
8CFA
331
8CE5
  5
8E1C
331
8CFA
  5
8E1D
331
8E1C
  5
8E92
331
8E1D
  5
8E95
331
8E92
  5
9303
331
8E95
  5
9334
331
9303
  5
9335
331
9334
  5
9336
331
9335
  5
9337
331
9336
  5
9338
331
9337
  5
9339
331
9338
  5
933A
331
9339
  5
933B
331
933A
  5
933C
331
933B
  5
933D
331
933C
  5
933E
331
933D
  5
933F
331
933E
  5
9340
331
933F
  5
9341
331
9340
  5
9342
331
9341
  5
9343
331
9342
  5
9344
331
9343
  5
9345
331
9344
  5
9346
331
9345
  5
9347
331
9346
  5
9348
331
9347
  5
9349
331
9348
  5
934A
331
9349
  5
934B
331
934A
  5
934C
331
934B
  5
934D
331
934C
  5
934E
331
934D
  5
9350
331
934E
  5
9351
331
9350
  5
9352
331
9351
  5
9353
331
9352
  5
9354
331
9353
  5
9355
331
9354
  5
9356
331
9355
  5
9357
331
9356
  5
9358
331
9357
  5
9359
331
9358
  5
935A
331
9359
  5
935B
331
935A
  5
935C
331
935B
  5
935D
331
935C
  5
935E
331
935D
  5
935F
331
935E
  5
9360
331
935F
  5
9361
331
9360
  5
9362
331
9361
  5
9363
331
9362
  5
9364
331
9363
  5
9365
331
9364
  5
9366
331
9365
  5
9367
331
9366
  5
9368
331
9367
  5
9369
331
9368
  5
936A
331
9369
  5
936B
331
936A
  5
936C
331
936B
  5
936D
331
936C
  5
936E
331
936D
  5
936F
331
936E
  5
9370
331
936F
  5
9371
331
9370
  5
9372
331
9371
  5
9374
331
9372
  5
9375
331
9374
  5
9376
331
9375
  5
9377
331
9376
  5
9378
331
9377
  5
9379
331
9378
  5
937A
331
9379
  5
937B
331
937A
  5
937C
331
937B
  5
937D
331
937C
  5
937E
331
937D
  5
937F
331
937E
  5
9380
331
937F
  5
9381
331
9380
  5
9382
331
9381
  5
9383
331
9382
  5
9384
331
9383
  5
9385
331
9384
  5
9386
331
9385
  5
9388
331
9386
  5
9389
331
9388
  5
938A
331
9389
  5
938B
331
938A
  5
938C
331
938B
  5
938D
331
938C
  5
938E
331
938D
  5
938F
331
938E
  5
9390
331
938F
  5
9391
331
9390
  5
9392
331
9391
  5
9393
331
9392
  5
9394
331
9393
  5
9395
331
9394
  5
9396
331
9395
  5
9397
331
9396
  5
9398
331
9397
  5
9399
331
9398
  5
939A
331
9399
  5
939B
331
939A
  5
939C
331
939B
  5
939D
331
939C
  5
939E
331
939D
  5
939F
331
939E
  5
93A0
331
939F
  5
93A1
331
93A0
  5
93A2
331
93A1
  5
9BC7
331
93A2
  5
9BC8
331
9BC7
  5
9BC9
331
9BC8
  5
9BCA
331
9BC9
  5
9BCB
331
9BCA
  5
9BCC
331
9BCB
  5
9BCD
331
9BCC
  5
9BCE
331
9BCD
  5
9BCF
331
9BCE
  5
9BD0
331
9BCF
  5
9BD1
331
9BD0
  5
9BD2
331
9BD1
  5
9BD3
331
9BD2
  5
9BD4
331
9BD3
  5
9BD5
331
9BD4
  5
9BD6
331
9BD5
  5
9BD7
331
9BD6
  5
9BD8
331
9BD7
  5
9BD9
331
9BD8
  5
9BDA
331
9BD9
  5
9BDB
331
9BDA
  5
9BDC
331
9BDB
  5
9BDD
331
9BDC
  5
9BDE
331
9BDD
  5
9BDF
331
9BDE
  5
9BE0
331
9BDF
  5
9BE1
331
9BE0
  5
9BE2
331
9BE1
  5
9BE3
331
9BE2
  5
9BE4
331
9BE3
  5
9BE5
331
9BE4
  5
9BE6
331
9BE5
  5
9BE7
331
9BE6
  5
9BE8
331
9BE7
  5
9BE9
331
9BE8
  5
9BEA
331
9BE9
  5
9BEB
331
9BEA
  5
9BEC
331
9BEB
  5
9BED
331
9BEC
  5
9BEE
331
9BED
  5
9BEF
331
9BEE
  5
9BF0
331
9BEF
  5
9BF1
331
9BF0
  5
9BF2
331
9BF1
  5
9BF3
331
9BF2
  5
9BF4
331
9BF3
  5
9BF5
331
9BF4
  5
9BF6
331
9BF5
  5
9BF7
331
9BF6
  5
9BF8
331
9BF7
  5
9BF9
331
9BF8
  5
9BFA
331
9BF9
  5
9BFB
331
9BFA
  5
9BFC
331
9BFB
  5
9BFD
331
9BFC
  5
9BFE
331
9BFD
  5
9BFF
331
9BFE
  5
9C00
331
9BFF
  5
9C01
331
9C00
  5
9C02
331
9C01
  5
9C03
331
9C02
  5
9C04
331
9C03
  5
9C05
331
9C04
  5
9C06
331
9C05
  5
9C07
331
9C06
  5
9C08
331
9C07
  5
9C09
331
9C08
  5
9C0A
331
9C09
  5
9C0B
331
9C0A
  5
9C0C
331
9C0B
  5
9C0D
331
9C0C
  5
9C0E
331
9C0D
  5
9C0F
331
9C0E
  5
9C10
331
9C0F
  5
9C11
331
9C10
  5
9C12
331
9C11
  5
9C13
331
9C12
  5
9C14
331
9C13
  5
9C15
331
9C14
  5
9C16
331
9C15
  5
9C17
331
9C16
  5
9C1A
331
9C17
  5
9DFC
331
9C1A
  5
9DFD
331
9DFC
  5
9DFE
331
9DFD
  5
9DFF
331
9DFE
  5
9F19
331
9DFF
  5
9F1B
331
9F19
  5
9FEA
331
9F1B
  5
9FF6
331
9FEA
  5
9FF7
331
9FF6
  5
A06E
331
9FF7
  5
A06F
331
A06E
  5
A070
331
A06F
  5
A074
331
A070
  5
A075
331
A074
  5
A076
331
A075
  5
A07A
331
A076
  5
A07B
331
A07A
  5
A07C
331
A07B
  5
A07D
331
A07C
  5
A07E
331
A07D
  5
A07F
331
A07E
  5
A080
331
A07F
  5
A084
331
A080
  5
A085
331
A084
  5
A086
331
A085
  5
A087
331
A086
  5
A088
331
A087
  5
A089
331
A088
  5
A08A
331
A089
  5
A08B
331
A08A
  5
A08C
331
A08B
  5
A08D
331
A08C
  5
A08E
331
A08D
  5
A08F
331
A08E
  5
A093
331
A08F
  5
A094
331
A093
  5
A095
331
A094
  5
A099
331
A095
  5
A09A
331
A099
  5
A09B
331
A09A
  5
A09C
331
A09B
  5
A09D
331
A09C
  5
A0A1
331
A09D
  5
A0A2
331
A0A1
  5
A0A3
331
A0A2
  5
A0A4
331
A0A3
  5
A0A5
331
A0A4
  5
A0A9
331
A0A5
  5
A0AA
331
A0AF
  5
A0B1
331
A0B0
  5
A0B2
331
A0B1
  5
A0B3
331
A0B2
  5
A0B4
331
A0B3
  5
A0B5
331
A0B4
  5
A0B6
331
A0B5
  5
A0B7
331
A0B6
  5
A0B8
331
A0B7
  5
A0B9
331
A0B8
  5
A0BA
331
A0B9
  5
A0BB
331
A0BA
  5
A0BC
331
A0BB
  5
A0BD
331
A0BC
  5
A0BE
331
A0BD
  5
A0BF
331
A0BE
  5
A0C0
331
A0BF
  5
A0C1
331
A0C0
  5
A0C2
331
A0C1
  5
A0C3
331
A0C2
  5
A0C4
331
A0C3
  5
A0C5
331
A0C4
  5
A0C6
331
A0C5
  5
A0C8
331
A0C6
  5
A0C9
331
A164
  5
A55C
331
A0C8
  5
A0CA
331
A0C9
  5
A0CB
331
A0CA
  5
A0CC
331
A0CB
  5
A0CD
331
A0CC
  5
A0CE
331
A0CD
  5
A0CF
331
A0CE
  5
A0D0
331
A0CF
  5
A0D1
331
A0D0
  5
A0D2
331
A0D1
  5
A0D3
331
A0D2
  5
A0D4
331
A0D3
  5
A0D5
331
A0D4
  5
A0D6
331
A0D5
  5
A0D7
331
A0D6
  5
A0D8
331
A0D7
  5
A0D9
331
A0D8
  5
A0DA
331
A0D9
  5
A0DB
331
A0DA
  5
A0DC
331
A0DB
  5
A0DD
331
A0DC
  5
A0DE
331
A0DD
  5
A0DF
331
A0DE
  5
A0E0
331
A0DF
  5
A0E1
331
A0E0
  5
A0E2
331
A0E1
  5
A0E3
331
A0E2
  5
A0E4
331
A0E3
  5
A0E5
331
A0E4
  5
A0E6
331
A0E5
  5
A0E7
331
A0E6
  5
A0E8
331
A0E7
  5
A0E9
331
A0EF
  5
A0F1
331
A0F0
  5
A0F2
331
A0F1
  5
A0F3
331
A0F2
  5
A0F4
331
A0F3
  5
A0F5
331
A0F4
  5
A0F7
331
A0F5
  5
A0F9
331
A0F7
  5
A0FB
331
A0F9
  5
A0FD
331
A0FB
  5
A0FE
331
A0FD
  5
A0FF
331
A0FE
  5
A100
331
A0FF
  5
A101
331
A100
  5
A102
331
A101
  5
A103
331
A102
  5
A104
331
A103
  5
A105
331
A104
  5
A106
331
A105
  5
A107
331
A106
  5
A108
331
A107
  5
A109
331
A108
  5
A10A
331
A109
  5
A10B
331
A10A
  5
A10C
331
A10B
  5
A10D
331
A10C
  5
A10E
331
A10D
  5
A10F
331
A10E
  5
A164
331
A10F
  5
A409
331
A869
  5
A87A
331
A86A
  5
A87B
331
A86B
  5
A87C
331
A86C
  5
A87D
331
A86F
  5
A886
331
A872
  5
A881
331
A873
  5
A882
331
A874
  5
A885
331
A875
  5
A87E
331
A876
  5
A87F
331
A877
  5
A880
331
A878
  5
A869
331
A879
  5
A86A
331
A87A
  5
A86E
331
A87B
  5
A86F
331
A87E
  5
A879
331
A87F
  5
A872
331
A880
  5
A874
331
A881
  5
A875
331
A882
  5
A876
331
A883
  5
A877
331
A884
  5
A878
331
A885
  5
A897
331
A886
  5
A898
331
A887
  5
A899
331
A888
  5
A89A
331
A889
  5
A89B
331
A88C
  5
A927
331
A88D
  5
A89F
331
A88E
  5
A8A0
331
A88F
  5
A926
331
A890
  5
A89C
331
A891
  5
A89D
331
A892
  5
A89E
331
A893
  5
A887
331
A894
  5
A888
331
A895
  5
A889
331
A896
  5
A88D
331
A897
  5
A88E
331
A89A
  5
A896
331
A89B
  5
A88F
331
A89C
  5
A891
331
A89D
  5
A892
331
A89E
  5
A893
331
A89F
  5
A894
331
A8A0
  5
A895
  0
ACDBDETAILVIEWSTYLE
  5
A799
102
{ACAD_XDICTIONARY
360
AAC5
102
}
102
{ACAD_REACTORS
330
A798
330
AA76
102
}
330
A798
100
AcDbModelDocViewStyle
 70
     0
  3
Imperial24
290
     0
100
AcDbDetailViewStyle
 70
     0
 71
     0
 90
        3
 71
     1
340
A784
 62
   256
 40
0.24
340
0
 62
   256
 40
0.24
300

 40
0.36
280
     3
 71
     2
340
A78B
 90
       25
 62
   256
 71
     3
340
A784
 62
   256
 40
0.24
 90
        1
 40
0.75
 90
        1
300
%<\AcVar ViewType \f "%tc1">% %<\AcVar ViewDetailId>%\PSCALE %<\AcVar ViewScale \f "%sn">%
 71
     4
340
A78B
 90
       25
 62
   256
340
A78B
 90
       25
 62
   256
280
     0
  0
ACDBDETAILVIEWSTYLE
  5
A934
102
{ACAD_XDICTIONARY
360
AAC9
102
}
102
{ACAD_REACTORS
330
A798
330
AA77
102
}
330
A798
100
AcDbModelDocViewStyle
 70
     0
  3
Metric50
290
     0
100
AcDbDetailViewStyle
 70
     0
 71
     0
 90
        3
 71
     1
340
A784
 62
   256
 40
5.0
340
0
 62
   256
 40
5.0
300

 40
0.0
280
     1
 71
     2
340
A78B
 90
       25
 62
   256
 71
     3
340
A784
 62
   256
 40
5.0
 90
        0
 40
15.0
 90
        1
300
%<\AcVar ViewDetailId>% (%<\AcVar ViewScale \f "%sn">%)
 71
     4
340
A78B
 90
       25
 62
   256
340
A78B
 90
       25
 62
   256
280
     0
  0
LAYOUT
  5
A7A1
102
{ACAD_REACTORS
330
A790
102
}
330
A790
100
AcDbPlotSettings
  1

  2
産機2f_DocuPrint 4050
  4

  6

 40
0.0
 41
0.0
 42
0.0
 43
0.0
 44
0.0
 45
0.0
 46
0.0
 47
0.0
 48
0.0
 49
0.0
140
0.0
141
0.0
142
1.0
143
1.0
 70
  1712
 72
     0
 73
     0
 74
     0
  7

 75
     0
147
1.0
 76
     0
 77
     2
 78
   300
148
0.0
149
0.0
100
AcDbLayout
  1
Model
 70
     1
 71
     0
 10
0.0
 20
0.0
 11
12.0
 21
9.0
 12
0.0
 22
0.0
 32
0.0
 14
0.0
 24
0.0
 34
0.0
 15
0.0
 25
0.0
 35
0.0
146
0.0
 13
0.0
 23
0.0
 33
0.0
 16
1.0
 26
0.0
 36
0.0
 17
0.0
 27
1.0
 37
0.0
 76
     0
330
A79E
331
A7A2
  0
LAYOUT
  5
A79D
102
{ACAD_REACTORS
330
A790
102
}
330
A790
100
AcDbPlotSettings
  1

  2
産機2f_DocuPrint 4050
  4

  6

 40
0.0
 41
0.0
 42
0.0
 43
0.0
 44
0.0
 45
0.0
 46
0.0
 47
0.0
 48
0.0
 49
0.0
140
0.0
141
0.0
142
1.0
143
1.0
 70
   688
 72
     0
 73
     0
 74
     5
  7

 75
    16
147
1.0
 76
     0
 77
     2
 78
   300
148
0.0
149
0.0
100
AcDbLayout
  1
レイアウト1
 70
     0
 71
     1
 10
0.0
 20
0.0
 11
12.0
 21
9.0
 12
0.0
 22
0.0
 32
0.0
 14
1.000000000000000E+20
 24
1.000000000000000E+20
 34
1.000000000000000E+20
 15
-1.000000000000000E+20
 25
-1.000000000000000E+20
 35
-1.000000000000000E+20
146
0.0
 13
0.0
 23
0.0
 33
0.0
 16
1.0
 26
0.0
 36
0.0
 17
0.0
 27
1.0
 37
0.0
 76
     0
330
A79A
  0
MATERIAL
  5
A748
102
{ACAD_XDICTIONARY
360
A749
102
}
102
{ACAD_REACTORS
330
A73F
102
}
330
A73F
100
AcDbMaterial
  1
ByBlock
 72
     0
 43
0.0208333333333333
 43
0.0
 43
0.0
 43
0.0
 43
0.0
 43
0.0208333333333333
 43
0.0
 43
0.0
 43
0.0
 43
0.0
 43
1.0
 43
0.0
 43
0.0
 43
0.0
 43
0.0
 43
1.0
 77
     0
 47
0.0208333333333333
 47
0.0
 47
0.0
 47
0.0
 47
0.0
 47
0.0208333333333333
 47
0.0
 47
0.0
 47
0.0
 47
0.0
 47
1.0
 47
0.0
 47
0.0
 47
0.0
 47
0.0
 47
1.0
171
     0
 49
0.0208333333333333
 49
0.0
 49
0.0
 49
0.0
 49
0.0
 49
0.0208333333333333
 49
0.0
 49
0.0
 49
0.0
 49
0.0
 49
1.0
 49
0.0
 49
0.0
 49
0.0
 49
0.0
 49
1.0
175
     0
142
0.0208333333333333
142
0.0
142
0.0
142
0.0
142
0.0
142
0.0208333333333333
142
0.0
142
0.0
142
0.0
142
0.0
142
1.0
142
0.0
142
0.0
142
0.0
142
0.0
142
1.0
179
     0
144
0.0208333333333333
144
0.0
144
0.0
144
0.0
144
0.0
144
0.0208333333333333
144
0.0
144
0.0
144
0.0
144
0.0
144
1.0
144
0.0
144
0.0
144
0.0
144
0.0
144
1.0
147
0.0208333333333333
147
0.0
147
0.0
147
0.0
147
0.0
147
0.0208333333333333
147
0.0
147
0.0
147
0.0
147
0.0
147
1.0
147
0.0
147
0.0
147
0.0
147
0.0
147
1.0
  0
MATERIAL
  5
A740
102
{ACAD_XDICTIONARY
360
A741
102
}
102
{ACAD_REACTORS
330
A73F
102
}
330
A73F
100
AcDbMaterial
  1
ByLayer
 72
     0
 43
0.0208333333333333
 43
0.0
 43
0.0
 43
0.0
 43
0.0
 43
0.0208333333333333
 43
0.0
 43
0.0
 43
0.0
 43
0.0
 43
1.0
 43
0.0
 43
0.0
 43
0.0
 43
0.0
 43
1.0
 77
     0
 47
0.0208333333333333
 47
0.0
 47
0.0
 47
0.0
 47
0.0
 47
0.0208333333333333
 47
0.0
 47
0.0
 47
0.0
 47
0.0
 47
1.0
 47
0.0
 47
0.0
 47
0.0
 47
0.0
 47
1.0
171
     0
 49
0.0208333333333333
 49
0.0
 49
0.0
 49
0.0
 49
0.0
 49
0.0208333333333333
 49
0.0
 49
0.0
 49
0.0
 49
0.0
 49
1.0
 49
0.0
 49
0.0
 49
0.0
 49
0.0
 49
1.0
175
     0
142
0.0208333333333333
142
0.0
142
0.0
142
0.0
142
0.0
142
0.0208333333333333
142
0.0
142
0.0
142
0.0
142
0.0
142
1.0
142
0.0
142
0.0
142
0.0
142
0.0
142
1.0
179
     0
144
0.0208333333333333
144
0.0
144
0.0
144
0.0
144
0.0
144
0.0208333333333333
144
0.0
144
0.0
144
0.0
144
0.0
144
1.0
144
0.0
144
0.0
144
0.0
144
0.0
144
1.0
147
0.0208333333333333
147
0.0
147
0.0
147
0.0
147
0.0
147
0.0208333333333333
147
0.0
147
0.0
147
0.0
147
0.0
147
1.0
147
0.0
147
0.0
147
0.0
147
0.0
147
1.0
  0
MATERIAL
  5
A750
102
{ACAD_XDICTIONARY
360
A751
102
}
102
{ACAD_REACTORS
330
A73F
102
}
330
A73F
100
AcDbMaterial
  1
Global
 72
     0
 43
0.0208333333333333
 43
0.0
 43
0.0
 43
0.0
 43
0.0
 43
0.0208333333333333
 43
0.0
 43
0.0
 43
0.0
 43
0.0
 43
1.0
 43
0.0
 43
0.0
 43
0.0
 43
0.0
 43
1.0
 77
     0
 47
0.0208333333333333
 47
0.0
 47
0.0
 47
0.0
 47
0.0
 47
0.0208333333333333
 47
0.0
 47
0.0
 47
0.0
 47
0.0
 47
1.0
 47
0.0
 47
0.0
 47
0.0
 47
0.0
 47
1.0
171
     0
 49
0.0208333333333333
 49
0.0
 49
0.0
 49
0.0
 49
0.0
 49
0.0208333333333333
 49
0.0
 49
0.0
 49
0.0
 49
0.0
 49
1.0
 49
0.0
 49
0.0
 49
0.0
 49
0.0
 49
1.0
175
     0
142
0.0208333333333333
142
0.0
142
0.0
142
0.0
142
0.0
142
0.0208333333333333
142
0.0
142
0.0
142
0.0
142
0.0
142
1.0
142
0.0
142
0.0
142
0.0
142
0.0
142
1.0
179
     0
144
0.0208333333333333
144
0.0
144
0.0
144
0.0
144
0.0
144
0.0208333333333333
144
0.0
144
0.0
144
0.0
144
0.0
144
1.0
144
0.0
144
0.0
144
0.0
144
0.0
144
1.0
147
0.0208333333333333
147
0.0
147
0.0
147
0.0
147
0.0
147
0.0208333333333333
147
0.0
147
0.0
147
0.0
147
0.0
147
1.0
147
0.0
147
0.0
147
0.0
147
0.0
147
1.0
  0
MLEADERSTYLE
  5
A795
102
{ACAD_REACTORS
330
A794
102
}
330
A794
100
AcDbMLeaderStyle
170
     2
171
     1
172
     0
 90
        2
 40
0.0
 41
0.0
173
     1
 91
-1056964608
340
A789
 92
       -2
290
     1
 42
0.09
291
     1
 43
0.36
  3
Standard
 44
0.18
300

342
A784
174
     1
178
     6
175
     1
176
     0
 93
-1056964608
 45
0.18
292
     0
297
     0
 46
0.18
 94
-1056964608
 47
1.0
 49
1.0
140
1.0
293
     1
141
0.0
294
     1
177
     0
142
1.0
295
     0
296
     0
143
0.125
1001
ACAD_MLEADERVER
1070
     2
  0
MLINESTYLE
  5
A78E
102
{ACAD_REACTORS
330
A78D
102
}
330
A78D
100
AcDbMlineStyle
  2
STANDARD
 70
     0
  3

 62
   256
 51
90.0
 52
90.0
 71
     2
 49
0.5
 62
   256
  6
BYLAYER
 49
-0.5
 62
   256
  6
BYLAYER
  0
ACDBPLACEHOLDER
  5
A73E
102
{ACAD_REACTORS
330
A73D
102
}
330
A73D
  0
SCALE
  5
A772
102
{ACAD_REACTORS
330
A771
102
}
330
A771
100
AcDbScale
 70
     0
300
1:1
140
1.0
141
1.0
290
     1
  0
SCALE
  5
A773
102
{ACAD_REACTORS
330
A771
102
}
330
A771
100
AcDbScale
 70
     0
300
1/128" = 1'-0"
140
0.0078125
141
12.0
290
     0
  0
SCALE
  5
A774
102
{ACAD_REACTORS
330
A771
102
}
330
A771
100
AcDbScale
 70
     0
300
1/64" = 1'-0"
140
0.015625
141
12.0
290
     0
  0
SCALE
  5
A775
102
{ACAD_REACTORS
330
A771
102
}
330
A771
100
AcDbScale
 70
     0
300
1/32" = 1'-0"
140
0.03125
141
12.0
290
     0
  0
SCALE
  5
A776
102
{ACAD_REACTORS
330
A771
102
}
330
A771
100
AcDbScale
 70
     0
300
1/16" = 1'-0"
140
0.0625
141
12.0
290
     0
  0
SCALE
  5
A777
102
{ACAD_REACTORS
330
A771
102
}
330
A771
100
AcDbScale
 70
     0
300
3/32" = 1'-0"
140
0.09375
141
12.0
290
     0
  0
SCALE
  5
A778
102
{ACAD_REACTORS
330
A771
102
}
330
A771
100
AcDbScale
 70
     0
300
1/8" = 1'-0"
140
0.125
141
12.0
290
     0
  0
SCALE
  5
A779
102
{ACAD_REACTORS
330
A771
102
}
330
A771
100
AcDbScale
 70
     0
300
3/16" = 1'-0"
140
0.1875
141
12.0
290
     0
  0
SCALE
  5
A77A
102
{ACAD_REACTORS
330
A771
102
}
330
A771
100
AcDbScale
 70
     0
300
1/4" = 1'-0"
140
0.25
141
12.0
290
     0
  0
SCALE
  5
A77B
102
{ACAD_REACTORS
330
A771
102
}
330
A771
100
AcDbScale
 70
     0
300
3/8" = 1'-0"
140
0.375
141
12.0
290
     0
  0
SCALE
  5
A77C
102
{ACAD_REACTORS
330
A771
102
}
330
A771
100
AcDbScale
 70
     0
300
1/2" = 1'-0"
140
0.5
141
12.0
290
     0
  0
SCALE
  5
A77D
102
{ACAD_REACTORS
330
A771
102
}
330
A771
100
AcDbScale
 70
     0
300
3/4" = 1'-0"
140
0.75
141
12.0
290
     0
  0
SCALE
  5
A77E
102
{ACAD_REACTORS
330
A771
102
}
330
A771
100
AcDbScale
 70
     0
300
1" = 1'-0"
140
1.0
141
12.0
290
     0
  0
SCALE
  5
A77F
102
{ACAD_REACTORS
330
A771
102
}
330
A771
100
AcDbScale
 70
     0
300
1-1/2" = 1'-0"
140
1.5
141
12.0
290
     0
  0
SCALE
  5
A780
102
{ACAD_REACTORS
330
A771
102
}
330
A771
100
AcDbScale
 70
     0
300
3" = 1'-0"
140
3.0
141
12.0
290
     0
  0
SCALE
  5
A781
102
{ACAD_REACTORS
330
A771
102
}
330
A771
100
AcDbScale
 70
     0
300
6" = 1'-0"
140
6.0
141
12.0
290
     0
  0
SCALE
  5
A782
102
{ACAD_REACTORS
330
A771
102
}
330
A771
100
AcDbScale
 70
     0
300
1'-0" = 1'-0"
140
12.0
141
12.0
290
     0
  0
ACDBSECTIONVIEWSTYLE
  5
A797
102
{ACAD_XDICTIONARY
360
AAC3
102
}
102
{ACAD_REACTORS
330
A796
330
AA74
102
}
330
A796
100
AcDbModelDocViewStyle
 70
     0
  3
Imperial24
290
     0
100
AcDbSectionViewStyle
 70
     0
 71
     0
 90
       78
 71
     1
340
A784
 62
   256
 40
0.24
340
0
340
0
 62
   256
 40
0.24
300
I, O, Q, S, X, Z
 40
0.48
 90
        3
 40
0.18
 90
        1
 71
     2
340
A78B
 90
       25
 62
   256
340
A78B
 90
       50
 62
   256
 40
0.24
 40
0.0
 40
0.24
 71
     3
340
A784
 62
   256
 40
0.24
 90
        1
 40
0.75
 90
        1
300
%<\AcVar ViewType \f "%tc1">% %<\AcVar ViewSectionStartId>%-%<\AcVar ViewSectionEndId>%\PSCALE %<\AcVar ViewScale \f "%sn">%
 71
     4
 62
   256
 62
   257
300
ANSI31
 40
1.0
 90
        0
290
     0
290
     0
 90
        6
 40
0.0
 40
1.570796326794896
 40
0.2617993877991494
 40
1.308996938995747
 40
-0.2617993877991494
 40
1.832595714594044
  0
ACDBSECTIONVIEWSTYLE
  5
A933
102
{ACAD_XDICTIONARY
360
AAC7
102
}
102
{ACAD_REACTORS
330
A796
330
AA75
102
}
330
A796
100
AcDbModelDocViewStyle
 70
     0
  3
Metric50
290
     0
100
AcDbSectionViewStyle
 70
     0
 71
     0
 90
      102
 71
     1
340
A784
 62
   256
 40
5.0
340
0
340
0
 62
   256
 40
5.0
300
I, O, Q, S, X, Z
 40
10.0
 90
        0
 40
2.5
 90
        0
 71
     2
340
A78B
 90
       25
 62
   256
340
A78B
 90
       50
 62
   256
 40
5.0
 40
2.5
 40
5.0
 71
     3
340
A784
 62
   256
 40
5.0
 90
        0
 40
15.0
 90
        1
300
%<\AcVar ViewSectionStartId>%-%<\AcVar ViewSectionEndId>% (%<\AcVar ViewScale \f "%sn">%)
 71
     4
 62
   256
 62
   257
300
ANSI31
 40
1.0
 90
        0
290
     0
290
     0
 90
        6
 40
0.0
 40
1.570796326794896
 40
0.2617993877991494
 40
1.308996938995747
 40
-0.2617993877991494
 40
1.832595714594044
  0
TABLESTYLE
  5
A793
102
{ACAD_XDICTIONARY
360
A8BE
102
}
102
{ACAD_REACTORS
330
A792
102
}
330
A792
100
AcDbTableStyle
  3
Standard
 70
     0
 71
     0
 40
0.06
 41
0.06
280
     0
281
     0
  7
STANDARD
140
0.18
170
     2
 62
     0
 63
     7
283
     0
274
    -2
284
     1
 64
     0
275
    -2
285
     1
 65
     0
276
    -2
286
     1
 66
     0
277
    -2
287
     1
 67
     0
278
    -2
288
     1
 68
     0
279
    -2
289
     1
 69
     0
  7
STANDARD
140
0.25
170
     5
 62
     0
 63
     7
283
     0
274
    -2
284
     1
 64
     0
275
    -2
285
     1
 65
     0
276
    -2
286
     1
 66
     0
277
    -2
287
     1
 67
     0
278
    -2
288
     1
 68
     0
279
    -2
289
     1
 69
     0
  7
STANDARD
140
0.18
170
     5
 62
     0
 63
     7
283
     0
274
    -2
284
     1
 64
     0
275
    -2
285
     1
 65
     0
276
    -2
286
     1
 66
     0
277
    -2
287
     1
 67
     0
278
    -2
288
     1
 68
     0
279
    -2
289
     1
 69
     0
  0
VISUALSTYLE
  5
A75E
102
{ACAD_XDICTIONARY
360
AA9C
102
}
102
{ACAD_REACTORS
330
A758
102
}
330
A758
100
AcDbVisualStyle
  2

 70
     4
 71
     0
 72
     2
 73
     0
 90
        0
 40
-0.6
 41
-30.0
 62
     5
 63
     7
421
 16777215
 74
     1
 91
        4
 64
     7
 65
   257
 75
     1
175
     1
 42
1.0
 92
        0
 66
   257
 43
1.0
 76
     1
 77
     6
 78
     2
 67
     7
 79
     5
170
     0
171
     0
290
     0
174
     0
 93
        1
 44
0.0
173
     0
291
     0
 45
0.0
1001
ACAD
1000
AcDbSavedByObjectVersion
1070
     0
  0
VISUALSTYLE
  5
A75D
102
{ACAD_XDICTIONARY
360
AA9A
102
}
102
{ACAD_REACTORS
330
A758
102
}
330
A758
100
AcDbVisualStyle
  2

 70
     7
 71
     1
 72
     0
 73
     1
 90
        0
 40
-0.6
 41
-30.0
 62
     5
 63
     7
421
 16777215
 74
     0
 91
        4
 64
     7
 65
   257
 75
     1
175
     1
 42
1.0
 92
        8
 66
     7
 43
1.0
 76
     1
 77
     6
 78
     2
 67
     7
 79
     5
170
     0
171
     0
290
     0
174
     0
 93
        1
 44
0.0
173
     0
291
     1
 45
0.0
1001
ACAD
1000
AcDbSavedByObjectVersion
1070
     0
  0
VISUALSTYLE
  5
A764
102
{ACAD_XDICTIONARY
360
AAA8
102
}
102
{ACAD_REACTORS
330
A758
102
}
330
A758
100
AcDbVisualStyle
  2

 70
    12
 71
     2
 72
     2
 73
     0
 90
        0
 40
-0.6
 41
-30.0
 62
     5
 63
     7
421
 16777215
 74
     1
 91
        4
 64
     7
 65
   257
 75
     1
175
     1
 42
1.0
 92
        8
 66
     7
 43
1.0
 76
     1
 77
     6
 78
     2
 67
     7
 79
     5
170
     0
171
     0
290
     0
174
     0
 93
        1
 44
50.0
173
     0
291
     1
 45
0.0
1001
ACAD
1000
AcDbSavedByObjectVersion
1070
     0
  0
VISUALSTYLE
  5
A768
102
{ACAD_XDICTIONARY
360
AAB0
102
}
102
{ACAD_REACTORS
330
A758
102
}
330
A758
100
AcDbVisualStyle
  2

 70
    16
 71
     2
 72
     2
 73
     3
 90
        0
 40
-0.6
 41
-30.0
 62
     5
 63
     8
421
  8421504
 74
     1
 91
        4
 64
     7
 65
   257
 75
     1
175
     1
 42
1.0
 92
        8
 66
     8
424
  8421504
 43
1.0
 76
     1
 77
     6
 78
     2
 67
     7
 79
     5
170
     0
171
     0
290
     0
174
     0
 93
        1
 44
0.0
173
     0
291
     1
 45
0.0
1001
ACAD
1000
AcDbSavedByObjectVersion
1070
     0
  0
VISUALSTYLE
  5
A761
102
{ACAD_XDICTIONARY
360
AAA2
102
}
102
{ACAD_REACTORS
330
A758
102
}
330
A758
100
AcDbVisualStyle
  2

 70
     9
 71
     3
 72
     2
 73
     0
 90
        0
 40
-0.6
 41
-30.0
 62
     5
 63
     7
421
 16777215
 74
     2
 91
        2
 64
     7
 65
   257
 75
     1
175
     1
 42
179.0
 92
        8
 66
     7
 43
1.0
 76
     1
 77
     6
 78
     2
 67
     7
 79
     3
170
     0
171
     0
290
     0
174
     0
 93
        1
 44
0.0
173
     0
291
     0
 45
0.0
1001
ACAD
1000
AcDbSavedByObjectVersion
1070
     0
  0
VISUALSTYLE
  5
A763
102
{ACAD_XDICTIONARY
360
AAA6
102
}
102
{ACAD_REACTORS
330
A758
102
}
330
A758
100
AcDbVisualStyle
  2

 70
    11
 71
     2
 72
     2
 73
     0
 90
        0
 40
-0.6
 41
-30.0
 62
     5
 63
     7
421
 16777215
 74
     1
 91
        4
 64
     7
 65
   257
 75
     1
175
     1
 42
1.0
 92
        8
 66
     7
 43
1.0
 76
     1
 77
     6
 78
     2
 67
     7
 79
     5
170
     0
171
     0
290
     0
174
     0
 93
        1
 44
-50.0
173
     0
291
     1
 45
0.0
1001
ACAD
1000
AcDbSavedByObjectVersion
1070
     0
  0
VISUALSTYLE
  5
A770
102
{ACAD_XDICTIONARY
360
AAC0
102
}
102
{ACAD_REACTORS
330
A758
102
}
330
A758
100
AcDbVisualStyle
  2

 70
    22
 71
     2
 72
     2
 73
     0
 90
        0
 40
-0.6
 41
-30.0
 62
     5
 63
     7
421
 16777215
 74
     1
 91
        4
 64
     7
 65
   257
 75
     1
175
     1
 42
1.0
 92
        8
 66
     7
 43
1.0
 76
     1
 77
     6
 78
     2
 67
     7
 79
     5
170
     0
171
     0
290
     0
174
     0
 93
        1
 44
0.0
173
     0
291
     1
 45
0.0
1001
ACAD
1000
AcDbSavedByObjectVersion
1070
     0
  0
VISUALSTYLE
  5
A767
102
{ACAD_XDICTIONARY
360
AAAE
102
}
102
{ACAD_REACTORS
330
A758
102
}
330
A758
100
AcDbVisualStyle
  2

 70
    15
 71
     2
 72
     2
 73
     0
 90
        0
 40
-0.6
 41
-30.0
 62
     5
 63
     7
421
 16777215
 74
     1
 91
        4
 64
     7
 65
   257
 75
     1
175
     1
 42
1.0
 92
        8
 66
     7
 43
1.0
 76
     1
 77
     6
 78
     2
 67
     7
 79
     5
170
     0
171
     0
290
     0
174
     0
 93
        1
 44
0.0
173
     0
291
     1
 45
0.0
1001
ACAD
1000
AcDbSavedByObjectVersion
1070
     0
  0
VISUALSTYLE
  5
A759
102
{ACAD_XDICTIONARY
360
AA92
102
}
102
{ACAD_REACTORS
330
A758
102
}
330
A758
100
AcDbVisualStyle
  2

 70
     0
 71
     2
 72
     1
 73
     1
 90
        2
 40
-0.6
 41
30.0
 62
     5
 63
     7
421
 16777215
 74
     0
 91
        0
 64
     7
 65
   257
 75
     1
175
     1
 42
1.0
 92
        8
 66
     7
 43
1.0
 76
     1
 77
     6
 78
     2
 67
     7
 79
     5
170
     0
171
     0
290
     0
174
     0
 93
       13
 44
0.0
173
     0
291
     1
 45
0.0
1001
ACAD
1000
AcDbSavedByObjectVersion
1070
     0
  0
VISUALSTYLE
  5
A75A
102
{ACAD_XDICTIONARY
360
AA94
102
}
102
{ACAD_REACTORS
330
A758
102
}
330
A758
100
AcDbVisualStyle
  2

 70
     1
 71
     2
 72
     1
 73
     1
 90
        2
 40
-0.6
 41
30.0
 62
     5
 63
     7
421
 16777215
 74
     1
 91
        0
 64
     7
 65
   257
 75
     1
175
     1
 42
1.0
 92
        0
 66
   257
 43
1.0
 76
     1
 77
     6
 78
     2
 67
     7
 79
     5
170
     0
171
     0
290
     0
174
     0
 93
       13
 44
0.0
173
     0
291
     1
 45
0.0
1001
ACAD
1000
AcDbSavedByObjectVersion
1070
     0
  0
VISUALSTYLE
  5
A75B
102
{ACAD_XDICTIONARY
360
AA96
102
}
102
{ACAD_REACTORS
330
A758
102
}
330
A758
100
AcDbVisualStyle
  2

 70
     2
 71
     2
 72
     2
 73
     1
 90
        2
 40
-0.6
 41
30.0
 62
     5
 63
     7
421
 16777215
 74
     0
 91
        0
 64
     7
 65
   257
 75
     1
175
     1
 42
1.0
 92
        0
 66
     7
 43
1.0
 76
     1
 77
     6
 78
     2
 67
     7
 79
     5
170
     0
171
     0
290
     0
174
     0
 93
       13
 44
0.0
173
     0
291
     1
 45
0.0
1001
ACAD
1000
AcDbSavedByObjectVersion
1070
     0
  0
VISUALSTYLE
  5
A75C
102
{ACAD_XDICTIONARY
360
AA98
102
}
102
{ACAD_REACTORS
330
A758
102
}
330
A758
100
AcDbVisualStyle
  2

 70
     3
 71
     2
 72
     2
 73
     1
 90
        2
 40
-0.6
 41
30.0
 62
     5
 63
     7
421
 16777215
 74
     1
 91
        0
 64
     7
 65
   257
 75
     1
175
     1
 42
1.0
 92
        0
 66
   257
 43
1.0
 76
     1
 77
     6
 78
     2
 67
     7
 79
     5
170
     0
171
     0
290
     0
174
     0
 93
       13
 44
0.0
173
     0
291
     1
 45
0.0
1001
ACAD
1000
AcDbSavedByObjectVersion
1070
     0
  0
VISUALSTYLE
  5
A760
102
{ACAD_XDICTIONARY
360
AAA0
102
}
102
{ACAD_REACTORS
330
A758
102
}
330
A758
100
AcDbVisualStyle
  2

 70
     6
 71
     1
 72
     2
 73
     2
 90
        0
 40
-0.6
 41
-30.0
 62
     5
 63
     7
421
 16777215
 74
     2
 91
        2
 64
     7
 65
   257
 75
     2
175
     1
 42
40.0
 92
        0
 66
   257
 43
1.0
 76
     1
 77
     6
 78
     2
 67
     7
 79
     3
170
     0
171
     0
290
     0
174
     0
 93
        1
 44
0.0
173
     0
291
     0
 45
0.0
1001
ACAD
1000
AcDbSavedByObjectVersion
1070
     0
  0
VISUALSTYLE
  5
A76E
102
{ACAD_XDICTIONARY
360
AABC
102
}
102
{ACAD_REACTORS
330
A758
102
}
330
A758
100
AcDbVisualStyle
  2

 70
    20
 71
     2
 72
     2
 73
     0
 90
        0
 40
-0.6
 41
-30.0
 62
     5
 63
     7
421
 16777215
 74
     1
 91
        4
 64
     7
 65
   257
 75
     1
175
     1
 42
1.0
 92
       10
 66
     7
 43
1.0
 76
     1
 77
     6
 78
     2
 67
     7
 79
     5
170
     0
171
     0
290
     0
174
     0
 93
        1
 44
0.0
173
     0
291
     1
 45
0.0
1001
ACAD
1000
AcDbSavedByObjectVersion
1070
     0
  0
VISUALSTYLE
  5
A766
102
{ACAD_XDICTIONARY
360
AAAC
102
}
102
{ACAD_REACTORS
330
A758
102
}
330
A758
100
AcDbVisualStyle
  2

 70
    14
 71
     2
 72
     2
 73
     0
 90
        0
 40
-0.6
 41
-30.0
 62
     5
 63
     7
421
 16777215
 74
     1
 91
        4
 64
     7
 65
   257
 75
     7
175
     7
 42
1.0
 92
        8
 66
     7
 43
1.0
 76
     1
 77
     6
 78
     2
 67
     7
 79
     5
170
     0
171
     0
290
     0
174
     0
 93
        1
 44
0.0
173
     0
291
     1
 45
0.0
1001
ACAD
1000
AcDbSavedByObjectVersion
1070
     0
  0
VISUALSTYLE
  5
A76F
102
{ACAD_XDICTIONARY
360
AABE
102
}
102
{ACAD_REACTORS
330
A758
102
}
330
A758
100
AcDbVisualStyle
  2

 70
    21
 71
     2
 72
     2
 73
     0
 90
        0
 40
-0.6
 41
-30.0
 62
     5
 63
     7
421
 16777215
 74
     1
 91
        4
 64
     7
 65
   257
 75
     1
175
     1
 42
1.0
 92
        9
 66
     7
 43
1.0
 76
     1
 77
     6
 78
     2
 67
     7
 79
     5
170
     0
171
     0
290
     0
174
     0
 93
        1
 44
0.0
173
     0
291
     1
 45
0.0
1001
ACAD
1000
AcDbSavedByObjectVersion
1070
     0
  0
VISUALSTYLE
  5
A762
102
{ACAD_XDICTIONARY
360
AAA4
102
}
102
{ACAD_REACTORS
330
A758
102
}
330
A758
100
AcDbVisualStyle
  2

 70
     8
 71
     2
 72
     3
 73
     0
 90
        2
 40
-0.6
 41
30.0
 62
     5
 63
     7
421
 16777215
 74
     0
 91
        0
 64
     7
 65
   257
 75
     1
175
     1
 42
1.0
 92
        8
 66
   257
 43
1.0
 76
     1
 77
     6
 78
     2
 67
     7
 79
     3
170
     0
171
     0
290
     0
174
     0
 93
       13
 44
0.0
173
     0
291
     0
 45
0.0
1001
ACAD
1000
AcDbSavedByObjectVersion
1070
     0
  0
VISUALSTYLE
  5
A76D
102
{ACAD_XDICTIONARY
360
AABA
102
}
102
{ACAD_REACTORS
330
A758
102
}
330
A758
100
AcDbVisualStyle
  2

 70
    27
 71
     2
 72
     2
 73
     1
 90
        2
 40
-0.6
 41
30.0
 62
     5
 63
     7
421
 16777215
 74
     0
 91
        4
 64
     7
 65
   257
 75
     1
175
     1
 42
1.0
 92
        8
 66
   257
 43
1.0
 76
     1
 77
     6
 78
     2
 67
     8
425
  7895160
 79
     3
170
     0
171
     0
290
     0
174
     0
 93
        5
 44
0.0
173
     0
291
     0
 45
0.0
1001
ACAD
1000
AcDbSavedByObjectVersion
1070
     0
  0
VISUALSTYLE
  5
A76C
102
{ACAD_XDICTIONARY
360
AAB8
102
}
102
{ACAD_REACTORS
330
A758
102
}
330
A758
100
AcDbVisualStyle
  2

 70
    26
 71
     2
 72
     2
 73
     1
 90
        2
 40
-0.6
 41
30.0
 62
     5
 63
     7
421
 16777215
 74
     1
 91
        2
 64
     7
 65
   257
 75
     2
175
     1
 42
1.0
 92
        8
 66
   257
 43
1.0
 76
     1
 77
     6
 78
     2
 67
     7
 79
     3
170
     0
171
     0
290
     0
174
     0
 93
        5
 44
0.0
173
     0
291
     0
 45
0.0
1001
ACAD
1000
AcDbSavedByObjectVersion
1070
     0
  0
VISUALSTYLE
  5
A769
102
{ACAD_XDICTIONARY
360
AAB2
102
}
102
{ACAD_REACTORS
330
A758
102
}
330
A758
100
AcDbVisualStyle
  2

 70
    23
 71
     2
 72
     2
 73
     3
 90
        0
 40
-0.6
 41
-30.0
 62
     5
 63
     7
421
 16777215
 74
     2
 91
        2
 64
     7
 65
     7
 75
     1
175
     1
 42
40.0
 92
        8
 66
     7
 43
1.0
 76
     1
 77
     6
 78
     2
 67
     7
 79
     3
170
     0
171
     0
290
     0
174
     0
 93
        1
 44
0.0
173
     0
291
     0
 45
0.0
1001
ACAD
1000
AcDbSavedByObjectVersion
1070
     0
  0
VISUALSTYLE
  5
A76A
102
{ACAD_XDICTIONARY
360
AAB4
102
}
102
{ACAD_REACTORS
330
A758
102
}
330
A758
100
AcDbVisualStyle
  2

 70
    24
 71
     1
 72
     2
 73
     2
 90
        0
 40
-0.6
 41
-30.0
 62
     5
 63
     7
421
 16777215
 74
     2
 91
        2
 64
     7
 65
     7
 75
     1
175
     1
 42
40.0
 92
       11
 66
     7
 43
1.0
 76
     1
 77
     6
 78
     2
 67
     7
 79
     6
170
     0
171
     0
290
     0
174
     0
 93
        1
 44
0.0
173
     0
291
     0
 45
0.0
1001
ACAD
1000
AcDbSavedByObjectVersion
1070
     0
  0
VISUALSTYLE
  5
A765
102
{ACAD_XDICTIONARY
360
AAAA
102
}
102
{ACAD_REACTORS
330
A758
102
}
330
A758
100
AcDbVisualStyle
  2

 70
    13
 71
     2
 72
     2
 73
     0
 90
        0
 40
-0.6
 41
-30.0
 62
     5
 63
     7
421
 16777215
 74
     1
 91
        4
 64
     7
 65
   257
 75
     1
175
     1
 42
1.0
 92
       12
 66
     7
 43
1.0
 76
     1
 77
     6
 78
     2
 67
     7
 79
     5
170
     0
171
     0
290
     0
174
     0
 93
        1
 44
0.0
173
     0
291
     1
 45
0.0
1001
ACAD
1000
AcDbSavedByObjectVersion
1070
     0
  0
VISUALSTYLE
  5
A75F
102
{ACAD_XDICTIONARY
360
AA9E
102
}
102
{ACAD_REACTORS
330
A758
102
}
330
A758
100
AcDbVisualStyle
  2

 70
     5
 71
     0
 72
     2
 73
     0
 90
        0
 40
-0.6
 41
-30.0
 62
     5
 63
     7
421
 16777215
 74
     1
 91
        4
 64
     7
 65
   257
 75
     1
175
     1
 42
1.0
 92
        0
 66
   257
 43
1.0
 76
     1
 77
     6
 78
     2
 67
     7
 79
     3
170
     0
171
     0
290
     0
174
     0
 93
        1
 44
0.0
173
     0
291
     0
 45
0.0
1001
ACAD
1000
AcDbSavedByObjectVersion
1070
     0
  0
VISUALSTYLE
  5
A76B
102
{ACAD_XDICTIONARY
360
AAB6
102
}
102
{ACAD_REACTORS
330
A758
102
}
330
A758
100
AcDbVisualStyle
  2

 70
    25
 71
     2
 72
     2
 73
     1
 90
        1
 40
0.5
 41
-30.0
 62
     5
 63
     7
421
 16777215
 74
     1
 91
        0
 64
     7
 65
   257
 75
     1
175
     1
 42
1.0
 92
        8
 66
     7
 43
1.0
 76
     1
 77
     6
 78
     2
 67
     7
 79
     3
170
     0
171
     0
290
     0
174
     0
 93
       13
 44
0.0
173
     0
291
     0
 45
0.0
1001
ACAD
1000
AcDbSavedByObjectVersion
1070
     0
  0
DICTIONARYVAR
  5
A8BA
102
{ACAD_REACTORS
330
A8B4
102
}
330
A8B4
100
DictionaryVariables
280
     0
  1
1:1
  0
DICTIONARYVAR
  5
A8B6
102
{ACAD_REACTORS
330
A8B4
102
}
330
A8B4
100
DictionaryVariables
280
     0
  1
STANDARD
  0
DICTIONARYVAR
  5
A8B5
102
{ACAD_REACTORS
330
A8B4
102
}
330
A8B4
100
DictionaryVariables
280
     0
  1
STANDARD
  0
DICTIONARYVAR
  5
A8B7
102
{ACAD_REACTORS
330
A8B4
102
}
330
A8B4
100
DictionaryVariables
280
     0
  1
Metric50
  0
DICTIONARYVAR
  5
A8B8
102
{ACAD_REACTORS
330
A8B4
102
}
330
A8B4
100
DictionaryVariables
280
     0
  1
Metric50
  0
DICTIONARYVAR
  5
A8BC
102
{ACAD_REACTORS
330
A8B4
102
}
330
A8B4
100
DictionaryVariables
280
     0
  1
1
  0
DICTIONARYVAR
  5
A8BD
102
{ACAD_REACTORS
330
A8B4
102
}
330
A8B4
100
DictionaryVariables
280
     0
  1
15
  0
DICTIONARYVAR
  5
A8BB
102
{ACAD_REACTORS
330
A8B4
102
}
330
A8B4
100
DictionaryVariables
280
     0
  1
0
  0
DICTIONARYVAR
  5
AA8D
102
{ACAD_REACTORS
330
A8B4
102
}
330
A8B4
100
DictionaryVariables
280
     0
  1
1.570796
  0
DICTIONARYVAR
  5
AA8E
102
{ACAD_REACTORS
330
A8B4
102
}
330
A8B4
100
DictionaryVariables
280
     0
  1
1.570796
  0
DICTIONARYVAR
  5
A8B9
102
{ACAD_REACTORS
330
A8B4
102
}
330
A8B4
100
DictionaryVariables
280
     0
  1
0
  0
DICTIONARYVAR
  5
AA8F
102
{ACAD_REACTORS
330
A8B4
102
}
330
A8B4
100
DictionaryVariables
280
     0
  1
2
  0
DICTIONARY
  5
A824
102
{ACAD_REACTORS
330
A81D
102
}
330
A81D
100
AcDbDictionary
281
     1
  0
DICTIONARY
  5
AAC5
330
A799
100
AcDbDictionary
280
     1
281
     1
  3
ACAD_XREC_ROUNDTRIP
360
AAC6
  0
DICTIONARY
  5
AAC9
330
A934
100
AcDbDictionary
280
     1
281
     1
  3
ACAD_XREC_ROUNDTRIP
360
AACA
  0
DICTIONARY
  5
A749
330
A748
100
AcDbDictionary
280
     1
281
     1
  3
ACAD_XREC_ROUNDTRIP
360
A94E
  3
BUMPTILE
360
A74B
  3
DIFFUSETILE
360
A74A
  3
OPACITYTILE
360
A74E
  3
REFLECTIONTILE
360
A74D
  3
REFRACTIONTILE
360
A74F
  3
SPECULARTILE
360
A74C
  0
DICTIONARY
  5
A741
330
A740
100
AcDbDictionary
280
     1
281
     1
  3
ACAD_XREC_ROUNDTRIP
360
A94D
  3
BUMPTILE
360
A743
  3
DIFFUSETILE
360
A742
  3
OPACITYTILE
360
A746
  3
REFLECTIONTILE
360
A745
  3
REFRACTIONTILE
360
A747
  3
SPECULARTILE
360
A744
  0
DICTIONARY
  5
A751
330
A750
100
AcDbDictionary
280
     1
281
     1
  3
ACAD_XREC_ROUNDTRIP
360
A94F
  3
BUMPTILE
360
A753
  3
DIFFUSETILE
360
A752
  3
OPACITYTILE
360
A756
  3
REFLECTIONTILE
360
A755
  3
REFRACTIONTILE
360
A757
  3
SPECULARTILE
360
A754
  0
DICTIONARY
  5
AAC3
330
A797
100
AcDbDictionary
280
     1
281
     1
  3
ACAD_XREC_ROUNDTRIP
360
AAC4
  0
DICTIONARY
  5
AAC7
330
A933
100
AcDbDictionary
280
     1
281
     1
  3
ACAD_XREC_ROUNDTRIP
360
AAC8
  0
DICTIONARY
  5
A8BE
330
A793
100
AcDbDictionary
280
     1
281
     1
  3
ACAD_ROUNDTRIP_2008_TABLESTYLE_CELLSTYLEMAP
360
AA90
  3
ACAD_XREC_ROUNDTRIP
360
AAC2
  0
DICTIONARY
  5
AA9C
330
A75E
100
AcDbDictionary
280
     1
281
     1
  3
ACAD_XREC_ROUNDTRIP
360
AA9D
  0
DICTIONARY
  5
AA9A
330
A75D
100
AcDbDictionary
280
     1
281
     1
  3
ACAD_XREC_ROUNDTRIP
360
AA9B
  0
DICTIONARY
  5
AAA8
330
A764
100
AcDbDictionary
280
     1
281
     1
  3
ACAD_XREC_ROUNDTRIP
360
AAA9
  0
DICTIONARY
  5
AAB0
330
A768
100
AcDbDictionary
280
     1
281
     1
  3
ACAD_XREC_ROUNDTRIP
360
AAB1
  0
DICTIONARY
  5
AAA2
330
A761
100
AcDbDictionary
280
     1
281
     1
  3
ACAD_XREC_ROUNDTRIP
360
AAA3
  0
DICTIONARY
  5
AAA6
330
A763
100
AcDbDictionary
280
     1
281
     1
  3
ACAD_XREC_ROUNDTRIP
360
AAA7
  0
DICTIONARY
  5
AAC0
330
A770
100
AcDbDictionary
280
     1
281
     1
  3
ACAD_XREC_ROUNDTRIP
360
AAC1
  0
DICTIONARY
  5
AAAE
330
A767
100
AcDbDictionary
280
     1
281
     1
  3
ACAD_XREC_ROUNDTRIP
360
AAAF
  0
DICTIONARY
  5
AA92
330
A759
100
AcDbDictionary
280
     1
281
     1
  3
ACAD_XREC_ROUNDTRIP
360
AA93
  0
DICTIONARY
  5
AA94
330
A75A
100
AcDbDictionary
280
     1
281
     1
  3
ACAD_XREC_ROUNDTRIP
360
AA95
  0
DICTIONARY
  5
AA96
330
A75B
100
AcDbDictionary
280
     1
281
     1
  3
ACAD_XREC_ROUNDTRIP
360
AA97
  0
DICTIONARY
  5
AA98
330
A75C
100
AcDbDictionary
280
     1
281
     1
  3
ACAD_XREC_ROUNDTRIP
360
AA99
  0
DICTIONARY
  5
AAA0
330
A760
100
AcDbDictionary
280
     1
281
     1
  3
ACAD_XREC_ROUNDTRIP
360
AAA1
  0
DICTIONARY
  5
AABC
330
A76E
100
AcDbDictionary
280
     1
281
     1
  3
ACAD_XREC_ROUNDTRIP
360
AABD
  0
DICTIONARY
  5
AAAC
330
A766
100
AcDbDictionary
280
     1
281
     1
  3
ACAD_XREC_ROUNDTRIP
360
AAAD
  0
DICTIONARY
  5
AABE
330
A76F
100
AcDbDictionary
280
     1
281
     1
  3
ACAD_XREC_ROUNDTRIP
360
AABF
  0
DICTIONARY
  5
AAA4
330
A762
100
AcDbDictionary
280
     1
281
     1
  3
ACAD_XREC_ROUNDTRIP
360
AAA5
  0
DICTIONARY
  5
AABA
330
A76D
100
AcDbDictionary
280
     1
281
     1
  3
ACAD_XREC_ROUNDTRIP
360
AABB
  0
DICTIONARY
  5
AAB8
330
A76C
100
AcDbDictionary
280
     1
281
     1
  3
ACAD_XREC_ROUNDTRIP
360
AAB9
  0
DICTIONARY
  5
AAB2
330
A769
100
AcDbDictionary
280
     1
281
     1
  3
ACAD_XREC_ROUNDTRIP
360
AAB3
  0
DICTIONARY
  5
AAB4
330
A76A
100
AcDbDictionary
280
     1
281
     1
  3
ACAD_XREC_ROUNDTRIP
360
AAB5
  0
DICTIONARY
  5
AAAA
330
A765
100
AcDbDictionary
280
     1
281
     1
  3
ACAD_XREC_ROUNDTRIP
360
AAAB
  0
DICTIONARY
  5
AA9E
330
A75F
100
AcDbDictionary
280
     1
281
     1
  3
ACAD_XREC_ROUNDTRIP
360
AA9F
  0
DICTIONARY
  5
AAB6
330
A76B
100
AcDbDictionary
280
     1
281
     1
  3
ACAD_XREC_ROUNDTRIP
360
AAB7
  0
XRECORD
  5
AAC6
102
{ACAD_REACTORS
330
AAC5
102
}
330
AAC5
100
AcDbXrecord
280
     1
102
DISPLAYNAME
  1
Imperial24
102
FLAGS
 90
        0
  0
XRECORD
  5
AACA
102
{ACAD_REACTORS
330
AAC9
102
}
330
AAC9
100
AcDbXrecord
280
     1
102
DISPLAYNAME
  1
Metric50
102
FLAGS
 90
        0
  0
XRECORD
  5
A94E
102
{ACAD_REACTORS
330
A749
102
}
330
A749
100
AcDbXrecord
280
     1
102
MATERIAL
148
0.0
149
0.0
149
0.0
 93
        0
 94
      127
282
     0
 72
     0
 77
     0
171
     0
175
     0
179
     0
273
     0
  0
XRECORD
  5
A74B
102
{ACAD_REACTORS
330
A749
102
}
330
A749
100
AcDbXrecord
280
     1
270
     1
271
     1
  0
XRECORD
  5
A74A
102
{ACAD_REACTORS
330
A749
102
}
330
A749
100
AcDbXrecord
280
     1
270
     1
271
     1
  0
XRECORD
  5
A74E
102
{ACAD_REACTORS
330
A749
102
}
330
A749
100
AcDbXrecord
280
     1
270
     1
271
     1
  0
XRECORD
  5
A74D
102
{ACAD_REACTORS
330
A749
102
}
330
A749
100
AcDbXrecord
280
     1
270
     1
271
     1
  0
XRECORD
  5
A74F
102
{ACAD_REACTORS
330
A749
102
}
330
A749
100
AcDbXrecord
280
     1
270
     1
271
     1
  0
XRECORD
  5
A74C
102
{ACAD_REACTORS
330
A749
102
}
330
A749
100
AcDbXrecord
280
     1
270
     1
271
     1
  0
XRECORD
  5
A94D
102
{ACAD_REACTORS
330
A741
102
}
330
A741
100
AcDbXrecord
280
     1
102
MATERIAL
148
0.0
149
0.0
149
0.0
 93
        0
 94
      127
282
     0
 72
     0
 77
     0
171
     0
175
     0
179
     0
273
     0
  0
XRECORD
  5
A743
102
{ACAD_REACTORS
330
A741
102
}
330
A741
100
AcDbXrecord
280
     1
270
     1
271
     1
  0
XRECORD
  5
A742
102
{ACAD_REACTORS
330
A741
102
}
330
A741
100
AcDbXrecord
280
     1
270
     1
271
     1
  0
XRECORD
  5
A746
102
{ACAD_REACTORS
330
A741
102
}
330
A741
100
AcDbXrecord
280
     1
270
     1
271
     1
  0
XRECORD
  5
A745
102
{ACAD_REACTORS
330
A741
102
}
330
A741
100
AcDbXrecord
280
     1
270
     1
271
     1
  0
XRECORD
  5
A747
102
{ACAD_REACTORS
330
A741
102
}
330
A741
100
AcDbXrecord
280
     1
270
     1
271
     1
  0
XRECORD
  5
A744
102
{ACAD_REACTORS
330
A741
102
}
330
A741
100
AcDbXrecord
280
     1
270
     1
271
     1
  0
XRECORD
  5
A94F
102
{ACAD_REACTORS
330
A751
102
}
330
A751
100
AcDbXrecord
280
     1
102
MATERIAL
148
0.0
149
0.0
149
0.0
 93
        0
 94
      127
282
     0
 72
     0
 77
     0
171
     0
175
     0
179
     0
273
     0
  0
XRECORD
  5
A753
102
{ACAD_REACTORS
330
A751
102
}
330
A751
100
AcDbXrecord
280
     1
270
     1
271
     1
  0
XRECORD
  5
A752
102
{ACAD_REACTORS
330
A751
102
}
330
A751
100
AcDbXrecord
280
     1
270
     1
271
     1
  0
XRECORD
  5
A756
102
{ACAD_REACTORS
330
A751
102
}
330
A751
100
AcDbXrecord
280
     1
270
     1
271
     1
  0
XRECORD
  5
A755
102
{ACAD_REACTORS
330
A751
102
}
330
A751
100
AcDbXrecord
280
     1
270
     1
271
     1
  0
XRECORD
  5
A757
102
{ACAD_REACTORS
330
A751
102
}
330
A751
100
AcDbXrecord
280
     1
270
     1
271
     1
  0
XRECORD
  5
A754
102
{ACAD_REACTORS
330
A751
102
}
330
A751
100
AcDbXrecord
280
     1
270
     1
271
     1
  0
XRECORD
  5
AAC4
102
{ACAD_REACTORS
330
AAC3
102
}
330
AAC3
100
AcDbXrecord
280
     1
102
DISPLAYNAME
  1
Imperial24
102
FLAGS
 90
        0
  0
XRECORD
  5
AAC8
102
{ACAD_REACTORS
330
AAC7
102
}
330
AAC7
100
AcDbXrecord
280
     1
102
DISPLAYNAME
  1
Metric50
102
FLAGS
 90
        0
  0
CELLSTYLEMAP
  5
AA90
102
{ACAD_REACTORS
330
A8BE
102
}
330
A8BE
100
AcDbCellStyleMap
 90
        3
300
CELLSTYLE
  1
TABLEFORMAT_BEGIN
 90
        5
170
     1
 91
        0
 92
    32768
 62
   257
 93
        1
300
CONTENTFORMAT
  1
CONTENTFORMAT_BEGIN
 90
        0
 91
        0
 92
      512
 93
        0
300

 40
0.0
140
1.0
 94
        5
 62
     0
340
A784
144
0.25
309
CONTENTFORMAT_END
171
     1
301
MARGIN
  1
CELLMARGIN_BEGIN
 40
0.06
 40
0.06
 40
0.06
 40
0.06
 40
0.18
 40
0.18
309
CELLMARGIN_END
 94
        6
 95
        1
302
GRIDFORMAT
  1
GRIDFORMAT_BEGIN
 90
        0
 91
        1
 62
     0
 92
       -2
340
0
 93
        0
 40
0.045
309
GRIDFORMAT_END
 95
        2
302
GRIDFORMAT
  1
GRIDFORMAT_BEGIN
 90
        0
 91
        1
 62
     0
 92
       -2
340
0
 93
        0
 40
0.045
309
GRIDFORMAT_END
 95
        4
302
GRIDFORMAT
  1
GRIDFORMAT_BEGIN
 90
        0
 91
        1
 62
     0
 92
       -2
340
0
 93
        0
 40
0.045
309
GRIDFORMAT_END
 95
        8
302
GRIDFORMAT
  1
GRIDFORMAT_BEGIN
 90
        0
 91
        1
 62
     0
 92
       -2
340
0
 93
        0
 40
0.045
309
GRIDFORMAT_END
 95
       16
302
GRIDFORMAT
  1
GRIDFORMAT_BEGIN
 90
        0
 91
        1
 62
     0
 92
       -2
340
0
 93
        0
 40
0.045
309
GRIDFORMAT_END
 95
       32
302
GRIDFORMAT
  1
GRIDFORMAT_BEGIN
 90
        0
 91
        1
 62
     0
 92
       -2
340
0
 93
        0
 40
0.045
309
GRIDFORMAT_END
309
TABLEFORMAT_END
  1
CELLSTYLE_BEGIN
 90
        1
 91
        1
300
_TITLE
309
CELLSTYLE_END
300
CELLSTYLE
  1
TABLEFORMAT_BEGIN
 90
        5
170
     1
 91
        0
 92
        0
 62
   257
 93
        1
300
CONTENTFORMAT
  1
CONTENTFORMAT_BEGIN
 90
        0
 91
        0
 92
      512
 93
        0
300

 40
0.0
140
1.0
 94
        5
 62
     0
340
A784
144
0.18
309
CONTENTFORMAT_END
171
     1
301
MARGIN
  1
CELLMARGIN_BEGIN
 40
0.06
 40
0.06
 40
0.06
 40
0.06
 40
0.18
 40
0.18
309
CELLMARGIN_END
 94
        6
 95
        1
302
GRIDFORMAT
  1
GRIDFORMAT_BEGIN
 90
        0
 91
        1
 62
     0
 92
       -2
340
0
 93
        0
 40
0.045
309
GRIDFORMAT_END
 95
        2
302
GRIDFORMAT
  1
GRIDFORMAT_BEGIN
 90
        0
 91
        1
 62
     0
 92
       -2
340
0
 93
        0
 40
0.045
309
GRIDFORMAT_END
 95
        4
302
GRIDFORMAT
  1
GRIDFORMAT_BEGIN
 90
        0
 91
        1
 62
     0
 92
       -2
340
0
 93
        0
 40
0.045
309
GRIDFORMAT_END
 95
        8
302
GRIDFORMAT
  1
GRIDFORMAT_BEGIN
 90
        0
 91
        1
 62
     0
 92
       -2
340
0
 93
        0
 40
0.045
309
GRIDFORMAT_END
 95
       16
302
GRIDFORMAT
  1
GRIDFORMAT_BEGIN
 90
        0
 91
        1
 62
     0
 92
       -2
340
0
 93
        0
 40
0.045
309
GRIDFORMAT_END
 95
       32
302
GRIDFORMAT
  1
GRIDFORMAT_BEGIN
 90
        0
 91
        1
 62
     0
 92
       -2
340
0
 93
        0
 40
0.045
309
GRIDFORMAT_END
309
TABLEFORMAT_END
  1
CELLSTYLE_BEGIN
 90
        2
 91
        1
300
_HEADER
309
CELLSTYLE_END
300
CELLSTYLE
  1
TABLEFORMAT_BEGIN
 90
        5
170
     1
 91
        0
 92
        0
 62
   257
 93
        1
300
CONTENTFORMAT
  1
CONTENTFORMAT_BEGIN
 90
        0
 91
        0
 92
      512
 93
        0
300

 40
0.0
140
1.0
 94
        2
 62
     0
340
A784
144
0.18
309
CONTENTFORMAT_END
171
     1
301
MARGIN
  1
CELLMARGIN_BEGIN
 40
0.06
 40
0.06
 40
0.06
 40
0.06
 40
0.18
 40
0.18
309
CELLMARGIN_END
 94
        6
 95
        1
302
GRIDFORMAT
  1
GRIDFORMAT_BEGIN
 90
        0
 91
        1
 62
     0
 92
       -2
340
0
 93
        0
 40
0.045
309
GRIDFORMAT_END
 95
        2
302
GRIDFORMAT
  1
GRIDFORMAT_BEGIN
 90
        0
 91
        1
 62
     0
 92
       -2
340
0
 93
        0
 40
0.045
309
GRIDFORMAT_END
 95
        4
302
GRIDFORMAT
  1
GRIDFORMAT_BEGIN
 90
        0
 91
        1
 62
     0
 92
       -2
340
0
 93
        0
 40
0.045
309
GRIDFORMAT_END
 95
        8
302
GRIDFORMAT
  1
GRIDFORMAT_BEGIN
 90
        0
 91
        1
 62
     0
 92
       -2
340
0
 93
        0
 40
0.045
309
GRIDFORMAT_END
 95
       16
302
GRIDFORMAT
  1
GRIDFORMAT_BEGIN
 90
        0
 91
        1
 62
     0
 92
       -2
340
0
 93
        0
 40
0.045
309
GRIDFORMAT_END
 95
       32
302
GRIDFORMAT
  1
GRIDFORMAT_BEGIN
 90
        0
 91
        1
 62
     0
 92
       -2
340
0
 93
        0
 40
0.045
309
GRIDFORMAT_END
309
TABLEFORMAT_END
  1
CELLSTYLE_BEGIN
 90
        3
 91
        2
300
_DATA
309
CELLSTYLE_END
  0
XRECORD
  5
AAC2
102
{ACAD_REACTORS
330
A8BE
102
}
330
A8BE
100
AcDbXrecord
280
     1
102
ACAD_ROUNDTRIP_PRE2007_TABLESTYLE
 90
      512
 91
        0
  1

 92
      512
 93
        0
  2

 94
      512
 95
        0
  3

  0
XRECORD
  5
AA9D
102
{ACAD_REACTORS
330
AA9C
102
}
330
AA9C
100
AcDbXrecord
280
     1
102
RTVSPost2010Prop28
280
     1
102
RTVSPost2010PropOp28
 70
     1
102
RTVSPost2010Prop29
280
     1
102
RTVSPost2010PropOp29
 70
     1
102
RTVSPost2010Prop30
280
     0
102
RTVSPost2010PropOp30
 70
     1
102
RTVSPost2010Prop31
280
     0
102
RTVSPost2010PropOp31
 70
     1
102
RTVSPost2010Prop32
280
     0
102
RTVSPost2010PropOp32
 70
     1
102
RTVSPost2010Prop33
280
     0
102
RTVSPost2010PropOp33
 70
     1
102
RTVSPost2010Prop34
280
     0
102
RTVSPost2010PropOp34
 70
     1
102
RTVSPost2010Prop35
280
     0
102
RTVSPost2010PropOp35
 70
     1
102
RTVSPost2010Prop36
280
     0
102
RTVSPost2010PropOp36
 70
     1
102
RTVSPost2010Prop37
 90
       50
102
RTVSPost2010PropOp37
 70
     1
102
RTVSPost2010Prop38
140
0.0
102
RTVSPost2010PropOp38
 70
     1
102
RTVSPost2010Prop39
140
1.0
102
RTVSPost2010PropOp39
 70
     1
102
RTVSPost2010Prop40
 90
        0
102
RTVSPost2010PropOp40
 70
     1
102
RTVSPost2010Prop41ColorIndex
 90
       18
102
RTVSPost2010Prop41ColorRGB
 90
-16777216
102
RTVSPost2010PropOp41
 70
     1
102
RTVSPost2010Prop42
 90
       50
102
RTVSPost2010PropOp42
 70
     1
102
RTVSPost2010Prop43
 90
        3
102
RTVSPost2010PropOp43
 70
     1
102
RTVSPost2010Prop44ColorIndex
 90
        5
102
RTVSPost2010Prop44ColorRGB
 90
      255
102
RTVSPost2010PropOp44
 70
     1
102
RTVSPost2010Prop45
280
     0
102
RTVSPost2010PropOp45
 70
     1
102
RTVSPost2010Prop46
 90
       50
102
RTVSPost2010PropOp46
 70
     1
102
RTVSPost2010Prop47
 90
       50
102
RTVSPost2010PropOp47
 70
     1
102
RTVSPost2010Prop48
 90
       50
102
RTVSPost2010PropOp48
 70
     1
102
RTVSPost2010Prop49
280
     0
102
RTVSPost2010PropOp49
 70
     1
102
RTVSPost2010Prop50
 90
       50
102
RTVSPost2010PropOp50
 70
     1
102
RTVSPost2010Prop51ColorIndex
 90
      256
102
RTVSPost2010Prop51ColorRGB
 90
-16777216
102
RTVSPost2010PropOp51
 70
     0
102
RTVSPost2010Prop52
140
1.0
102
RTVSPost2010PropOp52
 70
     0
102
RTVSPost2010Prop53
 90
        2
102
RTVSPost2010PropOp53
 70
     1
102
RTVSPost2010Prop54
  1
strokes_ogs.tif
102
RTVSPost2010PropOp54
 70
     1
102
RTVSPost2010Prop55
280
     0
102
RTVSPost2010PropOp55
 70
     1
102
RTVSPost2010Prop56
140
1.0
102
RTVSPost2010PropOp56
 70
     1
102
RTVSPost2010Prop57
140
1.0
102
RTVSPost2010PropOp57
 70
     1
102
RTVSPropertyOp0
 70
     1
102
RTVSPropertyOp1
 70
     1
102
RTVSPropertyOp2
 70
     1
102
RTVSPropertyOp3
 70
     1
102
RTVSPropertyOp4
 70
     1
102
RTVSPropertyOp5
 70
     1
102
RTVSPropertyOp6
 70
     1
102
RTVSPropertyOp7
 70
     1
102
RTVSPropertyOp8
 70
     1
102
RTVSPropertyOp9
 70
     1
102
RTVSPropertyOp10
 70
     1
102
RTVSPropertyOp11
 70
     1
102
RTVSPropertyOp12
 70
     1
102
RTVSPropertyOp13
 70
     1
102
RTVSPropertyOp14
 70
     1
102
RTVSPropertyOp15
 70
     1
102
RTVSPropertyOp16
 70
     1
102
RTVSPropertyOp17
 70
     1
102
RTVSPropertyOp18
 70
     1
102
RTVSPropertyOp19
 70
     1
102
RTVSPropertyOp20
 70
     1
102
RTVSPropertyOp21
 70
     1
102
RTVSPropertyOp22
 70
     1
102
RTVSPropertyOp23
 70
     1
102
RTVSPropertyOp24
 70
     1
102
RTVSPropertyOp25
 70
     1
102
RTVSPropertyOp26
 70
     1
102
RTVSPropertyOp27
 70
     1
102
RTVSPropertyOp28
 70
     1
102
RTVSPropertyOp29
 70
     1
102
RTVSPropertyOp30
 70
     1
102
RTVSPropertyOp31
 70
     1
102
RTVSPropertyOp32
 70
     1
102
RTVSPropertyOp33
 70
     1
102
RTVSPropertyOp34
 70
     1
102
RTVSPropertyOp35
 70
     1
102
RTVSPropertyOp36
 70
     1
102
RTVSPropertyOp37
 70
     1
102
RTVSPropertyOp38
 70
     1
102
RTVSPropertyOp39
 70
     1
102
RTVSPropertyOp40
 70
     1
102
RTVSPropertyOp41
 70
     1
102
RTVSPropertyOp42
 70
     1
102
RTVSPropertyOp43
 70
     1
102
RTVSPropertyOp44
 70
     1
102
RTVSPropertyOp45
 70
     1
102
RTVSPropertyOp46
 70
     1
102
RTVSPropertyOp47
 70
     1
102
RTVSPropertyOp48
 70
     1
102
RTVSPropertyOp49
 70
     1
102
RTVSPropertyOp50
 70
     1
102
RTVSPropertyOp51
 70
     0
102
RTVSPropertyOp52
 70
     0
102
RTVSPropertyOp53
 70
     1
102
RTVSPropertyOp54
 70
     1
102
RTVSPropertyOp55
 70
     1
102
RTVSPropertyOp56
 70
     1
102
RTVSPropertyOp57
 70
     1
102
RTVSPropertyOp58
 70
     1
102
RTVSPropertyOp59
 70
     1
102
RTVSPropertyOp60
 70
     1
102
RTVSPropertyOp61
 70
     1
102
RTVSPropertyOp62
 70
     1
  0
XRECORD
  5
AA9B
102
{ACAD_REACTORS
330
AA9A
102
}
330
AA9A
100
AcDbXrecord
280
     1
102
RTVSPost2010Prop28
280
     0
102
RTVSPost2010PropOp28
 70
     1
102
RTVSPost2010Prop29
280
     1
102
RTVSPost2010PropOp29
 70
     1
102
RTVSPost2010Prop30
280
     1
102
RTVSPost2010PropOp30
 70
     1
102
RTVSPost2010Prop31
280
     0
102
RTVSPost2010PropOp31
 70
     1
102
RTVSPost2010Prop32
280
     0
102
RTVSPost2010PropOp32
 70
     1
102
RTVSPost2010Prop33
280
     0
102
RTVSPost2010PropOp33
 70
     1
102
RTVSPost2010Prop34
280
     0
102
RTVSPost2010PropOp34
 70
     1
102
RTVSPost2010Prop35
280
     0
102
RTVSPost2010PropOp35
 70
     1
102
RTVSPost2010Prop36
280
     0
102
RTVSPost2010PropOp36
 70
     1
102
RTVSPost2010Prop37
 90
       50
102
RTVSPost2010PropOp37
 70
     1
102
RTVSPost2010Prop38
140
0.0
102
RTVSPost2010PropOp38
 70
     1
102
RTVSPost2010Prop39
140
1.0
102
RTVSPost2010PropOp39
 70
     1
102
RTVSPost2010Prop40
 90
        0
102
RTVSPost2010PropOp40
 70
     1
102
RTVSPost2010Prop41ColorIndex
 90
       18
102
RTVSPost2010Prop41ColorRGB
 90
-16777216
102
RTVSPost2010PropOp41
 70
     1
102
RTVSPost2010Prop42
 90
       50
102
RTVSPost2010PropOp42
 70
     1
102
RTVSPost2010Prop43
 90
        3
102
RTVSPost2010PropOp43
 70
     1
102
RTVSPost2010Prop44ColorIndex
 90
        5
102
RTVSPost2010Prop44ColorRGB
 90
      255
102
RTVSPost2010PropOp44
 70
     1
102
RTVSPost2010Prop45
280
     0
102
RTVSPost2010PropOp45
 70
     1
102
RTVSPost2010Prop46
 90
       50
102
RTVSPost2010PropOp46
 70
     1
102
RTVSPost2010Prop47
 90
       50
102
RTVSPost2010PropOp47
 70
     1
102
RTVSPost2010Prop48
 90
       50
102
RTVSPost2010PropOp48
 70
     1
102
RTVSPost2010Prop49
280
     0
102
RTVSPost2010PropOp49
 70
     1
102
RTVSPost2010Prop50
 90
       50
102
RTVSPost2010PropOp50
 70
     1
102
RTVSPost2010Prop51ColorIndex
 90
      256
102
RTVSPost2010Prop51ColorRGB
 90
-16777216
102
RTVSPost2010PropOp51
 70
     0
102
RTVSPost2010Prop52
140
1.0
102
RTVSPost2010PropOp52
 70
     0
102
RTVSPost2010Prop53
 90
        2
102
RTVSPost2010PropOp53
 70
     1
102
RTVSPost2010Prop54
  1
strokes_ogs.tif
102
RTVSPost2010PropOp54
 70
     1
102
RTVSPost2010Prop55
280
     0
102
RTVSPost2010PropOp55
 70
     1
102
RTVSPost2010Prop56
140
1.0
102
RTVSPost2010PropOp56
 70
     1
102
RTVSPost2010Prop57
140
1.0
102
RTVSPost2010PropOp57
 70
     1
102
RTVSPropertyOp0
 70
     1
102
RTVSPropertyOp1
 70
     1
102
RTVSPropertyOp2
 70
     1
102
RTVSPropertyOp3
 70
     1
102
RTVSPropertyOp4
 70
     1
102
RTVSPropertyOp5
 70
     1
102
RTVSPropertyOp6
 70
     1
102
RTVSPropertyOp7
 70
     1
102
RTVSPropertyOp8
 70
     1
102
RTVSPropertyOp9
 70
     1
102
RTVSPropertyOp10
 70
     1
102
RTVSPropertyOp11
 70
     1
102
RTVSPropertyOp12
 70
     1
102
RTVSPropertyOp13
 70
     1
102
RTVSPropertyOp14
 70
     1
102
RTVSPropertyOp15
 70
     1
102
RTVSPropertyOp16
 70
     1
102
RTVSPropertyOp17
 70
     1
102
RTVSPropertyOp18
 70
     1
102
RTVSPropertyOp19
 70
     1
102
RTVSPropertyOp20
 70
     1
102
RTVSPropertyOp21
 70
     1
102
RTVSPropertyOp22
 70
     1
102
RTVSPropertyOp23
 70
     1
102
RTVSPropertyOp24
 70
     1
102
RTVSPropertyOp25
 70
     1
102
RTVSPropertyOp26
 70
     1
102
RTVSPropertyOp27
 70
     1
102
RTVSPropertyOp28
 70
     1
102
RTVSPropertyOp29
 70
     1
102
RTVSPropertyOp30
 70
     1
102
RTVSPropertyOp31
 70
     1
102
RTVSPropertyOp32
 70
     1
102
RTVSPropertyOp33
 70
     1
102
RTVSPropertyOp34
 70
     1
102
RTVSPropertyOp35
 70
     1
102
RTVSPropertyOp36
 70
     1
102
RTVSPropertyOp37
 70
     1
102
RTVSPropertyOp38
 70
     1
102
RTVSPropertyOp39
 70
     1
102
RTVSPropertyOp40
 70
     1
102
RTVSPropertyOp41
 70
     1
102
RTVSPropertyOp42
 70
     1
102
RTVSPropertyOp43
 70
     1
102
RTVSPropertyOp44
 70
     1
102
RTVSPropertyOp45
 70
     1
102
RTVSPropertyOp46
 70
     1
102
RTVSPropertyOp47
 70
     1
102
RTVSPropertyOp48
 70
     1
102
RTVSPropertyOp49
 70
     1
102
RTVSPropertyOp50
 70
     1
102
RTVSPropertyOp51
 70
     0
102
RTVSPropertyOp52
 70
     0
102
RTVSPropertyOp53
 70
     1
102
RTVSPropertyOp54
 70
     1
102
RTVSPropertyOp55
 70
     1
102
RTVSPropertyOp56
 70
     1
102
RTVSPropertyOp57
 70
     1
102
RTVSPropertyOp58
 70
     1
102
RTVSPropertyOp59
 70
     1
102
RTVSPropertyOp60
 70
     1
102
RTVSPropertyOp61
 70
     1
102
RTVSPropertyOp62
 70
     1
  0
XRECORD
  5
AAA9
102
{ACAD_REACTORS
330
AAA8
102
}
330
AAA8
100
AcDbXrecord
280
     1
102
RTVSPost2010Prop28
280
     0
102
RTVSPost2010PropOp28
 70
     1
102
RTVSPost2010Prop29
280
     1
102
RTVSPost2010PropOp29
 70
     1
102
RTVSPost2010Prop30
280
     1
102
RTVSPost2010PropOp30
 70
     1
102
RTVSPost2010Prop31
280
     0
102
RTVSPost2010PropOp31
 70
     1
102
RTVSPost2010Prop32
280
     0
102
RTVSPost2010PropOp32
 70
     1
102
RTVSPost2010Prop33
280
     0
102
RTVSPost2010PropOp33
 70
     1
102
RTVSPost2010Prop34
280
     0
102
RTVSPost2010PropOp34
 70
     1
102
RTVSPost2010Prop35
280
     0
102
RTVSPost2010PropOp35
 70
     1
102
RTVSPost2010Prop36
280
     0
102
RTVSPost2010PropOp36
 70
     1
102
RTVSPost2010Prop37
 90
       50
102
RTVSPost2010PropOp37
 70
     1
102
RTVSPost2010Prop38
140
0.0
102
RTVSPost2010PropOp38
 70
     1
102
RTVSPost2010Prop39
140
1.0
102
RTVSPost2010PropOp39
 70
     1
102
RTVSPost2010Prop40
 90
        0
102
RTVSPost2010PropOp40
 70
     1
102
RTVSPost2010Prop41ColorIndex
 90
       18
102
RTVSPost2010Prop41ColorRGB
 90
-16777216
102
RTVSPost2010PropOp41
 70
     1
102
RTVSPost2010Prop42
 90
       50
102
RTVSPost2010PropOp42
 70
     1
102
RTVSPost2010Prop43
 90
        3
102
RTVSPost2010PropOp43
 70
     1
102
RTVSPost2010Prop44ColorIndex
 90
        5
102
RTVSPost2010Prop44ColorRGB
 90
      255
102
RTVSPost2010PropOp44
 70
     1
102
RTVSPost2010Prop45
280
     0
102
RTVSPost2010PropOp45
 70
     1
102
RTVSPost2010Prop46
 90
       50
102
RTVSPost2010PropOp46
 70
     1
102
RTVSPost2010Prop47
 90
       50
102
RTVSPost2010PropOp47
 70
     1
102
RTVSPost2010Prop48
 90
       50
102
RTVSPost2010PropOp48
 70
     1
102
RTVSPost2010Prop49
280
     0
102
RTVSPost2010PropOp49
 70
     1
102
RTVSPost2010Prop50
 90
       50
102
RTVSPost2010PropOp50
 70
     1
102
RTVSPost2010Prop51ColorIndex
 90
      256
102
RTVSPost2010Prop51ColorRGB
 90
-16777216
102
RTVSPost2010PropOp51
 70
     0
102
RTVSPost2010Prop52
140
1.0
102
RTVSPost2010PropOp52
 70
     0
102
RTVSPost2010Prop53
 90
        2
102
RTVSPost2010PropOp53
 70
     1
102
RTVSPost2010Prop54
  1
strokes_ogs.tif
102
RTVSPost2010PropOp54
 70
     1
102
RTVSPost2010Prop55
280
     0
102
RTVSPost2010PropOp55
 70
     1
102
RTVSPost2010Prop56
140
1.0
102
RTVSPost2010PropOp56
 70
     1
102
RTVSPost2010Prop57
140
1.0
102
RTVSPost2010PropOp57
 70
     1
102
RTVSPropertyOp0
 70
     1
102
RTVSPropertyOp1
 70
     1
102
RTVSPropertyOp2
 70
     1
102
RTVSPropertyOp3
 70
     1
102
RTVSPropertyOp4
 70
     1
102
RTVSPropertyOp5
 70
     1
102
RTVSPropertyOp6
 70
     1
102
RTVSPropertyOp7
 70
     1
102
RTVSPropertyOp8
 70
     1
102
RTVSPropertyOp9
 70
     1
102
RTVSPropertyOp10
 70
     1
102
RTVSPropertyOp11
 70
     1
102
RTVSPropertyOp12
 70
     1
102
RTVSPropertyOp13
 70
     1
102
RTVSPropertyOp14
 70
     1
102
RTVSPropertyOp15
 70
     1
102
RTVSPropertyOp16
 70
     1
102
RTVSPropertyOp17
 70
     1
102
RTVSPropertyOp18
 70
     1
102
RTVSPropertyOp19
 70
     1
102
RTVSPropertyOp20
 70
     1
102
RTVSPropertyOp21
 70
     1
102
RTVSPropertyOp22
 70
     1
102
RTVSPropertyOp23
 70
     1
102
RTVSPropertyOp24
 70
     1
102
RTVSPropertyOp25
 70
     1
102
RTVSPropertyOp26
 70
     1
102
RTVSPropertyOp27
 70
     1
102
RTVSPropertyOp28
 70
     1
102
RTVSPropertyOp29
 70
     1
102
RTVSPropertyOp30
 70
     1
102
RTVSPropertyOp31
 70
     1
102
RTVSPropertyOp32
 70
     1
102
RTVSPropertyOp33
 70
     1
102
RTVSPropertyOp34
 70
     1
102
RTVSPropertyOp35
 70
     1
102
RTVSPropertyOp36
 70
     1
102
RTVSPropertyOp37
 70
     1
102
RTVSPropertyOp38
 70
     1
102
RTVSPropertyOp39
 70
     1
102
RTVSPropertyOp40
 70
     1
102
RTVSPropertyOp41
 70
     1
102
RTVSPropertyOp42
 70
     1
102
RTVSPropertyOp43
 70
     1
102
RTVSPropertyOp44
 70
     1
102
RTVSPropertyOp45
 70
     1
102
RTVSPropertyOp46
 70
     1
102
RTVSPropertyOp47
 70
     1
102
RTVSPropertyOp48
 70
     1
102
RTVSPropertyOp49
 70
     1
102
RTVSPropertyOp50
 70
     1
102
RTVSPropertyOp51
 70
     0
102
RTVSPropertyOp52
 70
     0
102
RTVSPropertyOp53
 70
     1
102
RTVSPropertyOp54
 70
     1
102
RTVSPropertyOp55
 70
     1
102
RTVSPropertyOp56
 70
     1
102
RTVSPropertyOp57
 70
     1
102
RTVSPropertyOp58
 70
     1
102
RTVSPropertyOp59
 70
     1
102
RTVSPropertyOp60
 70
     1
102
RTVSPropertyOp61
 70
     1
102
RTVSPropertyOp62
 70
     1
  0
XRECORD
  5
AAB1
102
{ACAD_REACTORS
330
AAB0
102
}
330
AAB0
100
AcDbXrecord
280
     1
102
RTVSPost2010Prop28
280
     0
102
RTVSPost2010PropOp28
 70
     1
102
RTVSPost2010Prop29
280
     1
102
RTVSPost2010PropOp29
 70
     1
102
RTVSPost2010Prop30
280
     1
102
RTVSPost2010PropOp30
 70
     1
102
RTVSPost2010Prop31
280
     0
102
RTVSPost2010PropOp31
 70
     1
102
RTVSPost2010Prop32
280
     0
102
RTVSPost2010PropOp32
 70
     1
102
RTVSPost2010Prop33
280
     0
102
RTVSPost2010PropOp33
 70
     1
102
RTVSPost2010Prop34
280
     0
102
RTVSPost2010PropOp34
 70
     1
102
RTVSPost2010Prop35
280
     0
102
RTVSPost2010PropOp35
 70
     1
102
RTVSPost2010Prop36
280
     0
102
RTVSPost2010PropOp36
 70
     1
102
RTVSPost2010Prop37
 90
       50
102
RTVSPost2010PropOp37
 70
     1
102
RTVSPost2010Prop38
140
0.0
102
RTVSPost2010PropOp38
 70
     1
102
RTVSPost2010Prop39
140
1.0
102
RTVSPost2010PropOp39
 70
     1
102
RTVSPost2010Prop40
 90
        0
102
RTVSPost2010PropOp40
 70
     1
102
RTVSPost2010Prop41ColorIndex
 90
       18
102
RTVSPost2010Prop41ColorRGB
 90
-16777216
102
RTVSPost2010PropOp41
 70
     1
102
RTVSPost2010Prop42
 90
       50
102
RTVSPost2010PropOp42
 70
     1
102
RTVSPost2010Prop43
 90
        3
102
RTVSPost2010PropOp43
 70
     1
102
RTVSPost2010Prop44ColorIndex
 90
        5
102
RTVSPost2010Prop44ColorRGB
 90
      255
102
RTVSPost2010PropOp44
 70
     1
102
RTVSPost2010Prop45
280
     0
102
RTVSPost2010PropOp45
 70
     1
102
RTVSPost2010Prop46
 90
       50
102
RTVSPost2010PropOp46
 70
     1
102
RTVSPost2010Prop47
 90
       50
102
RTVSPost2010PropOp47
 70
     1
102
RTVSPost2010Prop48
 90
       50
102
RTVSPost2010PropOp48
 70
     1
102
RTVSPost2010Prop49
280
     0
102
RTVSPost2010PropOp49
 70
     1
102
RTVSPost2010Prop50
 90
       50
102
RTVSPost2010PropOp50
 70
     1
102
RTVSPost2010Prop51ColorIndex
 90
      256
102
RTVSPost2010Prop51ColorRGB
 90
-16777216
102
RTVSPost2010PropOp51
 70
     0
102
RTVSPost2010Prop52
140
1.0
102
RTVSPost2010PropOp52
 70
     0
102
RTVSPost2010Prop53
 90
        2
102
RTVSPost2010PropOp53
 70
     1
102
RTVSPost2010Prop54
  1
strokes_ogs.tif
102
RTVSPost2010PropOp54
 70
     1
102
RTVSPost2010Prop55
280
     0
102
RTVSPost2010PropOp55
 70
     1
102
RTVSPost2010Prop56
140
1.0
102
RTVSPost2010PropOp56
 70
     1
102
RTVSPost2010Prop57
140
1.0
102
RTVSPost2010PropOp57
 70
     1
102
RTVSPropertyOp0
 70
     1
102
RTVSPropertyOp1
 70
     1
102
RTVSPropertyOp2
 70
     1
102
RTVSPropertyOp3
 70
     1
102
RTVSPropertyOp4
 70
     1
102
RTVSPropertyOp5
 70
     1
102
RTVSPropertyOp6
 70
     1
102
RTVSPropertyOp7
 70
     1
102
RTVSPropertyOp8
 70
     1
102
RTVSPropertyOp9
 70
     1
102
RTVSPropertyOp10
 70
     1
102
RTVSPropertyOp11
 70
     1
102
RTVSPropertyOp12
 70
     1
102
RTVSPropertyOp13
 70
     1
102
RTVSPropertyOp14
 70
     1
102
RTVSPropertyOp15
 70
     1
102
RTVSPropertyOp16
 70
     1
102
RTVSPropertyOp17
 70
     1
102
RTVSPropertyOp18
 70
     1
102
RTVSPropertyOp19
 70
     1
102
RTVSPropertyOp20
 70
     1
102
RTVSPropertyOp21
 70
     1
102
RTVSPropertyOp22
 70
     1
102
RTVSPropertyOp23
 70
     1
102
RTVSPropertyOp24
 70
     1
102
RTVSPropertyOp25
 70
     1
102
RTVSPropertyOp26
 70
     1
102
RTVSPropertyOp27
 70
     1
102
RTVSPropertyOp28
 70
     1
102
RTVSPropertyOp29
 70
     1
102
RTVSPropertyOp30
 70
     1
102
RTVSPropertyOp31
 70
     1
102
RTVSPropertyOp32
 70
     1
102
RTVSPropertyOp33
 70
     1
102
RTVSPropertyOp34
 70
     1
102
RTVSPropertyOp35
 70
     1
102
RTVSPropertyOp36
 70
     1
102
RTVSPropertyOp37
 70
     1
102
RTVSPropertyOp38
 70
     1
102
RTVSPropertyOp39
 70
     1
102
RTVSPropertyOp40
 70
     1
102
RTVSPropertyOp41
 70
     1
102
RTVSPropertyOp42
 70
     1
102
RTVSPropertyOp43
 70
     1
102
RTVSPropertyOp44
 70
     1
102
RTVSPropertyOp45
 70
     1
102
RTVSPropertyOp46
 70
     1
102
RTVSPropertyOp47
 70
     1
102
RTVSPropertyOp48
 70
     1
102
RTVSPropertyOp49
 70
     1
102
RTVSPropertyOp50
 70
     1
102
RTVSPropertyOp51
 70
     0
102
RTVSPropertyOp52
 70
     0
102
RTVSPropertyOp53
 70
     1
102
RTVSPropertyOp54
 70
     1
102
RTVSPropertyOp55
 70
     1
102
RTVSPropertyOp56
 70
     1
102
RTVSPropertyOp57
 70
     1
102
RTVSPropertyOp58
 70
     1
102
RTVSPropertyOp59
 70
     1
102
RTVSPropertyOp60
 70
     1
102
RTVSPropertyOp61
 70
     1
102
RTVSPropertyOp62
 70
     1
  0
XRECORD
  5
AAA3
102
{ACAD_REACTORS
330
AAA2
102
}
330
AAA2
100
AcDbXrecord
280
     1
102
RTVSPost2010Prop28
280
     0
102
RTVSPost2010PropOp28
 70
     1
102
RTVSPost2010Prop29
280
     1
102
RTVSPost2010PropOp29
 70
     1
102
RTVSPost2010Prop30
280
     1
102
RTVSPost2010PropOp30
 70
     1
102
RTVSPost2010Prop31
280
     0
102
RTVSPost2010PropOp31
 70
     1
102
RTVSPost2010Prop32
280
     0
102
RTVSPost2010PropOp32
 70
     1
102
RTVSPost2010Prop33
280
     0
102
RTVSPost2010PropOp33
 70
     1
102
RTVSPost2010Prop34
280
     0
102
RTVSPost2010PropOp34
 70
     1
102
RTVSPost2010Prop35
280
     0
102
RTVSPost2010PropOp35
 70
     1
102
RTVSPost2010Prop36
280
     0
102
RTVSPost2010PropOp36
 70
     1
102
RTVSPost2010Prop37
 90
       50
102
RTVSPost2010PropOp37
 70
     1
102
RTVSPost2010Prop38
140
0.0
102
RTVSPost2010PropOp38
 70
     1
102
RTVSPost2010Prop39
140
1.0
102
RTVSPost2010PropOp39
 70
     1
102
RTVSPost2010Prop40
 90
        0
102
RTVSPost2010PropOp40
 70
     1
102
RTVSPost2010Prop41ColorIndex
 90
       18
102
RTVSPost2010Prop41ColorRGB
 90
-16777216
102
RTVSPost2010PropOp41
 70
     1
102
RTVSPost2010Prop42
 90
       50
102
RTVSPost2010PropOp42
 70
     1
102
RTVSPost2010Prop43
 90
        3
102
RTVSPost2010PropOp43
 70
     1
102
RTVSPost2010Prop44ColorIndex
 90
        5
102
RTVSPost2010Prop44ColorRGB
 90
      255
102
RTVSPost2010PropOp44
 70
     1
102
RTVSPost2010Prop45
280
     0
102
RTVSPost2010PropOp45
 70
     1
102
RTVSPost2010Prop46
 90
       50
102
RTVSPost2010PropOp46
 70
     1
102
RTVSPost2010Prop47
 90
       50
102
RTVSPost2010PropOp47
 70
     1
102
RTVSPost2010Prop48
 90
       50
102
RTVSPost2010PropOp48
 70
     1
102
RTVSPost2010Prop49
280
     0
102
RTVSPost2010PropOp49
 70
     1
102
RTVSPost2010Prop50
 90
       50
102
RTVSPost2010PropOp50
 70
     1
102
RTVSPost2010Prop51ColorIndex
 90
      256
102
RTVSPost2010Prop51ColorRGB
 90
-16777216
102
RTVSPost2010PropOp51
 70
     0
102
RTVSPost2010Prop52
140
1.0
102
RTVSPost2010PropOp52
 70
     0
102
RTVSPost2010Prop53
 90
        2
102
RTVSPost2010PropOp53
 70
     1
102
RTVSPost2010Prop54
  1
strokes_ogs.tif
102
RTVSPost2010PropOp54
 70
     1
102
RTVSPost2010Prop55
280
     0
102
RTVSPost2010PropOp55
 70
     1
102
RTVSPost2010Prop56
140
1.0
102
RTVSPost2010PropOp56
 70
     1
102
RTVSPost2010Prop57
140
1.0
102
RTVSPost2010PropOp57
 70
     1
102
RTVSPropertyOp0
 70
     1
102
RTVSPropertyOp1
 70
     1
102
RTVSPropertyOp2
 70
     1
102
RTVSPropertyOp3
 70
     1
102
RTVSPropertyOp4
 70
     1
102
RTVSPropertyOp5
 70
     1
102
RTVSPropertyOp6
 70
     1
102
RTVSPropertyOp7
 70
     1
102
RTVSPropertyOp8
 70
     1
102
RTVSPropertyOp9
 70
     1
102
RTVSPropertyOp10
 70
     1
102
RTVSPropertyOp11
 70
     1
102
RTVSPropertyOp12
 70
     1
102
RTVSPropertyOp13
 70
     1
102
RTVSPropertyOp14
 70
     1
102
RTVSPropertyOp15
 70
     1
102
RTVSPropertyOp16
 70
     1
102
RTVSPropertyOp17
 70
     1
102
RTVSPropertyOp18
 70
     1
102
RTVSPropertyOp19
 70
     1
102
RTVSPropertyOp20
 70
     1
102
RTVSPropertyOp21
 70
     1
102
RTVSPropertyOp22
 70
     1
102
RTVSPropertyOp23
 70
     1
102
RTVSPropertyOp24
 70
     1
102
RTVSPropertyOp25
 70
     1
102
RTVSPropertyOp26
 70
     1
102
RTVSPropertyOp27
 70
     1
102
RTVSPropertyOp28
 70
     1
102
RTVSPropertyOp29
 70
     1
102
RTVSPropertyOp30
 70
     1
102
RTVSPropertyOp31
 70
     1
102
RTVSPropertyOp32
 70
     1
102
RTVSPropertyOp33
 70
     1
102
RTVSPropertyOp34
 70
     1
102
RTVSPropertyOp35
 70
     1
102
RTVSPropertyOp36
 70
     1
102
RTVSPropertyOp37
 70
     1
102
RTVSPropertyOp38
 70
     1
102
RTVSPropertyOp39
 70
     1
102
RTVSPropertyOp40
 70
     1
102
RTVSPropertyOp41
 70
     1
102
RTVSPropertyOp42
 70
     1
102
RTVSPropertyOp43
 70
     1
102
RTVSPropertyOp44
 70
     1
102
RTVSPropertyOp45
 70
     1
102
RTVSPropertyOp46
 70
     1
102
RTVSPropertyOp47
 70
     1
102
RTVSPropertyOp48
 70
     1
102
RTVSPropertyOp49
 70
     1
102
RTVSPropertyOp50
 70
     1
102
RTVSPropertyOp51
 70
     0
102
RTVSPropertyOp52
 70
     0
102
RTVSPropertyOp53
 70
     1
102
RTVSPropertyOp54
 70
     1
102
RTVSPropertyOp55
 70
     1
102
RTVSPropertyOp56
 70
     1
102
RTVSPropertyOp57
 70
     1
102
RTVSPropertyOp58
 70
     1
102
RTVSPropertyOp59
 70
     1
102
RTVSPropertyOp60
 70
     1
102
RTVSPropertyOp61
 70
     1
102
RTVSPropertyOp62
 70
     1
  0
XRECORD
  5
AAA7
102
{ACAD_REACTORS
330
AAA6
102
}
330
AAA6
100
AcDbXrecord
280
     1
102
RTVSPost2010Prop28
280
     0
102
RTVSPost2010PropOp28
 70
     1
102
RTVSPost2010Prop29
280
     1
102
RTVSPost2010PropOp29
 70
     1
102
RTVSPost2010Prop30
280
     1
102
RTVSPost2010PropOp30
 70
     1
102
RTVSPost2010Prop31
280
     0
102
RTVSPost2010PropOp31
 70
     1
102
RTVSPost2010Prop32
280
     0
102
RTVSPost2010PropOp32
 70
     1
102
RTVSPost2010Prop33
280
     0
102
RTVSPost2010PropOp33
 70
     1
102
RTVSPost2010Prop34
280
     0
102
RTVSPost2010PropOp34
 70
     1
102
RTVSPost2010Prop35
280
     0
102
RTVSPost2010PropOp35
 70
     1
102
RTVSPost2010Prop36
280
     0
102
RTVSPost2010PropOp36
 70
     1
102
RTVSPost2010Prop37
 90
       50
102
RTVSPost2010PropOp37
 70
     1
102
RTVSPost2010Prop38
140
0.0
102
RTVSPost2010PropOp38
 70
     1
102
RTVSPost2010Prop39
140
1.0
102
RTVSPost2010PropOp39
 70
     1
102
RTVSPost2010Prop40
 90
        0
102
RTVSPost2010PropOp40
 70
     1
102
RTVSPost2010Prop41ColorIndex
 90
       18
102
RTVSPost2010Prop41ColorRGB
 90
-16777216
102
RTVSPost2010PropOp41
 70
     1
102
RTVSPost2010Prop42
 90
       50
102
RTVSPost2010PropOp42
 70
     1
102
RTVSPost2010Prop43
 90
        3
102
RTVSPost2010PropOp43
 70
     1
102
RTVSPost2010Prop44ColorIndex
 90
        5
102
RTVSPost2010Prop44ColorRGB
 90
      255
102
RTVSPost2010PropOp44
 70
     1
102
RTVSPost2010Prop45
280
     0
102
RTVSPost2010PropOp45
 70
     1
102
RTVSPost2010Prop46
 90
       50
102
RTVSPost2010PropOp46
 70
     1
102
RTVSPost2010Prop47
 90
       50
102
RTVSPost2010PropOp47
 70
     1
102
RTVSPost2010Prop48
 90
       50
102
RTVSPost2010PropOp48
 70
     1
102
RTVSPost2010Prop49
280
     0
102
RTVSPost2010PropOp49
 70
     1
102
RTVSPost2010Prop50
 90
       50
102
RTVSPost2010PropOp50
 70
     1
102
RTVSPost2010Prop51ColorIndex
 90
      256
102
RTVSPost2010Prop51ColorRGB
 90
-16777216
102
RTVSPost2010PropOp51
 70
     0
102
RTVSPost2010Prop52
140
1.0
102
RTVSPost2010PropOp52
 70
     0
102
RTVSPost2010Prop53
 90
        2
102
RTVSPost2010PropOp53
 70
     1
102
RTVSPost2010Prop54
  1
strokes_ogs.tif
102
RTVSPost2010PropOp54
 70
     1
102
RTVSPost2010Prop55
280
     0
102
RTVSPost2010PropOp55
 70
     1
102
RTVSPost2010Prop56
140
1.0
102
RTVSPost2010PropOp56
 70
     1
102
RTVSPost2010Prop57
140
1.0
102
RTVSPost2010PropOp57
 70
     1
102
RTVSPropertyOp0
 70
     1
102
RTVSPropertyOp1
 70
     1
102
RTVSPropertyOp2
 70
     1
102
RTVSPropertyOp3
 70
     1
102
RTVSPropertyOp4
 70
     1
102
RTVSPropertyOp5
 70
     1
102
RTVSPropertyOp6
 70
     1
102
RTVSPropertyOp7
 70
     1
102
RTVSPropertyOp8
 70
     1
102
RTVSPropertyOp9
 70
     1
102
RTVSPropertyOp10
 70
     1
102
RTVSPropertyOp11
 70
     1
102
RTVSPropertyOp12
 70
     1
102
RTVSPropertyOp13
 70
     1
102
RTVSPropertyOp14
 70
     1
102
RTVSPropertyOp15
 70
     1
102
RTVSPropertyOp16
 70
     1
102
RTVSPropertyOp17
 70
     1
102
RTVSPropertyOp18
 70
     1
102
RTVSPropertyOp19
 70
     1
102
RTVSPropertyOp20
 70
     1
102
RTVSPropertyOp21
 70
     1
102
RTVSPropertyOp22
 70
     1
102
RTVSPropertyOp23
 70
     1
102
RTVSPropertyOp24
 70
     1
102
RTVSPropertyOp25
 70
     1
102
RTVSPropertyOp26
 70
     1
102
RTVSPropertyOp27
 70
     1
102
RTVSPropertyOp28
 70
     1
102
RTVSPropertyOp29
 70
     1
102
RTVSPropertyOp30
 70
     1
102
RTVSPropertyOp31
 70
     1
102
RTVSPropertyOp32
 70
     1
102
RTVSPropertyOp33
 70
     1
102
RTVSPropertyOp34
 70
     1
102
RTVSPropertyOp35
 70
     1
102
RTVSPropertyOp36
 70
     1
102
RTVSPropertyOp37
 70
     1
102
RTVSPropertyOp38
 70
     1
102
RTVSPropertyOp39
 70
     1
102
RTVSPropertyOp40
 70
     1
102
RTVSPropertyOp41
 70
     1
102
RTVSPropertyOp42
 70
     1
102
RTVSPropertyOp43
 70
     1
102
RTVSPropertyOp44
 70
     1
102
RTVSPropertyOp45
 70
     1
102
RTVSPropertyOp46
 70
     1
102
RTVSPropertyOp47
 70
     1
102
RTVSPropertyOp48
 70
     1
102
RTVSPropertyOp49
 70
     1
102
RTVSPropertyOp50
 70
     1
102
RTVSPropertyOp51
 70
     0
102
RTVSPropertyOp52
 70
     0
102
RTVSPropertyOp53
 70
     1
102
RTVSPropertyOp54
 70
     1
102
RTVSPropertyOp55
 70
     1
102
RTVSPropertyOp56
 70
     1
102
RTVSPropertyOp57
 70
     1
102
RTVSPropertyOp58
 70
     1
102
RTVSPropertyOp59
 70
     1
102
RTVSPropertyOp60
 70
     1
102
RTVSPropertyOp61
 70
     1
102
RTVSPropertyOp62
 70
     1
  0
XRECORD
  5
AAC1
102
{ACAD_REACTORS
330
AAC0
102
}
330
AAC0
100
AcDbXrecord
280
     1
102
RTVSPost2010Prop28
280
     0
102
RTVSPost2010PropOp28
 70
     1
102
RTVSPost2010Prop29
280
     1
102
RTVSPost2010PropOp29
 70
     1
102
RTVSPost2010Prop30
280
     1
102
RTVSPost2010PropOp30
 70
     1
102
RTVSPost2010Prop31
280
     0
102
RTVSPost2010PropOp31
 70
     1
102
RTVSPost2010Prop32
280
     0
102
RTVSPost2010PropOp32
 70
     1
102
RTVSPost2010Prop33
280
     0
102
RTVSPost2010PropOp33
 70
     1
102
RTVSPost2010Prop34
280
     0
102
RTVSPost2010PropOp34
 70
     1
102
RTVSPost2010Prop35
280
     0
102
RTVSPost2010PropOp35
 70
     1
102
RTVSPost2010Prop36
280
     0
102
RTVSPost2010PropOp36
 70
     1
102
RTVSPost2010Prop37
 90
       50
102
RTVSPost2010PropOp37
 70
     0
102
RTVSPost2010Prop38
140
0.0
102
RTVSPost2010PropOp38
 70
     0
102
RTVSPost2010Prop39
140
1.0
102
RTVSPost2010PropOp39
 70
     0
102
RTVSPost2010Prop40
 90
        0
102
RTVSPost2010PropOp40
 70
     0
102
RTVSPost2010Prop41ColorIndex
 90
       18
102
RTVSPost2010Prop41ColorRGB
 90
-16777216
102
RTVSPost2010PropOp41
 70
     0
102
RTVSPost2010Prop42
 90
       50
102
RTVSPost2010PropOp42
 70
     0
102
RTVSPost2010Prop43
 90
        3
102
RTVSPost2010PropOp43
 70
     0
102
RTVSPost2010Prop44ColorIndex
 90
        5
102
RTVSPost2010Prop44ColorRGB
 90
      255
102
RTVSPost2010PropOp44
 70
     0
102
RTVSPost2010Prop45
280
     0
102
RTVSPost2010PropOp45
 70
     1
102
RTVSPost2010Prop46
 90
       50
102
RTVSPost2010PropOp46
 70
     0
102
RTVSPost2010Prop47
 90
       50
102
RTVSPost2010PropOp47
 70
     0
102
RTVSPost2010Prop48
 90
       50
102
RTVSPost2010PropOp48
 70
     0
102
RTVSPost2010Prop49
280
     0
102
RTVSPost2010PropOp49
 70
     1
102
RTVSPost2010Prop50
 90
       50
102
RTVSPost2010PropOp50
 70
     0
102
RTVSPost2010Prop51ColorIndex
 90
      256
102
RTVSPost2010Prop51ColorRGB
 90
-16777216
102
RTVSPost2010PropOp51
 70
     0
102
RTVSPost2010Prop52
140
1.0
102
RTVSPost2010PropOp52
 70
     0
102
RTVSPost2010Prop53
 90
        2
102
RTVSPost2010PropOp53
 70
     0
102
RTVSPost2010Prop54
  1
strokes_ogs.tif
102
RTVSPost2010PropOp54
 70
     0
102
RTVSPost2010Prop55
280
     0
102
RTVSPost2010PropOp55
 70
     1
102
RTVSPost2010Prop56
140
1.0
102
RTVSPost2010PropOp56
 70
     0
102
RTVSPost2010Prop57
140
1.0
102
RTVSPost2010PropOp57
 70
     0
102
RTVSPropertyOp0
 70
     0
102
RTVSPropertyOp1
 70
     0
102
RTVSPropertyOp2
 70
     0
102
RTVSPropertyOp3
 70
     0
102
RTVSPropertyOp4
 70
     0
102
RTVSPropertyOp5
 70
     0
102
RTVSPropertyOp6
 70
     0
102
RTVSPropertyOp7
 70
     0
102
RTVSPropertyOp8
 70
     0
102
RTVSPropertyOp9
 70
     0
102
RTVSPropertyOp10
 70
     0
102
RTVSPropertyOp11
 70
     0
102
RTVSPropertyOp12
 70
     0
102
RTVSPropertyOp13
 70
     0
102
RTVSPropertyOp14
 70
     2
102
RTVSPropertyOp15
 70
     0
102
RTVSPropertyOp16
 70
     0
102
RTVSPropertyOp17
 70
     0
102
RTVSPropertyOp18
 70
     0
102
RTVSPropertyOp19
 70
     0
102
RTVSPropertyOp20
 70
     0
102
RTVSPropertyOp21
 70
     0
102
RTVSPropertyOp22
 70
     0
102
RTVSPropertyOp23
 70
     0
102
RTVSPropertyOp24
 70
     0
102
RTVSPropertyOp25
 70
     0
102
RTVSPropertyOp26
 70
     0
102
RTVSPropertyOp27
 70
     0
102
RTVSPropertyOp28
 70
     1
102
RTVSPropertyOp29
 70
     1
102
RTVSPropertyOp30
 70
     1
102
RTVSPropertyOp31
 70
     1
102
RTVSPropertyOp32
 70
     1
102
RTVSPropertyOp33
 70
     1
102
RTVSPropertyOp34
 70
     1
102
RTVSPropertyOp35
 70
     1
102
RTVSPropertyOp36
 70
     1
102
RTVSPropertyOp37
 70
     0
102
RTVSPropertyOp38
 70
     0
102
RTVSPropertyOp39
 70
     0
102
RTVSPropertyOp40
 70
     0
102
RTVSPropertyOp41
 70
     0
102
RTVSPropertyOp42
 70
     0
102
RTVSPropertyOp43
 70
     0
102
RTVSPropertyOp44
 70
     0
102
RTVSPropertyOp45
 70
     1
102
RTVSPropertyOp46
 70
     0
102
RTVSPropertyOp47
 70
     0
102
RTVSPropertyOp48
 70
     0
102
RTVSPropertyOp49
 70
     1
102
RTVSPropertyOp50
 70
     0
102
RTVSPropertyOp51
 70
     0
102
RTVSPropertyOp52
 70
     0
102
RTVSPropertyOp53
 70
     0
102
RTVSPropertyOp54
 70
     0
102
RTVSPropertyOp55
 70
     1
102
RTVSPropertyOp56
 70
     0
102
RTVSPropertyOp57
 70
     0
102
RTVSPropertyOp58
 70
     1
102
RTVSPropertyOp59
 70
     1
102
RTVSPropertyOp60
 70
     1
102
RTVSPropertyOp61
 70
     1
102
RTVSPropertyOp62
 70
     1
  0
XRECORD
  5
AAAF
102
{ACAD_REACTORS
330
AAAE
102
}
330
AAAE
100
AcDbXrecord
280
     1
102
RTVSPost2010Prop28
280
     0
102
RTVSPost2010PropOp28
 70
     1
102
RTVSPost2010Prop29
280
     1
102
RTVSPost2010PropOp29
 70
     1
102
RTVSPost2010Prop30
280
     1
102
RTVSPost2010PropOp30
 70
     1
102
RTVSPost2010Prop31
280
     0
102
RTVSPost2010PropOp31
 70
     1
102
RTVSPost2010Prop32
280
     0
102
RTVSPost2010PropOp32
 70
     1
102
RTVSPost2010Prop33
280
     0
102
RTVSPost2010PropOp33
 70
     1
102
RTVSPost2010Prop34
280
     0
102
RTVSPost2010PropOp34
 70
     1
102
RTVSPost2010Prop35
280
     0
102
RTVSPost2010PropOp35
 70
     1
102
RTVSPost2010Prop36
280
     0
102
RTVSPost2010PropOp36
 70
     1
102
RTVSPost2010Prop37
 90
       50
102
RTVSPost2010PropOp37
 70
     1
102
RTVSPost2010Prop38
140
0.0
102
RTVSPost2010PropOp38
 70
     1
102
RTVSPost2010Prop39
140
1.0
102
RTVSPost2010PropOp39
 70
     1
102
RTVSPost2010Prop40
 90
        0
102
RTVSPost2010PropOp40
 70
     1
102
RTVSPost2010Prop41ColorIndex
 90
       18
102
RTVSPost2010Prop41ColorRGB
 90
-16777216
102
RTVSPost2010PropOp41
 70
     1
102
RTVSPost2010Prop42
 90
       50
102
RTVSPost2010PropOp42
 70
     1
102
RTVSPost2010Prop43
 90
        3
102
RTVSPost2010PropOp43
 70
     1
102
RTVSPost2010Prop44ColorIndex
 90
        5
102
RTVSPost2010Prop44ColorRGB
 90
      255
102
RTVSPost2010PropOp44
 70
     1
102
RTVSPost2010Prop45
280
     0
102
RTVSPost2010PropOp45
 70
     1
102
RTVSPost2010Prop46
 90
       50
102
RTVSPost2010PropOp46
 70
     1
102
RTVSPost2010Prop47
 90
       50
102
RTVSPost2010PropOp47
 70
     1
102
RTVSPost2010Prop48
 90
       50
102
RTVSPost2010PropOp48
 70
     1
102
RTVSPost2010Prop49
280
     0
102
RTVSPost2010PropOp49
 70
     1
102
RTVSPost2010Prop50
 90
       50
102
RTVSPost2010PropOp50
 70
     1
102
RTVSPost2010Prop51ColorIndex
 90
      256
102
RTVSPost2010Prop51ColorRGB
 90
-16777216
102
RTVSPost2010PropOp51
 70
     0
102
RTVSPost2010Prop52
140
1.0
102
RTVSPost2010PropOp52
 70
     0
102
RTVSPost2010Prop53
 90
        2
102
RTVSPost2010PropOp53
 70
     1
102
RTVSPost2010Prop54
  1
strokes_ogs.tif
102
RTVSPost2010PropOp54
 70
     1
102
RTVSPost2010Prop55
280
     0
102
RTVSPost2010PropOp55
 70
     1
102
RTVSPost2010Prop56
140
1.0
102
RTVSPost2010PropOp56
 70
     1
102
RTVSPost2010Prop57
140
1.0
102
RTVSPost2010PropOp57
 70
     1
102
RTVSPropertyOp0
 70
     1
102
RTVSPropertyOp1
 70
     1
102
RTVSPropertyOp2
 70
     1
102
RTVSPropertyOp3
 70
     1
102
RTVSPropertyOp4
 70
     1
102
RTVSPropertyOp5
 70
     1
102
RTVSPropertyOp6
 70
     1
102
RTVSPropertyOp7
 70
     1
102
RTVSPropertyOp8
 70
     1
102
RTVSPropertyOp9
 70
     1
102
RTVSPropertyOp10
 70
     1
102
RTVSPropertyOp11
 70
     1
102
RTVSPropertyOp12
 70
     1
102
RTVSPropertyOp13
 70
     1
102
RTVSPropertyOp14
 70
     1
102
RTVSPropertyOp15
 70
     1
102
RTVSPropertyOp16
 70
     1
102
RTVSPropertyOp17
 70
     1
102
RTVSPropertyOp18
 70
     1
102
RTVSPropertyOp19
 70
     1
102
RTVSPropertyOp20
 70
     1
102
RTVSPropertyOp21
 70
     1
102
RTVSPropertyOp22
 70
     1
102
RTVSPropertyOp23
 70
     1
102
RTVSPropertyOp24
 70
     1
102
RTVSPropertyOp25
 70
     1
102
RTVSPropertyOp26
 70
     1
102
RTVSPropertyOp27
 70
     1
102
RTVSPropertyOp28
 70
     1
102
RTVSPropertyOp29
 70
     1
102
RTVSPropertyOp30
 70
     1
102
RTVSPropertyOp31
 70
     1
102
RTVSPropertyOp32
 70
     1
102
RTVSPropertyOp33
 70
     1
102
RTVSPropertyOp34
 70
     1
102
RTVSPropertyOp35
 70
     1
102
RTVSPropertyOp36
 70
     1
102
RTVSPropertyOp37
 70
     1
102
RTVSPropertyOp38
 70
     1
102
RTVSPropertyOp39
 70
     1
102
RTVSPropertyOp40
 70
     1
102
RTVSPropertyOp41
 70
     1
102
RTVSPropertyOp42
 70
     1
102
RTVSPropertyOp43
 70
     1
102
RTVSPropertyOp44
 70
     1
102
RTVSPropertyOp45
 70
     1
102
RTVSPropertyOp46
 70
     1
102
RTVSPropertyOp47
 70
     1
102
RTVSPropertyOp48
 70
     1
102
RTVSPropertyOp49
 70
     1
102
RTVSPropertyOp50
 70
     1
102
RTVSPropertyOp51
 70
     0
102
RTVSPropertyOp52
 70
     0
102
RTVSPropertyOp53
 70
     1
102
RTVSPropertyOp54
 70
     1
102
RTVSPropertyOp55
 70
     1
102
RTVSPropertyOp56
 70
     1
102
RTVSPropertyOp57
 70
     1
102
RTVSPropertyOp58
 70
     1
102
RTVSPropertyOp59
 70
     1
102
RTVSPropertyOp60
 70
     1
102
RTVSPropertyOp61
 70
     1
102
RTVSPropertyOp62
 70
     1
  0
XRECORD
  5
AA93
102
{ACAD_REACTORS
330
AA92
102
}
330
AA92
100
AcDbXrecord
280
     1
102
RTVSPost2010Prop28
280
     0
102
RTVSPost2010PropOp28
 70
     1
102
RTVSPost2010Prop29
280
     1
102
RTVSPost2010PropOp29
 70
     1
102
RTVSPost2010Prop30
280
     1
102
RTVSPost2010PropOp30
 70
     1
102
RTVSPost2010Prop31
280
     0
102
RTVSPost2010PropOp31
 70
     1
102
RTVSPost2010Prop32
280
     0
102
RTVSPost2010PropOp32
 70
     1
102
RTVSPost2010Prop33
280
     0
102
RTVSPost2010PropOp33
 70
     1
102
RTVSPost2010Prop34
280
     0
102
RTVSPost2010PropOp34
 70
     1
102
RTVSPost2010Prop35
280
     0
102
RTVSPost2010PropOp35
 70
     1
102
RTVSPost2010Prop36
280
     0
102
RTVSPost2010PropOp36
 70
     1
102
RTVSPost2010Prop37
 90
       50
102
RTVSPost2010PropOp37
 70
     1
102
RTVSPost2010Prop38
140
0.0
102
RTVSPost2010PropOp38
 70
     1
102
RTVSPost2010Prop39
140
1.0
102
RTVSPost2010PropOp39
 70
     1
102
RTVSPost2010Prop40
 90
        0
102
RTVSPost2010PropOp40
 70
     1
102
RTVSPost2010Prop41ColorIndex
 90
       18
102
RTVSPost2010Prop41ColorRGB
 90
-16777216
102
RTVSPost2010PropOp41
 70
     1
102
RTVSPost2010Prop42
 90
       50
102
RTVSPost2010PropOp42
 70
     1
102
RTVSPost2010Prop43
 90
        3
102
RTVSPost2010PropOp43
 70
     1
102
RTVSPost2010Prop44ColorIndex
 90
        5
102
RTVSPost2010Prop44ColorRGB
 90
      255
102
RTVSPost2010PropOp44
 70
     1
102
RTVSPost2010Prop45
280
     0
102
RTVSPost2010PropOp45
 70
     1
102
RTVSPost2010Prop46
 90
       50
102
RTVSPost2010PropOp46
 70
     1
102
RTVSPost2010Prop47
 90
       50
102
RTVSPost2010PropOp47
 70
     1
102
RTVSPost2010Prop48
 90
       50
102
RTVSPost2010PropOp48
 70
     1
102
RTVSPost2010Prop49
280
     0
102
RTVSPost2010PropOp49
 70
     1
102
RTVSPost2010Prop50
 90
       50
102
RTVSPost2010PropOp50
 70
     1
102
RTVSPost2010Prop51ColorIndex
 90
      256
102
RTVSPost2010Prop51ColorRGB
 90
-16777216
102
RTVSPost2010PropOp51
 70
     0
102
RTVSPost2010Prop52
140
1.0
102
RTVSPost2010PropOp52
 70
     0
102
RTVSPost2010Prop53
 90
        2
102
RTVSPost2010PropOp53
 70
     1
102
RTVSPost2010Prop54
  1
strokes_ogs.tif
102
RTVSPost2010PropOp54
 70
     1
102
RTVSPost2010Prop55
280
     0
102
RTVSPost2010PropOp55
 70
     1
102
RTVSPost2010Prop56
140
1.0
102
RTVSPost2010PropOp56
 70
     1
102
RTVSPost2010Prop57
140
1.0
102
RTVSPost2010PropOp57
 70
     1
102
RTVSPropertyOp0
 70
     1
102
RTVSPropertyOp1
 70
     1
102
RTVSPropertyOp2
 70
     1
102
RTVSPropertyOp3
 70
     1
102
RTVSPropertyOp4
 70
     1
102
RTVSPropertyOp5
 70
     1
102
RTVSPropertyOp6
 70
     1
102
RTVSPropertyOp7
 70
     1
102
RTVSPropertyOp8
 70
     1
102
RTVSPropertyOp9
 70
     1
102
RTVSPropertyOp10
 70
     1
102
RTVSPropertyOp11
 70
     1
102
RTVSPropertyOp12
 70
     1
102
RTVSPropertyOp13
 70
     1
102
RTVSPropertyOp14
 70
     1
102
RTVSPropertyOp15
 70
     1
102
RTVSPropertyOp16
 70
     1
102
RTVSPropertyOp17
 70
     1
102
RTVSPropertyOp18
 70
     1
102
RTVSPropertyOp19
 70
     1
102
RTVSPropertyOp20
 70
     1
102
RTVSPropertyOp21
 70
     1
102
RTVSPropertyOp22
 70
     1
102
RTVSPropertyOp23
 70
     1
102
RTVSPropertyOp24
 70
     1
102
RTVSPropertyOp25
 70
     1
102
RTVSPropertyOp26
 70
     1
102
RTVSPropertyOp27
 70
     1
102
RTVSPropertyOp28
 70
     1
102
RTVSPropertyOp29
 70
     1
102
RTVSPropertyOp30
 70
     1
102
RTVSPropertyOp31
 70
     1
102
RTVSPropertyOp32
 70
     1
102
RTVSPropertyOp33
 70
     1
102
RTVSPropertyOp34
 70
     1
102
RTVSPropertyOp35
 70
     1
102
RTVSPropertyOp36
 70
     1
102
RTVSPropertyOp37
 70
     1
102
RTVSPropertyOp38
 70
     1
102
RTVSPropertyOp39
 70
     1
102
RTVSPropertyOp40
 70
     1
102
RTVSPropertyOp41
 70
     1
102
RTVSPropertyOp42
 70
     1
102
RTVSPropertyOp43
 70
     1
102
RTVSPropertyOp44
 70
     1
102
RTVSPropertyOp45
 70
     1
102
RTVSPropertyOp46
 70
     1
102
RTVSPropertyOp47
 70
     1
102
RTVSPropertyOp48
 70
     1
102
RTVSPropertyOp49
 70
     1
102
RTVSPropertyOp50
 70
     1
102
RTVSPropertyOp51
 70
     0
102
RTVSPropertyOp52
 70
     0
102
RTVSPropertyOp53
 70
     1
102
RTVSPropertyOp54
 70
     1
102
RTVSPropertyOp55
 70
     1
102
RTVSPropertyOp56
 70
     1
102
RTVSPropertyOp57
 70
     1
102
RTVSPropertyOp58
 70
     1
102
RTVSPropertyOp59
 70
     1
102
RTVSPropertyOp60
 70
     1
102
RTVSPropertyOp61
 70
     1
102
RTVSPropertyOp62
 70
     1
  0
XRECORD
  5
AA95
102
{ACAD_REACTORS
330
AA94
102
}
330
AA94
100
AcDbXrecord
280
     1
102
RTVSPost2010Prop28
280
     0
102
RTVSPost2010PropOp28
 70
     1
102
RTVSPost2010Prop29
280
     1
102
RTVSPost2010PropOp29
 70
     1
102
RTVSPost2010Prop30
280
     1
102
RTVSPost2010PropOp30
 70
     1
102
RTVSPost2010Prop31
280
     0
102
RTVSPost2010PropOp31
 70
     1
102
RTVSPost2010Prop32
280
     0
102
RTVSPost2010PropOp32
 70
     1
102
RTVSPost2010Prop33
280
     0
102
RTVSPost2010PropOp33
 70
     1
102
RTVSPost2010Prop34
280
     0
102
RTVSPost2010PropOp34
 70
     1
102
RTVSPost2010Prop35
280
     0
102
RTVSPost2010PropOp35
 70
     1
102
RTVSPost2010Prop36
280
     0
102
RTVSPost2010PropOp36
 70
     1
102
RTVSPost2010Prop37
 90
       50
102
RTVSPost2010PropOp37
 70
     1
102
RTVSPost2010Prop38
140
0.0
102
RTVSPost2010PropOp38
 70
     1
102
RTVSPost2010Prop39
140
1.0
102
RTVSPost2010PropOp39
 70
     1
102
RTVSPost2010Prop40
 90
        0
102
RTVSPost2010PropOp40
 70
     1
102
RTVSPost2010Prop41ColorIndex
 90
       18
102
RTVSPost2010Prop41ColorRGB
 90
-16777216
102
RTVSPost2010PropOp41
 70
     1
102
RTVSPost2010Prop42
 90
       50
102
RTVSPost2010PropOp42
 70
     1
102
RTVSPost2010Prop43
 90
        3
102
RTVSPost2010PropOp43
 70
     1
102
RTVSPost2010Prop44ColorIndex
 90
        5
102
RTVSPost2010Prop44ColorRGB
 90
      255
102
RTVSPost2010PropOp44
 70
     1
102
RTVSPost2010Prop45
280
     0
102
RTVSPost2010PropOp45
 70
     1
102
RTVSPost2010Prop46
 90
       50
102
RTVSPost2010PropOp46
 70
     1
102
RTVSPost2010Prop47
 90
       50
102
RTVSPost2010PropOp47
 70
     1
102
RTVSPost2010Prop48
 90
       50
102
RTVSPost2010PropOp48
 70
     1
102
RTVSPost2010Prop49
280
     0
102
RTVSPost2010PropOp49
 70
     1
102
RTVSPost2010Prop50
 90
       50
102
RTVSPost2010PropOp50
 70
     1
102
RTVSPost2010Prop51ColorIndex
 90
      256
102
RTVSPost2010Prop51ColorRGB
 90
-16777216
102
RTVSPost2010PropOp51
 70
     0
102
RTVSPost2010Prop52
140
1.0
102
RTVSPost2010PropOp52
 70
     0
102
RTVSPost2010Prop53
 90
        2
102
RTVSPost2010PropOp53
 70
     1
102
RTVSPost2010Prop54
  1
strokes_ogs.tif
102
RTVSPost2010PropOp54
 70
     1
102
RTVSPost2010Prop55
280
     0
102
RTVSPost2010PropOp55
 70
     1
102
RTVSPost2010Prop56
140
1.0
102
RTVSPost2010PropOp56
 70
     1
102
RTVSPost2010Prop57
140
1.0
102
RTVSPost2010PropOp57
 70
     1
102
RTVSPropertyOp0
 70
     1
102
RTVSPropertyOp1
 70
     1
102
RTVSPropertyOp2
 70
     1
102
RTVSPropertyOp3
 70
     1
102
RTVSPropertyOp4
 70
     1
102
RTVSPropertyOp5
 70
     1
102
RTVSPropertyOp6
 70
     1
102
RTVSPropertyOp7
 70
     1
102
RTVSPropertyOp8
 70
     1
102
RTVSPropertyOp9
 70
     1
102
RTVSPropertyOp10
 70
     1
102
RTVSPropertyOp11
 70
     1
102
RTVSPropertyOp12
 70
     1
102
RTVSPropertyOp13
 70
     1
102
RTVSPropertyOp14
 70
     1
102
RTVSPropertyOp15
 70
     1
102
RTVSPropertyOp16
 70
     1
102
RTVSPropertyOp17
 70
     1
102
RTVSPropertyOp18
 70
     1
102
RTVSPropertyOp19
 70
     1
102
RTVSPropertyOp20
 70
     1
102
RTVSPropertyOp21
 70
     1
102
RTVSPropertyOp22
 70
     1
102
RTVSPropertyOp23
 70
     1
102
RTVSPropertyOp24
 70
     1
102
RTVSPropertyOp25
 70
     1
102
RTVSPropertyOp26
 70
     1
102
RTVSPropertyOp27
 70
     1
102
RTVSPropertyOp28
 70
     1
102
RTVSPropertyOp29
 70
     1
102
RTVSPropertyOp30
 70
     1
102
RTVSPropertyOp31
 70
     1
102
RTVSPropertyOp32
 70
     1
102
RTVSPropertyOp33
 70
     1
102
RTVSPropertyOp34
 70
     1
102
RTVSPropertyOp35
 70
     1
102
RTVSPropertyOp36
 70
     1
102
RTVSPropertyOp37
 70
     1
102
RTVSPropertyOp38
 70
     1
102
RTVSPropertyOp39
 70
     1
102
RTVSPropertyOp40
 70
     1
102
RTVSPropertyOp41
 70
     1
102
RTVSPropertyOp42
 70
     1
102
RTVSPropertyOp43
 70
     1
102
RTVSPropertyOp44
 70
     1
102
RTVSPropertyOp45
 70
     1
102
RTVSPropertyOp46
 70
     1
102
RTVSPropertyOp47
 70
     1
102
RTVSPropertyOp48
 70
     1
102
RTVSPropertyOp49
 70
     1
102
RTVSPropertyOp50
 70
     1
102
RTVSPropertyOp51
 70
     0
102
RTVSPropertyOp52
 70
     0
102
RTVSPropertyOp53
 70
     1
102
RTVSPropertyOp54
 70
     1
102
RTVSPropertyOp55
 70
     1
102
RTVSPropertyOp56
 70
     1
102
RTVSPropertyOp57
 70
     1
102
RTVSPropertyOp58
 70
     1
102
RTVSPropertyOp59
 70
     1
102
RTVSPropertyOp60
 70
     1
102
RTVSPropertyOp61
 70
     1
102
RTVSPropertyOp62
 70
     1
  0
XRECORD
  5
AA97
102
{ACAD_REACTORS
330
AA96
102
}
330
AA96
100
AcDbXrecord
280
     1
102
RTVSPost2010Prop28
280
     0
102
RTVSPost2010PropOp28
 70
     1
102
RTVSPost2010Prop29
280
     1
102
RTVSPost2010PropOp29
 70
     1
102
RTVSPost2010Prop30
280
     1
102
RTVSPost2010PropOp30
 70
     1
102
RTVSPost2010Prop31
280
     0
102
RTVSPost2010PropOp31
 70
     1
102
RTVSPost2010Prop32
280
     0
102
RTVSPost2010PropOp32
 70
     1
102
RTVSPost2010Prop33
280
     0
102
RTVSPost2010PropOp33
 70
     1
102
RTVSPost2010Prop34
280
     0
102
RTVSPost2010PropOp34
 70
     1
102
RTVSPost2010Prop35
280
     0
102
RTVSPost2010PropOp35
 70
     1
102
RTVSPost2010Prop36
280
     0
102
RTVSPost2010PropOp36
 70
     1
102
RTVSPost2010Prop37
 90
       50
102
RTVSPost2010PropOp37
 70
     1
102
RTVSPost2010Prop38
140
0.0
102
RTVSPost2010PropOp38
 70
     1
102
RTVSPost2010Prop39
140
1.0
102
RTVSPost2010PropOp39
 70
     1
102
RTVSPost2010Prop40
 90
        0
102
RTVSPost2010PropOp40
 70
     1
102
RTVSPost2010Prop41ColorIndex
 90
       18
102
RTVSPost2010Prop41ColorRGB
 90
-16777216
102
RTVSPost2010PropOp41
 70
     1
102
RTVSPost2010Prop42
 90
       50
102
RTVSPost2010PropOp42
 70
     1
102
RTVSPost2010Prop43
 90
        3
102
RTVSPost2010PropOp43
 70
     1
102
RTVSPost2010Prop44ColorIndex
 90
        5
102
RTVSPost2010Prop44ColorRGB
 90
      255
102
RTVSPost2010PropOp44
 70
     1
102
RTVSPost2010Prop45
280
     0
102
RTVSPost2010PropOp45
 70
     1
102
RTVSPost2010Prop46
 90
       50
102
RTVSPost2010PropOp46
 70
     1
102
RTVSPost2010Prop47
 90
       50
102
RTVSPost2010PropOp47
 70
     1
102
RTVSPost2010Prop48
 90
       50
102
RTVSPost2010PropOp48
 70
     1
102
RTVSPost2010Prop49
280
     0
102
RTVSPost2010PropOp49
 70
     1
102
RTVSPost2010Prop50
 90
       50
102
RTVSPost2010PropOp50
 70
     1
102
RTVSPost2010Prop51ColorIndex
 90
      256
102
RTVSPost2010Prop51ColorRGB
 90
-16777216
102
RTVSPost2010PropOp51
 70
     0
102
RTVSPost2010Prop52
140
1.0
102
RTVSPost2010PropOp52
 70
     0
102
RTVSPost2010Prop53
 90
        2
102
RTVSPost2010PropOp53
 70
     1
102
RTVSPost2010Prop54
  1
strokes_ogs.tif
102
RTVSPost2010PropOp54
 70
     1
102
RTVSPost2010Prop55
280
     0
102
RTVSPost2010PropOp55
 70
     1
102
RTVSPost2010Prop56
140
1.0
102
RTVSPost2010PropOp56
 70
     1
102
RTVSPost2010Prop57
140
1.0
102
RTVSPost2010PropOp57
 70
     1
102
RTVSPropertyOp0
 70
     1
102
RTVSPropertyOp1
 70
     1
102
RTVSPropertyOp2
 70
     1
102
RTVSPropertyOp3
 70
     1
102
RTVSPropertyOp4
 70
     1
102
RTVSPropertyOp5
 70
     1
102
RTVSPropertyOp6
 70
     1
102
RTVSPropertyOp7
 70
     1
102
RTVSPropertyOp8
 70
     1
102
RTVSPropertyOp9
 70
     1
102
RTVSPropertyOp10
 70
     1
102
RTVSPropertyOp11
 70
     1
102
RTVSPropertyOp12
 70
     1
102
RTVSPropertyOp13
 70
     1
102
RTVSPropertyOp14
 70
     1
102
RTVSPropertyOp15
 70
     1
102
RTVSPropertyOp16
 70
     1
102
RTVSPropertyOp17
 70
     1
102
RTVSPropertyOp18
 70
     1
102
RTVSPropertyOp19
 70
     1
102
RTVSPropertyOp20
 70
     1
102
RTVSPropertyOp21
 70
     1
102
RTVSPropertyOp22
 70
     1
102
RTVSPropertyOp23
 70
     1
102
RTVSPropertyOp24
 70
     1
102
RTVSPropertyOp25
 70
     1
102
RTVSPropertyOp26
 70
     1
102
RTVSPropertyOp27
 70
     1
102
RTVSPropertyOp28
 70
     1
102
RTVSPropertyOp29
 70
     1
102
RTVSPropertyOp30
 70
     1
102
RTVSPropertyOp31
 70
     1
102
RTVSPropertyOp32
 70
     1
102
RTVSPropertyOp33
 70
     1
102
RTVSPropertyOp34
 70
     1
102
RTVSPropertyOp35
 70
     1
102
RTVSPropertyOp36
 70
     1
102
RTVSPropertyOp37
 70
     1
102
RTVSPropertyOp38
 70
     1
102
RTVSPropertyOp39
 70
     1
102
RTVSPropertyOp40
 70
     1
102
RTVSPropertyOp41
 70
     1
102
RTVSPropertyOp42
 70
     1
102
RTVSPropertyOp43
 70
     1
102
RTVSPropertyOp44
 70
     1
102
RTVSPropertyOp45
 70
     1
102
RTVSPropertyOp46
 70
     1
102
RTVSPropertyOp47
 70
     1
102
RTVSPropertyOp48
 70
     1
102
RTVSPropertyOp49
 70
     1
102
RTVSPropertyOp50
 70
     1
102
RTVSPropertyOp51
 70
     0
102
RTVSPropertyOp52
 70
     0
102
RTVSPropertyOp53
 70
     1
102
RTVSPropertyOp54
 70
     1
102
RTVSPropertyOp55
 70
     1
102
RTVSPropertyOp56
 70
     1
102
RTVSPropertyOp57
 70
     1
102
RTVSPropertyOp58
 70
     1
102
RTVSPropertyOp59
 70
     1
102
RTVSPropertyOp60
 70
     1
102
RTVSPropertyOp61
 70
     1
102
RTVSPropertyOp62
 70
     1
  0
XRECORD
  5
AA99
102
{ACAD_REACTORS
330
AA98
102
}
330
AA98
100
AcDbXrecord
280
     1
102
RTVSPost2010Prop28
280
     0
102
RTVSPost2010PropOp28
 70
     1
102
RTVSPost2010Prop29
280
     1
102
RTVSPost2010PropOp29
 70
     1
102
RTVSPost2010Prop30
280
     1
102
RTVSPost2010PropOp30
 70
     1
102
RTVSPost2010Prop31
280
     0
102
RTVSPost2010PropOp31
 70
     1
102
RTVSPost2010Prop32
280
     0
102
RTVSPost2010PropOp32
 70
     1
102
RTVSPost2010Prop33
280
     0
102
RTVSPost2010PropOp33
 70
     1
102
RTVSPost2010Prop34
280
     0
102
RTVSPost2010PropOp34
 70
     1
102
RTVSPost2010Prop35
280
     0
102
RTVSPost2010PropOp35
 70
     1
102
RTVSPost2010Prop36
280
     0
102
RTVSPost2010PropOp36
 70
     1
102
RTVSPost2010Prop37
 90
       50
102
RTVSPost2010PropOp37
 70
     1
102
RTVSPost2010Prop38
140
0.0
102
RTVSPost2010PropOp38
 70
     1
102
RTVSPost2010Prop39
140
1.0
102
RTVSPost2010PropOp39
 70
     1
102
RTVSPost2010Prop40
 90
        0
102
RTVSPost2010PropOp40
 70
     1
102
RTVSPost2010Prop41ColorIndex
 90
       18
102
RTVSPost2010Prop41ColorRGB
 90
-16777216
102
RTVSPost2010PropOp41
 70
     1
102
RTVSPost2010Prop42
 90
       50
102
RTVSPost2010PropOp42
 70
     1
102
RTVSPost2010Prop43
 90
        3
102
RTVSPost2010PropOp43
 70
     1
102
RTVSPost2010Prop44ColorIndex
 90
        5
102
RTVSPost2010Prop44ColorRGB
 90
      255
102
RTVSPost2010PropOp44
 70
     1
102
RTVSPost2010Prop45
280
     0
102
RTVSPost2010PropOp45
 70
     1
102
RTVSPost2010Prop46
 90
       50
102
RTVSPost2010PropOp46
 70
     1
102
RTVSPost2010Prop47
 90
       50
102
RTVSPost2010PropOp47
 70
     1
102
RTVSPost2010Prop48
 90
       50
102
RTVSPost2010PropOp48
 70
     1
102
RTVSPost2010Prop49
280
     0
102
RTVSPost2010PropOp49
 70
     1
102
RTVSPost2010Prop50
 90
       50
102
RTVSPost2010PropOp50
 70
     1
102
RTVSPost2010Prop51ColorIndex
 90
      256
102
RTVSPost2010Prop51ColorRGB
 90
-16777216
102
RTVSPost2010PropOp51
 70
     0
102
RTVSPost2010Prop52
140
1.0
102
RTVSPost2010PropOp52
 70
     0
102
RTVSPost2010Prop53
 90
        2
102
RTVSPost2010PropOp53
 70
     1
102
RTVSPost2010Prop54
  1
strokes_ogs.tif
102
RTVSPost2010PropOp54
 70
     1
102
RTVSPost2010Prop55
280
     0
102
RTVSPost2010PropOp55
 70
     1
102
RTVSPost2010Prop56
140
1.0
102
RTVSPost2010PropOp56
 70
     1
102
RTVSPost2010Prop57
140
1.0
102
RTVSPost2010PropOp57
 70
     1
102
RTVSPropertyOp0
 70
     1
102
RTVSPropertyOp1
 70
     1
102
RTVSPropertyOp2
 70
     1
102
RTVSPropertyOp3
 70
     1
102
RTVSPropertyOp4
 70
     1
102
RTVSPropertyOp5
 70
     1
102
RTVSPropertyOp6
 70
     1
102
RTVSPropertyOp7
 70
     1
102
RTVSPropertyOp8
 70
     1
102
RTVSPropertyOp9
 70
     1
102
RTVSPropertyOp10
 70
     1
102
RTVSPropertyOp11
 70
     1
102
RTVSPropertyOp12
 70
     1
102
RTVSPropertyOp13
 70
     1
102
RTVSPropertyOp14
 70
     1
102
RTVSPropertyOp15
 70
     1
102
RTVSPropertyOp16
 70
     1
102
RTVSPropertyOp17
 70
     1
102
RTVSPropertyOp18
 70
     1
102
RTVSPropertyOp19
 70
     1
102
RTVSPropertyOp20
 70
     1
102
RTVSPropertyOp21
 70
     1
102
RTVSPropertyOp22
 70
     1
102
RTVSPropertyOp23
 70
     1
102
RTVSPropertyOp24
 70
     1
102
RTVSPropertyOp25
 70
     1
102
RTVSPropertyOp26
 70
     1
102
RTVSPropertyOp27
 70
     1
102
RTVSPropertyOp28
 70
     1
102
RTVSPropertyOp29
 70
     1
102
RTVSPropertyOp30
 70
     1
102
RTVSPropertyOp31
 70
     1
102
RTVSPropertyOp32
 70
     1
102
RTVSPropertyOp33
 70
     1
102
RTVSPropertyOp34
 70
     1
102
RTVSPropertyOp35
 70
     1
102
RTVSPropertyOp36
 70
     1
102
RTVSPropertyOp37
 70
     1
102
RTVSPropertyOp38
 70
     1
102
RTVSPropertyOp39
 70
     1
102
RTVSPropertyOp40
 70
     1
102
RTVSPropertyOp41
 70
     1
102
RTVSPropertyOp42
 70
     1
102
RTVSPropertyOp43
 70
     1
102
RTVSPropertyOp44
 70
     1
102
RTVSPropertyOp45
 70
     1
102
RTVSPropertyOp46
 70
     1
102
RTVSPropertyOp47
 70
     1
102
RTVSPropertyOp48
 70
     1
102
RTVSPropertyOp49
 70
     1
102
RTVSPropertyOp50
 70
     1
102
RTVSPropertyOp51
 70
     0
102
RTVSPropertyOp52
 70
     0
102
RTVSPropertyOp53
 70
     1
102
RTVSPropertyOp54
 70
     1
102
RTVSPropertyOp55
 70
     1
102
RTVSPropertyOp56
 70
     1
102
RTVSPropertyOp57
 70
     1
102
RTVSPropertyOp58
 70
     1
102
RTVSPropertyOp59
 70
     1
102
RTVSPropertyOp60
 70
     1
102
RTVSPropertyOp61
 70
     1
102
RTVSPropertyOp62
 70
     1
  0
XRECORD
  5
AAA1
102
{ACAD_REACTORS
330
AAA0
102
}
330
AAA0
100
AcDbXrecord
280
     1
102
RTVSPost2010Prop28
280
     0
102
RTVSPost2010PropOp28
 70
     1
102
RTVSPost2010Prop29
280
     1
102
RTVSPost2010PropOp29
 70
     1
102
RTVSPost2010Prop30
280
     1
102
RTVSPost2010PropOp30
 70
     1
102
RTVSPost2010Prop31
280
     0
102
RTVSPost2010PropOp31
 70
     1
102
RTVSPost2010Prop32
280
     0
102
RTVSPost2010PropOp32
 70
     1
102
RTVSPost2010Prop33
280
     0
102
RTVSPost2010PropOp33
 70
     1
102
RTVSPost2010Prop34
280
     0
102
RTVSPost2010PropOp34
 70
     1
102
RTVSPost2010Prop35
280
     0
102
RTVSPost2010PropOp35
 70
     1
102
RTVSPost2010Prop36
280
     0
102
RTVSPost2010PropOp36
 70
     1
102
RTVSPost2010Prop37
 90
       50
102
RTVSPost2010PropOp37
 70
     1
102
RTVSPost2010Prop38
140
0.0
102
RTVSPost2010PropOp38
 70
     1
102
RTVSPost2010Prop39
140
1.0
102
RTVSPost2010PropOp39
 70
     1
102
RTVSPost2010Prop40
 90
        0
102
RTVSPost2010PropOp40
 70
     1
102
RTVSPost2010Prop41ColorIndex
 90
       18
102
RTVSPost2010Prop41ColorRGB
 90
-16777216
102
RTVSPost2010PropOp41
 70
     1
102
RTVSPost2010Prop42
 90
       50
102
RTVSPost2010PropOp42
 70
     1
102
RTVSPost2010Prop43
 90
        3
102
RTVSPost2010PropOp43
 70
     1
102
RTVSPost2010Prop44ColorIndex
 90
        5
102
RTVSPost2010Prop44ColorRGB
 90
      255
102
RTVSPost2010PropOp44
 70
     1
102
RTVSPost2010Prop45
280
     0
102
RTVSPost2010PropOp45
 70
     1
102
RTVSPost2010Prop46
 90
       50
102
RTVSPost2010PropOp46
 70
     1
102
RTVSPost2010Prop47
 90
       50
102
RTVSPost2010PropOp47
 70
     1
102
RTVSPost2010Prop48
 90
       50
102
RTVSPost2010PropOp48
 70
     1
102
RTVSPost2010Prop49
280
     0
102
RTVSPost2010PropOp49
 70
     1
102
RTVSPost2010Prop50
 90
       50
102
RTVSPost2010PropOp50
 70
     1
102
RTVSPost2010Prop51ColorIndex
 90
      256
102
RTVSPost2010Prop51ColorRGB
 90
-16777216
102
RTVSPost2010PropOp51
 70
     0
102
RTVSPost2010Prop52
140
1.0
102
RTVSPost2010PropOp52
 70
     0
102
RTVSPost2010Prop53
 90
        2
102
RTVSPost2010PropOp53
 70
     1
102
RTVSPost2010Prop54
  1
strokes_ogs.tif
102
RTVSPost2010PropOp54
 70
     1
102
RTVSPost2010Prop55
280
     0
102
RTVSPost2010PropOp55
 70
     1
102
RTVSPost2010Prop56
140
1.0
102
RTVSPost2010PropOp56
 70
     1
102
RTVSPost2010Prop57
140
1.0
102
RTVSPost2010PropOp57
 70
     1
102
RTVSPropertyOp0
 70
     1
102
RTVSPropertyOp1
 70
     1
102
RTVSPropertyOp2
 70
     1
102
RTVSPropertyOp3
 70
     1
102
RTVSPropertyOp4
 70
     1
102
RTVSPropertyOp5
 70
     1
102
RTVSPropertyOp6
 70
     1
102
RTVSPropertyOp7
 70
     1
102
RTVSPropertyOp8
 70
     1
102
RTVSPropertyOp9
 70
     1
102
RTVSPropertyOp10
 70
     1
102
RTVSPropertyOp11
 70
     1
102
RTVSPropertyOp12
 70
     1
102
RTVSPropertyOp13
 70
     1
102
RTVSPropertyOp14
 70
     1
102
RTVSPropertyOp15
 70
     1
102
RTVSPropertyOp16
 70
     1
102
RTVSPropertyOp17
 70
     1
102
RTVSPropertyOp18
 70
     1
102
RTVSPropertyOp19
 70
     1
102
RTVSPropertyOp20
 70
     1
102
RTVSPropertyOp21
 70
     1
102
RTVSPropertyOp22
 70
     1
102
RTVSPropertyOp23
 70
     1
102
RTVSPropertyOp24
 70
     1
102
RTVSPropertyOp25
 70
     1
102
RTVSPropertyOp26
 70
     1
102
RTVSPropertyOp27
 70
     1
102
RTVSPropertyOp28
 70
     1
102
RTVSPropertyOp29
 70
     1
102
RTVSPropertyOp30
 70
     1
102
RTVSPropertyOp31
 70
     1
102
RTVSPropertyOp32
 70
     1
102
RTVSPropertyOp33
 70
     1
102
RTVSPropertyOp34
 70
     1
102
RTVSPropertyOp35
 70
     1
102
RTVSPropertyOp36
 70
     1
102
RTVSPropertyOp37
 70
     1
102
RTVSPropertyOp38
 70
     1
102
RTVSPropertyOp39
 70
     1
102
RTVSPropertyOp40
 70
     1
102
RTVSPropertyOp41
 70
     1
102
RTVSPropertyOp42
 70
     1
102
RTVSPropertyOp43
 70
     1
102
RTVSPropertyOp44
 70
     1
102
RTVSPropertyOp45
 70
     1
102
RTVSPropertyOp46
 70
     1
102
RTVSPropertyOp47
 70
     1
102
RTVSPropertyOp48
 70
     1
102
RTVSPropertyOp49
 70
     1
102
RTVSPropertyOp50
 70
     1
102
RTVSPropertyOp51
 70
     0
102
RTVSPropertyOp52
 70
     0
102
RTVSPropertyOp53
 70
     1
102
RTVSPropertyOp54
 70
     1
102
RTVSPropertyOp55
 70
     1
102
RTVSPropertyOp56
 70
     1
102
RTVSPropertyOp57
 70
     1
102
RTVSPropertyOp58
 70
     1
102
RTVSPropertyOp59
 70
     1
102
RTVSPropertyOp60
 70
     1
102
RTVSPropertyOp61
 70
     1
102
RTVSPropertyOp62
 70
     1
  0
XRECORD
  5
AABD
102
{ACAD_REACTORS
330
AABC
102
}
330
AABC
100
AcDbXrecord
280
     1
102
RTVSPost2010Prop28
280
     0
102
RTVSPost2010PropOp28
 70
     1
102
RTVSPost2010Prop29
280
     1
102
RTVSPost2010PropOp29
 70
     1
102
RTVSPost2010Prop30
280
     1
102
RTVSPost2010PropOp30
 70
     1
102
RTVSPost2010Prop31
280
     0
102
RTVSPost2010PropOp31
 70
     1
102
RTVSPost2010Prop32
280
     0
102
RTVSPost2010PropOp32
 70
     1
102
RTVSPost2010Prop33
280
     0
102
RTVSPost2010PropOp33
 70
     1
102
RTVSPost2010Prop34
280
     0
102
RTVSPost2010PropOp34
 70
     1
102
RTVSPost2010Prop35
280
     0
102
RTVSPost2010PropOp35
 70
     1
102
RTVSPost2010Prop36
280
     0
102
RTVSPost2010PropOp36
 70
     1
102
RTVSPost2010Prop37
 90
       50
102
RTVSPost2010PropOp37
 70
     0
102
RTVSPost2010Prop38
140
0.0
102
RTVSPost2010PropOp38
 70
     0
102
RTVSPost2010Prop39
140
1.0
102
RTVSPost2010PropOp39
 70
     0
102
RTVSPost2010Prop40
 90
        0
102
RTVSPost2010PropOp40
 70
     0
102
RTVSPost2010Prop41ColorIndex
 90
       18
102
RTVSPost2010Prop41ColorRGB
 90
-16777216
102
RTVSPost2010PropOp41
 70
     0
102
RTVSPost2010Prop42
 90
       50
102
RTVSPost2010PropOp42
 70
     0
102
RTVSPost2010Prop43
 90
        3
102
RTVSPost2010PropOp43
 70
     0
102
RTVSPost2010Prop44ColorIndex
 90
        5
102
RTVSPost2010Prop44ColorRGB
 90
      255
102
RTVSPost2010PropOp44
 70
     0
102
RTVSPost2010Prop45
280
     0
102
RTVSPost2010PropOp45
 70
     1
102
RTVSPost2010Prop46
 90
       50
102
RTVSPost2010PropOp46
 70
     0
102
RTVSPost2010Prop47
 90
       50
102
RTVSPost2010PropOp47
 70
     0
102
RTVSPost2010Prop48
 90
       50
102
RTVSPost2010PropOp48
 70
     0
102
RTVSPost2010Prop49
280
     0
102
RTVSPost2010PropOp49
 70
     1
102
RTVSPost2010Prop50
 90
       50
102
RTVSPost2010PropOp50
 70
     0
102
RTVSPost2010Prop51ColorIndex
 90
      256
102
RTVSPost2010Prop51ColorRGB
 90
-16777216
102
RTVSPost2010PropOp51
 70
     0
102
RTVSPost2010Prop52
140
1.0
102
RTVSPost2010PropOp52
 70
     0
102
RTVSPost2010Prop53
 90
        2
102
RTVSPost2010PropOp53
 70
     0
102
RTVSPost2010Prop54
  1
strokes_ogs.tif
102
RTVSPost2010PropOp54
 70
     0
102
RTVSPost2010Prop55
280
     0
102
RTVSPost2010PropOp55
 70
     1
102
RTVSPost2010Prop56
140
1.0
102
RTVSPost2010PropOp56
 70
     0
102
RTVSPost2010Prop57
140
1.0
102
RTVSPost2010PropOp57
 70
     0
102
RTVSPropertyOp0
 70
     0
102
RTVSPropertyOp1
 70
     0
102
RTVSPropertyOp2
 70
     0
102
RTVSPropertyOp3
 70
     0
102
RTVSPropertyOp4
 70
     0
102
RTVSPropertyOp5
 70
     0
102
RTVSPropertyOp6
 70
     0
102
RTVSPropertyOp7
 70
     0
102
RTVSPropertyOp8
 70
     0
102
RTVSPropertyOp9
 70
     0
102
RTVSPropertyOp10
 70
     0
102
RTVSPropertyOp11
 70
     0
102
RTVSPropertyOp12
 70
     0
102
RTVSPropertyOp13
 70
     0
102
RTVSPropertyOp14
 70
     2
102
RTVSPropertyOp15
 70
     0
102
RTVSPropertyOp16
 70
     0
102
RTVSPropertyOp17
 70
     0
102
RTVSPropertyOp18
 70
     0
102
RTVSPropertyOp19
 70
     0
102
RTVSPropertyOp20
 70
     0
102
RTVSPropertyOp21
 70
     0
102
RTVSPropertyOp22
 70
     0
102
RTVSPropertyOp23
 70
     0
102
RTVSPropertyOp24
 70
     0
102
RTVSPropertyOp25
 70
     0
102
RTVSPropertyOp26
 70
     0
102
RTVSPropertyOp27
 70
     0
102
RTVSPropertyOp28
 70
     1
102
RTVSPropertyOp29
 70
     1
102
RTVSPropertyOp30
 70
     1
102
RTVSPropertyOp31
 70
     1
102
RTVSPropertyOp32
 70
     1
102
RTVSPropertyOp33
 70
     1
102
RTVSPropertyOp34
 70
     1
102
RTVSPropertyOp35
 70
     1
102
RTVSPropertyOp36
 70
     1
102
RTVSPropertyOp37
 70
     0
102
RTVSPropertyOp38
 70
     0
102
RTVSPropertyOp39
 70
     0
102
RTVSPropertyOp40
 70
     0
102
RTVSPropertyOp41
 70
     0
102
RTVSPropertyOp42
 70
     0
102
RTVSPropertyOp43
 70
     0
102
RTVSPropertyOp44
 70
     0
102
RTVSPropertyOp45
 70
     1
102
RTVSPropertyOp46
 70
     0
102
RTVSPropertyOp47
 70
     0
102
RTVSPropertyOp48
 70
     0
102
RTVSPropertyOp49
 70
     1
102
RTVSPropertyOp50
 70
     0
102
RTVSPropertyOp51
 70
     0
102
RTVSPropertyOp52
 70
     0
102
RTVSPropertyOp53
 70
     0
102
RTVSPropertyOp54
 70
     0
102
RTVSPropertyOp55
 70
     1
102
RTVSPropertyOp56
 70
     0
102
RTVSPropertyOp57
 70
     0
102
RTVSPropertyOp58
 70
     1
102
RTVSPropertyOp59
 70
     1
102
RTVSPropertyOp60
 70
     1
102
RTVSPropertyOp61
 70
     1
102
RTVSPropertyOp62
 70
     1
  0
XRECORD
  5
AAAD
102
{ACAD_REACTORS
330
AAAC
102
}
330
AAAC
100
AcDbXrecord
280
     1
102
RTVSPost2010Prop28
280
     0
102
RTVSPost2010PropOp28
 70
     1
102
RTVSPost2010Prop29
280
     1
102
RTVSPost2010PropOp29
 70
     1
102
RTVSPost2010Prop30
280
     1
102
RTVSPost2010PropOp30
 70
     1
102
RTVSPost2010Prop31
280
     0
102
RTVSPost2010PropOp31
 70
     1
102
RTVSPost2010Prop32
280
     0
102
RTVSPost2010PropOp32
 70
     1
102
RTVSPost2010Prop33
280
     0
102
RTVSPost2010PropOp33
 70
     1
102
RTVSPost2010Prop34
280
     0
102
RTVSPost2010PropOp34
 70
     1
102
RTVSPost2010Prop35
280
     0
102
RTVSPost2010PropOp35
 70
     1
102
RTVSPost2010Prop36
280
     0
102
RTVSPost2010PropOp36
 70
     1
102
RTVSPost2010Prop37
 90
       50
102
RTVSPost2010PropOp37
 70
     1
102
RTVSPost2010Prop38
140
0.0
102
RTVSPost2010PropOp38
 70
     1
102
RTVSPost2010Prop39
140
1.0
102
RTVSPost2010PropOp39
 70
     1
102
RTVSPost2010Prop40
 90
        0
102
RTVSPost2010PropOp40
 70
     1
102
RTVSPost2010Prop41ColorIndex
 90
       18
102
RTVSPost2010Prop41ColorRGB
 90
-16777216
102
RTVSPost2010PropOp41
 70
     1
102
RTVSPost2010Prop42
 90
       50
102
RTVSPost2010PropOp42
 70
     1
102
RTVSPost2010Prop43
 90
        3
102
RTVSPost2010PropOp43
 70
     1
102
RTVSPost2010Prop44ColorIndex
 90
        5
102
RTVSPost2010Prop44ColorRGB
 90
      255
102
RTVSPost2010PropOp44
 70
     1
102
RTVSPost2010Prop45
280
     0
102
RTVSPost2010PropOp45
 70
     1
102
RTVSPost2010Prop46
 90
       50
102
RTVSPost2010PropOp46
 70
     1
102
RTVSPost2010Prop47
 90
       50
102
RTVSPost2010PropOp47
 70
     1
102
RTVSPost2010Prop48
 90
       50
102
RTVSPost2010PropOp48
 70
     1
102
RTVSPost2010Prop49
280
     0
102
RTVSPost2010PropOp49
 70
     1
102
RTVSPost2010Prop50
 90
       50
102
RTVSPost2010PropOp50
 70
     1
102
RTVSPost2010Prop51ColorIndex
 90
      256
102
RTVSPost2010Prop51ColorRGB
 90
-16777216
102
RTVSPost2010PropOp51
 70
     0
102
RTVSPost2010Prop52
140
1.0
102
RTVSPost2010PropOp52
 70
     0
102
RTVSPost2010Prop53
 90
        2
102
RTVSPost2010PropOp53
 70
     1
102
RTVSPost2010Prop54
  1
strokes_ogs.tif
102
RTVSPost2010PropOp54
 70
     1
102
RTVSPost2010Prop55
280
     0
102
RTVSPost2010PropOp55
 70
     1
102
RTVSPost2010Prop56
140
1.0
102
RTVSPost2010PropOp56
 70
     1
102
RTVSPost2010Prop57
140
1.0
102
RTVSPost2010PropOp57
 70
     1
102
RTVSPropertyOp0
 70
     1
102
RTVSPropertyOp1
 70
     1
102
RTVSPropertyOp2
 70
     1
102
RTVSPropertyOp3
 70
     1
102
RTVSPropertyOp4
 70
     1
102
RTVSPropertyOp5
 70
     1
102
RTVSPropertyOp6
 70
     1
102
RTVSPropertyOp7
 70
     1
102
RTVSPropertyOp8
 70
     1
102
RTVSPropertyOp9
 70
     1
102
RTVSPropertyOp10
 70
     1
102
RTVSPropertyOp11
 70
     1
102
RTVSPropertyOp12
 70
     1
102
RTVSPropertyOp13
 70
     1
102
RTVSPropertyOp14
 70
     1
102
RTVSPropertyOp15
 70
     1
102
RTVSPropertyOp16
 70
     1
102
RTVSPropertyOp17
 70
     1
102
RTVSPropertyOp18
 70
     1
102
RTVSPropertyOp19
 70
     1
102
RTVSPropertyOp20
 70
     1
102
RTVSPropertyOp21
 70
     1
102
RTVSPropertyOp22
 70
     1
102
RTVSPropertyOp23
 70
     1
102
RTVSPropertyOp24
 70
     1
102
RTVSPropertyOp25
 70
     1
102
RTVSPropertyOp26
 70
     1
102
RTVSPropertyOp27
 70
     1
102
RTVSPropertyOp28
 70
     1
102
RTVSPropertyOp29
 70
     1
102
RTVSPropertyOp30
 70
     1
102
RTVSPropertyOp31
 70
     1
102
RTVSPropertyOp32
 70
     1
102
RTVSPropertyOp33
 70
     1
102
RTVSPropertyOp34
 70
     1
102
RTVSPropertyOp35
 70
     1
102
RTVSPropertyOp36
 70
     1
102
RTVSPropertyOp37
 70
     1
102
RTVSPropertyOp38
 70
     1
102
RTVSPropertyOp39
 70
     1
102
RTVSPropertyOp40
 70
     1
102
RTVSPropertyOp41
 70
     1
102
RTVSPropertyOp42
 70
     1
102
RTVSPropertyOp43
 70
     1
102
RTVSPropertyOp44
 70
     1
102
RTVSPropertyOp45
 70
     1
102
RTVSPropertyOp46
 70
     1
102
RTVSPropertyOp47
 70
     1
102
RTVSPropertyOp48
 70
     1
102
RTVSPropertyOp49
 70
     1
102
RTVSPropertyOp50
 70
     1
102
RTVSPropertyOp51
 70
     0
102
RTVSPropertyOp52
 70
     0
102
RTVSPropertyOp53
 70
     1
102
RTVSPropertyOp54
 70
     1
102
RTVSPropertyOp55
 70
     1
102
RTVSPropertyOp56
 70
     1
102
RTVSPropertyOp57
 70
     1
102
RTVSPropertyOp58
 70
     1
102
RTVSPropertyOp59
 70
     1
102
RTVSPropertyOp60
 70
     1
102
RTVSPropertyOp61
 70
     1
102
RTVSPropertyOp62
 70
     1
  0
XRECORD
  5
AABF
102
{ACAD_REACTORS
330
AABE
102
}
330
AABE
100
AcDbXrecord
280
     1
102
RTVSPost2010Prop28
280
     0
102
RTVSPost2010PropOp28
 70
     1
102
RTVSPost2010Prop29
280
     1
102
RTVSPost2010PropOp29
 70
     1
102
RTVSPost2010Prop30
280
     1
102
RTVSPost2010PropOp30
 70
     1
102
RTVSPost2010Prop31
280
     0
102
RTVSPost2010PropOp31
 70
     1
102
RTVSPost2010Prop32
280
     0
102
RTVSPost2010PropOp32
 70
     1
102
RTVSPost2010Prop33
280
     0
102
RTVSPost2010PropOp33
 70
     1
102
RTVSPost2010Prop34
280
     0
102
RTVSPost2010PropOp34
 70
     1
102
RTVSPost2010Prop35
280
     0
102
RTVSPost2010PropOp35
 70
     1
102
RTVSPost2010Prop36
280
     0
102
RTVSPost2010PropOp36
 70
     1
102
RTVSPost2010Prop37
 90
       50
102
RTVSPost2010PropOp37
 70
     0
102
RTVSPost2010Prop38
140
0.0
102
RTVSPost2010PropOp38
 70
     0
102
RTVSPost2010Prop39
140
1.0
102
RTVSPost2010PropOp39
 70
     0
102
RTVSPost2010Prop40
 90
        0
102
RTVSPost2010PropOp40
 70
     0
102
RTVSPost2010Prop41ColorIndex
 90
       18
102
RTVSPost2010Prop41ColorRGB
 90
-16777216
102
RTVSPost2010PropOp41
 70
     0
102
RTVSPost2010Prop42
 90
       50
102
RTVSPost2010PropOp42
 70
     0
102
RTVSPost2010Prop43
 90
        3
102
RTVSPost2010PropOp43
 70
     0
102
RTVSPost2010Prop44ColorIndex
 90
        5
102
RTVSPost2010Prop44ColorRGB
 90
      255
102
RTVSPost2010PropOp44
 70
     0
102
RTVSPost2010Prop45
280
     0
102
RTVSPost2010PropOp45
 70
     1
102
RTVSPost2010Prop46
 90
       50
102
RTVSPost2010PropOp46
 70
     0
102
RTVSPost2010Prop47
 90
       50
102
RTVSPost2010PropOp47
 70
     0
102
RTVSPost2010Prop48
 90
       50
102
RTVSPost2010PropOp48
 70
     0
102
RTVSPost2010Prop49
280
     0
102
RTVSPost2010PropOp49
 70
     1
102
RTVSPost2010Prop50
 90
       50
102
RTVSPost2010PropOp50
 70
     0
102
RTVSPost2010Prop51ColorIndex
 90
      256
102
RTVSPost2010Prop51ColorRGB
 90
-16777216
102
RTVSPost2010PropOp51
 70
     0
102
RTVSPost2010Prop52
140
1.0
102
RTVSPost2010PropOp52
 70
     0
102
RTVSPost2010Prop53
 90
        2
102
RTVSPost2010PropOp53
 70
     0
102
RTVSPost2010Prop54
  1
strokes_ogs.tif
102
RTVSPost2010PropOp54
 70
     0
102
RTVSPost2010Prop55
280
     0
102
RTVSPost2010PropOp55
 70
     1
102
RTVSPost2010Prop56
140
1.0
102
RTVSPost2010PropOp56
 70
     0
102
RTVSPost2010Prop57
140
1.0
102
RTVSPost2010PropOp57
 70
     0
102
RTVSPropertyOp0
 70
     0
102
RTVSPropertyOp1
 70
     0
102
RTVSPropertyOp2
 70
     0
102
RTVSPropertyOp3
 70
     0
102
RTVSPropertyOp4
 70
     0
102
RTVSPropertyOp5
 70
     0
102
RTVSPropertyOp6
 70
     0
102
RTVSPropertyOp7
 70
     0
102
RTVSPropertyOp8
 70
     0
102
RTVSPropertyOp9
 70
     0
102
RTVSPropertyOp10
 70
     0
102
RTVSPropertyOp11
 70
     0
102
RTVSPropertyOp12
 70
     0
102
RTVSPropertyOp13
 70
     0
102
RTVSPropertyOp14
 70
     2
102
RTVSPropertyOp15
 70
     0
102
RTVSPropertyOp16
 70
     0
102
RTVSPropertyOp17
 70
     0
102
RTVSPropertyOp18
 70
     0
102
RTVSPropertyOp19
 70
     0
102
RTVSPropertyOp20
 70
     0
102
RTVSPropertyOp21
 70
     0
102
RTVSPropertyOp22
 70
     0
102
RTVSPropertyOp23
 70
     0
102
RTVSPropertyOp24
 70
     0
102
RTVSPropertyOp25
 70
     0
102
RTVSPropertyOp26
 70
     0
102
RTVSPropertyOp27
 70
     0
102
RTVSPropertyOp28
 70
     1
102
RTVSPropertyOp29
 70
     1
102
RTVSPropertyOp30
 70
     1
102
RTVSPropertyOp31
 70
     1
102
RTVSPropertyOp32
 70
     1
102
RTVSPropertyOp33
 70
     1
102
RTVSPropertyOp34
 70
     1
102
RTVSPropertyOp35
 70
     1
102
RTVSPropertyOp36
 70
     1
102
RTVSPropertyOp37
 70
     0
102
RTVSPropertyOp38
 70
     0
102
RTVSPropertyOp39
 70
     0
102
RTVSPropertyOp40
 70
     0
102
RTVSPropertyOp41
 70
     0
102
RTVSPropertyOp42
 70
     0
102
RTVSPropertyOp43
 70
     0
102
RTVSPropertyOp44
 70
     0
102
RTVSPropertyOp45
 70
     1
102
RTVSPropertyOp46
 70
     0
102
RTVSPropertyOp47
 70
     0
102
RTVSPropertyOp48
 70
     0
102
RTVSPropertyOp49
 70
     1
102
RTVSPropertyOp50
 70
     0
102
RTVSPropertyOp51
 70
     0
102
RTVSPropertyOp52
 70
     0
102
RTVSPropertyOp53
 70
     0
102
RTVSPropertyOp54
 70
     0
102
RTVSPropertyOp55
 70
     1
102
RTVSPropertyOp56
 70
     0
102
RTVSPropertyOp57
 70
     0
102
RTVSPropertyOp58
 70
     1
102
RTVSPropertyOp59
 70
     1
102
RTVSPropertyOp60
 70
     1
102
RTVSPropertyOp61
 70
     1
102
RTVSPropertyOp62
 70
     1
  0
XRECORD
  5
AAA5
102
{ACAD_REACTORS
330
AAA4
102
}
330
AAA4
100
AcDbXrecord
280
     1
102
RTVSPost2010Prop28
280
     0
102
RTVSPost2010PropOp28
 70
     1
102
RTVSPost2010Prop29
280
     1
102
RTVSPost2010PropOp29
 70
     1
102
RTVSPost2010Prop30
280
     1
102
RTVSPost2010PropOp30
 70
     1
102
RTVSPost2010Prop31
280
     0
102
RTVSPost2010PropOp31
 70
     1
102
RTVSPost2010Prop32
280
     0
102
RTVSPost2010PropOp32
 70
     1
102
RTVSPost2010Prop33
280
     0
102
RTVSPost2010PropOp33
 70
     1
102
RTVSPost2010Prop34
280
     0
102
RTVSPost2010PropOp34
 70
     1
102
RTVSPost2010Prop35
280
     0
102
RTVSPost2010PropOp35
 70
     1
102
RTVSPost2010Prop36
280
     0
102
RTVSPost2010PropOp36
 70
     1
102
RTVSPost2010Prop37
 90
       50
102
RTVSPost2010PropOp37
 70
     1
102
RTVSPost2010Prop38
140
0.0
102
RTVSPost2010PropOp38
 70
     1
102
RTVSPost2010Prop39
140
1.0
102
RTVSPost2010PropOp39
 70
     1
102
RTVSPost2010Prop40
 90
        0
102
RTVSPost2010PropOp40
 70
     1
102
RTVSPost2010Prop41ColorIndex
 90
       18
102
RTVSPost2010Prop41ColorRGB
 90
-16777216
102
RTVSPost2010PropOp41
 70
     1
102
RTVSPost2010Prop42
 90
       50
102
RTVSPost2010PropOp42
 70
     1
102
RTVSPost2010Prop43
 90
        3
102
RTVSPost2010PropOp43
 70
     1
102
RTVSPost2010Prop44ColorIndex
 90
        5
102
RTVSPost2010Prop44ColorRGB
 90
      255
102
RTVSPost2010PropOp44
 70
     1
102
RTVSPost2010Prop45
280
     0
102
RTVSPost2010PropOp45
 70
     1
102
RTVSPost2010Prop46
 90
       50
102
RTVSPost2010PropOp46
 70
     1
102
RTVSPost2010Prop47
 90
       50
102
RTVSPost2010PropOp47
 70
     1
102
RTVSPost2010Prop48
 90
       50
102
RTVSPost2010PropOp48
 70
     1
102
RTVSPost2010Prop49
280
     0
102
RTVSPost2010PropOp49
 70
     1
102
RTVSPost2010Prop50
 90
       50
102
RTVSPost2010PropOp50
 70
     1
102
RTVSPost2010Prop51ColorIndex
 90
      256
102
RTVSPost2010Prop51ColorRGB
 90
-16777216
102
RTVSPost2010PropOp51
 70
     0
102
RTVSPost2010Prop52
140
1.0
102
RTVSPost2010PropOp52
 70
     0
102
RTVSPost2010Prop53
 90
        2
102
RTVSPost2010PropOp53
 70
     1
102
RTVSPost2010Prop54
  1
strokes_ogs.tif
102
RTVSPost2010PropOp54
 70
     1
102
RTVSPost2010Prop55
280
     0
102
RTVSPost2010PropOp55
 70
     1
102
RTVSPost2010Prop56
140
1.0
102
RTVSPost2010PropOp56
 70
     1
102
RTVSPost2010Prop57
140
1.0
102
RTVSPost2010PropOp57
 70
     1
102
RTVSPropertyOp0
 70
     1
102
RTVSPropertyOp1
 70
     1
102
RTVSPropertyOp2
 70
     1
102
RTVSPropertyOp3
 70
     1
102
RTVSPropertyOp4
 70
     1
102
RTVSPropertyOp5
 70
     1
102
RTVSPropertyOp6
 70
     1
102
RTVSPropertyOp7
 70
     1
102
RTVSPropertyOp8
 70
     1
102
RTVSPropertyOp9
 70
     1
102
RTVSPropertyOp10
 70
     1
102
RTVSPropertyOp11
 70
     1
102
RTVSPropertyOp12
 70
     1
102
RTVSPropertyOp13
 70
     1
102
RTVSPropertyOp14
 70
     1
102
RTVSPropertyOp15
 70
     1
102
RTVSPropertyOp16
 70
     1
102
RTVSPropertyOp17
 70
     1
102
RTVSPropertyOp18
 70
     1
102
RTVSPropertyOp19
 70
     1
102
RTVSPropertyOp20
 70
     1
102
RTVSPropertyOp21
 70
     1
102
RTVSPropertyOp22
 70
     1
102
RTVSPropertyOp23
 70
     1
102
RTVSPropertyOp24
 70
     1
102
RTVSPropertyOp25
 70
     1
102
RTVSPropertyOp26
 70
     1
102
RTVSPropertyOp27
 70
     1
102
RTVSPropertyOp28
 70
     1
102
RTVSPropertyOp29
 70
     1
102
RTVSPropertyOp30
 70
     1
102
RTVSPropertyOp31
 70
     1
102
RTVSPropertyOp32
 70
     1
102
RTVSPropertyOp33
 70
     1
102
RTVSPropertyOp34
 70
     1
102
RTVSPropertyOp35
 70
     1
102
RTVSPropertyOp36
 70
     1
102
RTVSPropertyOp37
 70
     1
102
RTVSPropertyOp38
 70
     1
102
RTVSPropertyOp39
 70
     1
102
RTVSPropertyOp40
 70
     1
102
RTVSPropertyOp41
 70
     1
102
RTVSPropertyOp42
 70
     1
102
RTVSPropertyOp43
 70
     1
102
RTVSPropertyOp44
 70
     1
102
RTVSPropertyOp45
 70
     1
102
RTVSPropertyOp46
 70
     1
102
RTVSPropertyOp47
 70
     1
102
RTVSPropertyOp48
 70
     1
102
RTVSPropertyOp49
 70
     1
102
RTVSPropertyOp50
 70
     1
102
RTVSPropertyOp51
 70
     0
102
RTVSPropertyOp52
 70
     0
102
RTVSPropertyOp53
 70
     1
102
RTVSPropertyOp54
 70
     1
102
RTVSPropertyOp55
 70
     1
102
RTVSPropertyOp56
 70
     1
102
RTVSPropertyOp57
 70
     1
102
RTVSPropertyOp58
 70
     1
102
RTVSPropertyOp59
 70
     1
102
RTVSPropertyOp60
 70
     1
102
RTVSPropertyOp61
 70
     1
102
RTVSPropertyOp62
 70
     1
  0
XRECORD
  5
AABB
102
{ACAD_REACTORS
330
AABA
102
}
330
AABA
100
AcDbXrecord
280
     1
102
RTVSPost2010Prop28
280
     0
102
RTVSPost2010PropOp28
 70
     1
102
RTVSPost2010Prop29
280
     1
102
RTVSPost2010PropOp29
 70
     1
102
RTVSPost2010Prop30
280
     1
102
RTVSPost2010PropOp30
 70
     1
102
RTVSPost2010Prop31
280
     0
102
RTVSPost2010PropOp31
 70
     1
102
RTVSPost2010Prop32
280
     0
102
RTVSPost2010PropOp32
 70
     1
102
RTVSPost2010Prop33
280
     0
102
RTVSPost2010PropOp33
 70
     1
102
RTVSPost2010Prop34
280
     0
102
RTVSPost2010PropOp34
 70
     1
102
RTVSPost2010Prop35
280
     0
102
RTVSPost2010PropOp35
 70
     1
102
RTVSPost2010Prop36
280
     0
102
RTVSPost2010PropOp36
 70
     1
102
RTVSPost2010Prop37
 90
       50
102
RTVSPost2010PropOp37
 70
     1
102
RTVSPost2010Prop38
140
0.0
102
RTVSPost2010PropOp38
 70
     1
102
RTVSPost2010Prop39
140
1.0
102
RTVSPost2010PropOp39
 70
     1
102
RTVSPost2010Prop40
 90
        0
102
RTVSPost2010PropOp40
 70
     1
102
RTVSPost2010Prop41ColorIndex
 90
       18
102
RTVSPost2010Prop41ColorRGB
 90
-16777216
102
RTVSPost2010PropOp41
 70
     1
102
RTVSPost2010Prop42
 90
       50
102
RTVSPost2010PropOp42
 70
     1
102
RTVSPost2010Prop43
 90
        3
102
RTVSPost2010PropOp43
 70
     1
102
RTVSPost2010Prop44ColorIndex
 90
        5
102
RTVSPost2010Prop44ColorRGB
 90
      255
102
RTVSPost2010PropOp44
 70
     1
102
RTVSPost2010Prop45
280
     0
102
RTVSPost2010PropOp45
 70
     1
102
RTVSPost2010Prop46
 90
       50
102
RTVSPost2010PropOp46
 70
     1
102
RTVSPost2010Prop47
 90
       50
102
RTVSPost2010PropOp47
 70
     1
102
RTVSPost2010Prop48
 90
       50
102
RTVSPost2010PropOp48
 70
     1
102
RTVSPost2010Prop49
280
     0
102
RTVSPost2010PropOp49
 70
     1
102
RTVSPost2010Prop50
 90
       50
102
RTVSPost2010PropOp50
 70
     1
102
RTVSPost2010Prop51ColorIndex
 90
      256
102
RTVSPost2010Prop51ColorRGB
 90
-16777216
102
RTVSPost2010PropOp51
 70
     0
102
RTVSPost2010Prop52
140
1.0
102
RTVSPost2010PropOp52
 70
     0
102
RTVSPost2010Prop53
 90
        2
102
RTVSPost2010PropOp53
 70
     1
102
RTVSPost2010Prop54
  1
strokes_ogs.tif
102
RTVSPost2010PropOp54
 70
     1
102
RTVSPost2010Prop55
280
     0
102
RTVSPost2010PropOp55
 70
     1
102
RTVSPost2010Prop56
140
1.0
102
RTVSPost2010PropOp56
 70
     1
102
RTVSPost2010Prop57
140
1.0
102
RTVSPost2010PropOp57
 70
     1
102
RTVSPropertyOp0
 70
     1
102
RTVSPropertyOp1
 70
     1
102
RTVSPropertyOp2
 70
     1
102
RTVSPropertyOp3
 70
     1
102
RTVSPropertyOp4
 70
     1
102
RTVSPropertyOp5
 70
     1
102
RTVSPropertyOp6
 70
     1
102
RTVSPropertyOp7
 70
     1
102
RTVSPropertyOp8
 70
     1
102
RTVSPropertyOp9
 70
     1
102
RTVSPropertyOp10
 70
     1
102
RTVSPropertyOp11
 70
     1
102
RTVSPropertyOp12
 70
     1
102
RTVSPropertyOp13
 70
     1
102
RTVSPropertyOp14
 70
     1
102
RTVSPropertyOp15
 70
     1
102
RTVSPropertyOp16
 70
     1
102
RTVSPropertyOp17
 70
     1
102
RTVSPropertyOp18
 70
     1
102
RTVSPropertyOp19
 70
     1
102
RTVSPropertyOp20
 70
     1
102
RTVSPropertyOp21
 70
     1
102
RTVSPropertyOp22
 70
     1
102
RTVSPropertyOp23
 70
     1
102
RTVSPropertyOp24
 70
     1
102
RTVSPropertyOp25
 70
     1
102
RTVSPropertyOp26
 70
     1
102
RTVSPropertyOp27
 70
     1
102
RTVSPropertyOp28
 70
     1
102
RTVSPropertyOp29
 70
     1
102
RTVSPropertyOp30
 70
     1
102
RTVSPropertyOp31
 70
     1
102
RTVSPropertyOp32
 70
     1
102
RTVSPropertyOp33
 70
     1
102
RTVSPropertyOp34
 70
     1
102
RTVSPropertyOp35
 70
     1
102
RTVSPropertyOp36
 70
     1
102
RTVSPropertyOp37
 70
     1
102
RTVSPropertyOp38
 70
     1
102
RTVSPropertyOp39
 70
     1
102
RTVSPropertyOp40
 70
     1
102
RTVSPropertyOp41
 70
     1
102
RTVSPropertyOp42
 70
     1
102
RTVSPropertyOp43
 70
     1
102
RTVSPropertyOp44
 70
     1
102
RTVSPropertyOp45
 70
     1
102
RTVSPropertyOp46
 70
     1
102
RTVSPropertyOp47
 70
     1
102
RTVSPropertyOp48
 70
     1
102
RTVSPropertyOp49
 70
     1
102
RTVSPropertyOp50
 70
     1
102
RTVSPropertyOp51
 70
     0
102
RTVSPropertyOp52
 70
     0
102
RTVSPropertyOp53
 70
     1
102
RTVSPropertyOp54
 70
     1
102
RTVSPropertyOp55
 70
     1
102
RTVSPropertyOp56
 70
     1
102
RTVSPropertyOp57
 70
     1
102
RTVSPropertyOp58
 70
     1
102
RTVSPropertyOp59
 70
     1
102
RTVSPropertyOp60
 70
     1
102
RTVSPropertyOp61
 70
     1
102
RTVSPropertyOp62
 70
     1
  0
XRECORD
  5
AAB9
102
{ACAD_REACTORS
330
AAB8
102
}
330
AAB8
100
AcDbXrecord
280
     1
102
RTVSPost2010Prop28
280
     0
102
RTVSPost2010PropOp28
 70
     1
102
RTVSPost2010Prop29
280
     1
102
RTVSPost2010PropOp29
 70
     1
102
RTVSPost2010Prop30
280
     1
102
RTVSPost2010PropOp30
 70
     1
102
RTVSPost2010Prop31
280
     0
102
RTVSPost2010PropOp31
 70
     1
102
RTVSPost2010Prop32
280
     0
102
RTVSPost2010PropOp32
 70
     1
102
RTVSPost2010Prop33
280
     0
102
RTVSPost2010PropOp33
 70
     1
102
RTVSPost2010Prop34
280
     0
102
RTVSPost2010PropOp34
 70
     1
102
RTVSPost2010Prop35
280
     0
102
RTVSPost2010PropOp35
 70
     1
102
RTVSPost2010Prop36
280
     0
102
RTVSPost2010PropOp36
 70
     1
102
RTVSPost2010Prop37
 90
       50
102
RTVSPost2010PropOp37
 70
     1
102
RTVSPost2010Prop38
140
0.0
102
RTVSPost2010PropOp38
 70
     1
102
RTVSPost2010Prop39
140
1.0
102
RTVSPost2010PropOp39
 70
     1
102
RTVSPost2010Prop40
 90
        0
102
RTVSPost2010PropOp40
 70
     1
102
RTVSPost2010Prop41ColorIndex
 90
       18
102
RTVSPost2010Prop41ColorRGB
 90
-16777216
102
RTVSPost2010PropOp41
 70
     1
102
RTVSPost2010Prop42
 90
       50
102
RTVSPost2010PropOp42
 70
     1
102
RTVSPost2010Prop43
 90
        3
102
RTVSPost2010PropOp43
 70
     1
102
RTVSPost2010Prop44ColorIndex
 90
        5
102
RTVSPost2010Prop44ColorRGB
 90
      255
102
RTVSPost2010PropOp44
 70
     1
102
RTVSPost2010Prop45
280
     0
102
RTVSPost2010PropOp45
 70
     1
102
RTVSPost2010Prop46
 90
       50
102
RTVSPost2010PropOp46
 70
     1
102
RTVSPost2010Prop47
 90
       50
102
RTVSPost2010PropOp47
 70
     1
102
RTVSPost2010Prop48
 90
       50
102
RTVSPost2010PropOp48
 70
     1
102
RTVSPost2010Prop49
280
     0
102
RTVSPost2010PropOp49
 70
     1
102
RTVSPost2010Prop50
 90
       50
102
RTVSPost2010PropOp50
 70
     1
102
RTVSPost2010Prop51ColorIndex
 90
      256
102
RTVSPost2010Prop51ColorRGB
 90
-16777216
102
RTVSPost2010PropOp51
 70
     0
102
RTVSPost2010Prop52
140
1.0
102
RTVSPost2010PropOp52
 70
     0
102
RTVSPost2010Prop53
 90
        2
102
RTVSPost2010PropOp53
 70
     1
102
RTVSPost2010Prop54
  1
strokes_ogs.tif
102
RTVSPost2010PropOp54
 70
     1
102
RTVSPost2010Prop55
280
     0
102
RTVSPost2010PropOp55
 70
     1
102
RTVSPost2010Prop56
140
1.0
102
RTVSPost2010PropOp56
 70
     1
102
RTVSPost2010Prop57
140
1.0
102
RTVSPost2010PropOp57
 70
     1
102
RTVSPropertyOp0
 70
     1
102
RTVSPropertyOp1
 70
     1
102
RTVSPropertyOp2
 70
     1
102
RTVSPropertyOp3
 70
     1
102
RTVSPropertyOp4
 70
     1
102
RTVSPropertyOp5
 70
     1
102
RTVSPropertyOp6
 70
     1
102
RTVSPropertyOp7
 70
     1
102
RTVSPropertyOp8
 70
     1
102
RTVSPropertyOp9
 70
     1
102
RTVSPropertyOp10
 70
     1
102
RTVSPropertyOp11
 70
     1
102
RTVSPropertyOp12
 70
     1
102
RTVSPropertyOp13
 70
     1
102
RTVSPropertyOp14
 70
     1
102
RTVSPropertyOp15
 70
     1
102
RTVSPropertyOp16
 70
     1
102
RTVSPropertyOp17
 70
     1
102
RTVSPropertyOp18
 70
     1
102
RTVSPropertyOp19
 70
     1
102
RTVSPropertyOp20
 70
     1
102
RTVSPropertyOp21
 70
     1
102
RTVSPropertyOp22
 70
     1
102
RTVSPropertyOp23
 70
     1
102
RTVSPropertyOp24
 70
     1
102
RTVSPropertyOp25
 70
     1
102
RTVSPropertyOp26
 70
     1
102
RTVSPropertyOp27
 70
     1
102
RTVSPropertyOp28
 70
     1
102
RTVSPropertyOp29
 70
     1
102
RTVSPropertyOp30
 70
     1
102
RTVSPropertyOp31
 70
     1
102
RTVSPropertyOp32
 70
     1
102
RTVSPropertyOp33
 70
     1
102
RTVSPropertyOp34
 70
     1
102
RTVSPropertyOp35
 70
     1
102
RTVSPropertyOp36
 70
     1
102
RTVSPropertyOp37
 70
     1
102
RTVSPropertyOp38
 70
     1
102
RTVSPropertyOp39
 70
     1
102
RTVSPropertyOp40
 70
     1
102
RTVSPropertyOp41
 70
     1
102
RTVSPropertyOp42
 70
     1
102
RTVSPropertyOp43
 70
     1
102
RTVSPropertyOp44
 70
     1
102
RTVSPropertyOp45
 70
     1
102
RTVSPropertyOp46
 70
     1
102
RTVSPropertyOp47
 70
     1
102
RTVSPropertyOp48
 70
     1
102
RTVSPropertyOp49
 70
     1
102
RTVSPropertyOp50
 70
     1
102
RTVSPropertyOp51
 70
     0
102
RTVSPropertyOp52
 70
     0
102
RTVSPropertyOp53
 70
     1
102
RTVSPropertyOp54
 70
     1
102
RTVSPropertyOp55
 70
     1
102
RTVSPropertyOp56
 70
     1
102
RTVSPropertyOp57
 70
     1
102
RTVSPropertyOp58
 70
     1
102
RTVSPropertyOp59
 70
     1
102
RTVSPropertyOp60
 70
     1
102
RTVSPropertyOp61
 70
     1
102
RTVSPropertyOp62
 70
     1
  0
XRECORD
  5
AAB3
102
{ACAD_REACTORS
330
AAB2
102
}
330
AAB2
100
AcDbXrecord
280
     1
102
RTVSPost2010Prop28
280
     0
102
RTVSPost2010PropOp28
 70
     1
102
RTVSPost2010Prop29
280
     1
102
RTVSPost2010PropOp29
 70
     1
102
RTVSPost2010Prop30
280
     1
102
RTVSPost2010PropOp30
 70
     1
102
RTVSPost2010Prop31
280
     0
102
RTVSPost2010PropOp31
 70
     1
102
RTVSPost2010Prop32
280
     0
102
RTVSPost2010PropOp32
 70
     1
102
RTVSPost2010Prop33
280
     0
102
RTVSPost2010PropOp33
 70
     1
102
RTVSPost2010Prop34
280
     0
102
RTVSPost2010PropOp34
 70
     1
102
RTVSPost2010Prop35
280
     0
102
RTVSPost2010PropOp35
 70
     1
102
RTVSPost2010Prop36
280
     0
102
RTVSPost2010PropOp36
 70
     1
102
RTVSPost2010Prop37
 90
       50
102
RTVSPost2010PropOp37
 70
     1
102
RTVSPost2010Prop38
140
0.0
102
RTVSPost2010PropOp38
 70
     1
102
RTVSPost2010Prop39
140
1.0
102
RTVSPost2010PropOp39
 70
     1
102
RTVSPost2010Prop40
 90
        0
102
RTVSPost2010PropOp40
 70
     1
102
RTVSPost2010Prop41ColorIndex
 90
       18
102
RTVSPost2010Prop41ColorRGB
 90
-16777216
102
RTVSPost2010PropOp41
 70
     1
102
RTVSPost2010Prop42
 90
       50
102
RTVSPost2010PropOp42
 70
     1
102
RTVSPost2010Prop43
 90
        3
102
RTVSPost2010PropOp43
 70
     1
102
RTVSPost2010Prop44ColorIndex
 90
        5
102
RTVSPost2010Prop44ColorRGB
 90
      255
102
RTVSPost2010PropOp44
 70
     1
102
RTVSPost2010Prop45
280
     0
102
RTVSPost2010PropOp45
 70
     1
102
RTVSPost2010Prop46
 90
       50
102
RTVSPost2010PropOp46
 70
     1
102
RTVSPost2010Prop47
 90
       50
102
RTVSPost2010PropOp47
 70
     1
102
RTVSPost2010Prop48
 90
       50
102
RTVSPost2010PropOp48
 70
     1
102
RTVSPost2010Prop49
280
     0
102
RTVSPost2010PropOp49
 70
     1
102
RTVSPost2010Prop50
 90
       50
102
RTVSPost2010PropOp50
 70
     1
102
RTVSPost2010Prop51ColorIndex
 90
      256
102
RTVSPost2010Prop51ColorRGB
 90
-16777216
102
RTVSPost2010PropOp51
 70
     0
102
RTVSPost2010Prop52
140
1.0
102
RTVSPost2010PropOp52
 70
     0
102
RTVSPost2010Prop53
 90
        2
102
RTVSPost2010PropOp53
 70
     1
102
RTVSPost2010Prop54
  1
strokes_ogs.tif
102
RTVSPost2010PropOp54
 70
     1
102
RTVSPost2010Prop55
280
     0
102
RTVSPost2010PropOp55
 70
     1
102
RTVSPost2010Prop56
140
1.0
102
RTVSPost2010PropOp56
 70
     1
102
RTVSPost2010Prop57
140
1.0
102
RTVSPost2010PropOp57
 70
     1
102
RTVSPropertyOp0
 70
     1
102
RTVSPropertyOp1
 70
     1
102
RTVSPropertyOp2
 70
     1
102
RTVSPropertyOp3
 70
     1
102
RTVSPropertyOp4
 70
     1
102
RTVSPropertyOp5
 70
     1
102
RTVSPropertyOp6
 70
     1
102
RTVSPropertyOp7
 70
     1
102
RTVSPropertyOp8
 70
     1
102
RTVSPropertyOp9
 70
     1
102
RTVSPropertyOp10
 70
     1
102
RTVSPropertyOp11
 70
     1
102
RTVSPropertyOp12
 70
     1
102
RTVSPropertyOp13
 70
     1
102
RTVSPropertyOp14
 70
     1
102
RTVSPropertyOp15
 70
     1
102
RTVSPropertyOp16
 70
     1
102
RTVSPropertyOp17
 70
     1
102
RTVSPropertyOp18
 70
     1
102
RTVSPropertyOp19
 70
     1
102
RTVSPropertyOp20
 70
     1
102
RTVSPropertyOp21
 70
     1
102
RTVSPropertyOp22
 70
     1
102
RTVSPropertyOp23
 70
     1
102
RTVSPropertyOp24
 70
     1
102
RTVSPropertyOp25
 70
     1
102
RTVSPropertyOp26
 70
     1
102
RTVSPropertyOp27
 70
     1
102
RTVSPropertyOp28
 70
     1
102
RTVSPropertyOp29
 70
     1
102
RTVSPropertyOp30
 70
     1
102
RTVSPropertyOp31
 70
     1
102
RTVSPropertyOp32
 70
     1
102
RTVSPropertyOp33
 70
     1
102
RTVSPropertyOp34
 70
     1
102
RTVSPropertyOp35
 70
     1
102
RTVSPropertyOp36
 70
     1
102
RTVSPropertyOp37
 70
     1
102
RTVSPropertyOp38
 70
     1
102
RTVSPropertyOp39
 70
     1
102
RTVSPropertyOp40
 70
     1
102
RTVSPropertyOp41
 70
     1
102
RTVSPropertyOp42
 70
     1
102
RTVSPropertyOp43
 70
     1
102
RTVSPropertyOp44
 70
     1
102
RTVSPropertyOp45
 70
     1
102
RTVSPropertyOp46
 70
     1
102
RTVSPropertyOp47
 70
     1
102
RTVSPropertyOp48
 70
     1
102
RTVSPropertyOp49
 70
     1
102
RTVSPropertyOp50
 70
     1
102
RTVSPropertyOp51
 70
     0
102
RTVSPropertyOp52
 70
     0
102
RTVSPropertyOp53
 70
     1
102
RTVSPropertyOp54
 70
     1
102
RTVSPropertyOp55
 70
     1
102
RTVSPropertyOp56
 70
     1
102
RTVSPropertyOp57
 70
     1
102
RTVSPropertyOp58
 70
     1
102
RTVSPropertyOp59
 70
     1
102
RTVSPropertyOp60
 70
     1
102
RTVSPropertyOp61
 70
     1
102
RTVSPropertyOp62
 70
     1
  0
XRECORD
  5
AAB5
102
{ACAD_REACTORS
330
AAB4
102
}
330
AAB4
100
AcDbXrecord
280
     1
102
RTVSPost2010Prop28
280
     0
102
RTVSPost2010PropOp28
 70
     1
102
RTVSPost2010Prop29
280
     1
102
RTVSPost2010PropOp29
 70
     1
102
RTVSPost2010Prop30
280
     1
102
RTVSPost2010PropOp30
 70
     1
102
RTVSPost2010Prop31
280
     0
102
RTVSPost2010PropOp31
 70
     1
102
RTVSPost2010Prop32
280
     0
102
RTVSPost2010PropOp32
 70
     1
102
RTVSPost2010Prop33
280
     0
102
RTVSPost2010PropOp33
 70
     1
102
RTVSPost2010Prop34
280
     0
102
RTVSPost2010PropOp34
 70
     1
102
RTVSPost2010Prop35
280
     0
102
RTVSPost2010PropOp35
 70
     1
102
RTVSPost2010Prop36
280
     0
102
RTVSPost2010PropOp36
 70
     1
102
RTVSPost2010Prop37
 90
       50
102
RTVSPost2010PropOp37
 70
     1
102
RTVSPost2010Prop38
140
0.0
102
RTVSPost2010PropOp38
 70
     1
102
RTVSPost2010Prop39
140
1.0
102
RTVSPost2010PropOp39
 70
     1
102
RTVSPost2010Prop40
 90
        0
102
RTVSPost2010PropOp40
 70
     1
102
RTVSPost2010Prop41ColorIndex
 90
       18
102
RTVSPost2010Prop41ColorRGB
 90
-16777216
102
RTVSPost2010PropOp41
 70
     1
102
RTVSPost2010Prop42
 90
       50
102
RTVSPost2010PropOp42
 70
     1
102
RTVSPost2010Prop43
 90
        3
102
RTVSPost2010PropOp43
 70
     1
102
RTVSPost2010Prop44ColorIndex
 90
        5
102
RTVSPost2010Prop44ColorRGB
 90
      255
102
RTVSPost2010PropOp44
 70
     1
102
RTVSPost2010Prop45
280
     0
102
RTVSPost2010PropOp45
 70
     1
102
RTVSPost2010Prop46
 90
       50
102
RTVSPost2010PropOp46
 70
     1
102
RTVSPost2010Prop47
 90
       50
102
RTVSPost2010PropOp47
 70
     1
102
RTVSPost2010Prop48
 90
       50
102
RTVSPost2010PropOp48
 70
     1
102
RTVSPost2010Prop49
280
     0
102
RTVSPost2010PropOp49
 70
     1
102
RTVSPost2010Prop50
 90
       50
102
RTVSPost2010PropOp50
 70
     1
102
RTVSPost2010Prop51ColorIndex
 90
      256
102
RTVSPost2010Prop51ColorRGB
 90
-16777216
102
RTVSPost2010PropOp51
 70
     0
102
RTVSPost2010Prop52
140
1.0
102
RTVSPost2010PropOp52
 70
     0
102
RTVSPost2010Prop53
 90
        2
102
RTVSPost2010PropOp53
 70
     1
102
RTVSPost2010Prop54
  1
strokes_ogs.tif
102
RTVSPost2010PropOp54
 70
     1
102
RTVSPost2010Prop55
280
     0
102
RTVSPost2010PropOp55
 70
     1
102
RTVSPost2010Prop56
140
1.0
102
RTVSPost2010PropOp56
 70
     1
102
RTVSPost2010Prop57
140
1.0
102
RTVSPost2010PropOp57
 70
     1
102
RTVSPropertyOp0
 70
     1
102
RTVSPropertyOp1
 70
     1
102
RTVSPropertyOp2
 70
     1
102
RTVSPropertyOp3
 70
     1
102
RTVSPropertyOp4
 70
     1
102
RTVSPropertyOp5
 70
     1
102
RTVSPropertyOp6
 70
     1
102
RTVSPropertyOp7
 70
     1
102
RTVSPropertyOp8
 70
     1
102
RTVSPropertyOp9
 70
     1
102
RTVSPropertyOp10
 70
     1
102
RTVSPropertyOp11
 70
     1
102
RTVSPropertyOp12
 70
     1
102
RTVSPropertyOp13
 70
     1
102
RTVSPropertyOp14
 70
     1
102
RTVSPropertyOp15
 70
     1
102
RTVSPropertyOp16
 70
     1
102
RTVSPropertyOp17
 70
     1
102
RTVSPropertyOp18
 70
     1
102
RTVSPropertyOp19
 70
     1
102
RTVSPropertyOp20
 70
     1
102
RTVSPropertyOp21
 70
     1
102
RTVSPropertyOp22
 70
     1
102
RTVSPropertyOp23
 70
     1
102
RTVSPropertyOp24
 70
     1
102
RTVSPropertyOp25
 70
     1
102
RTVSPropertyOp26
 70
     1
102
RTVSPropertyOp27
 70
     1
102
RTVSPropertyOp28
 70
     1
102
RTVSPropertyOp29
 70
     1
102
RTVSPropertyOp30
 70
     1
102
RTVSPropertyOp31
 70
     1
102
RTVSPropertyOp32
 70
     1
102
RTVSPropertyOp33
 70
     1
102
RTVSPropertyOp34
 70
     1
102
RTVSPropertyOp35
 70
     1
102
RTVSPropertyOp36
 70
     1
102
RTVSPropertyOp37
 70
     1
102
RTVSPropertyOp38
 70
     1
102
RTVSPropertyOp39
 70
     1
102
RTVSPropertyOp40
 70
     1
102
RTVSPropertyOp41
 70
     1
102
RTVSPropertyOp42
 70
     1
102
RTVSPropertyOp43
 70
     1
102
RTVSPropertyOp44
 70
     1
102
RTVSPropertyOp45
 70
     1
102
RTVSPropertyOp46
 70
     1
102
RTVSPropertyOp47
 70
     1
102
RTVSPropertyOp48
 70
     1
102
RTVSPropertyOp49
 70
     1
102
RTVSPropertyOp50
 70
     1
102
RTVSPropertyOp51
 70
     0
102
RTVSPropertyOp52
 70
     0
102
RTVSPropertyOp53
 70
     1
102
RTVSPropertyOp54
 70
     1
102
RTVSPropertyOp55
 70
     1
102
RTVSPropertyOp56
 70
     1
102
RTVSPropertyOp57
 70
     1
102
RTVSPropertyOp58
 70
     1
102
RTVSPropertyOp59
 70
     1
102
RTVSPropertyOp60
 70
     1
102
RTVSPropertyOp61
 70
     1
102
RTVSPropertyOp62
 70
     1
  0
XRECORD
  5
AAAB
102
{ACAD_REACTORS
330
AAAA
102
}
330
AAAA
100
AcDbXrecord
280
     1
102
RTVSPost2010Prop28
280
     0
102
RTVSPost2010PropOp28
 70
     1
102
RTVSPost2010Prop29
280
     1
102
RTVSPost2010PropOp29
 70
     1
102
RTVSPost2010Prop30
280
     1
102
RTVSPost2010PropOp30
 70
     1
102
RTVSPost2010Prop31
280
     0
102
RTVSPost2010PropOp31
 70
     1
102
RTVSPost2010Prop32
280
     0
102
RTVSPost2010PropOp32
 70
     1
102
RTVSPost2010Prop33
280
     0
102
RTVSPost2010PropOp33
 70
     1
102
RTVSPost2010Prop34
280
     0
102
RTVSPost2010PropOp34
 70
     1
102
RTVSPost2010Prop35
280
     0
102
RTVSPost2010PropOp35
 70
     1
102
RTVSPost2010Prop36
280
     0
102
RTVSPost2010PropOp36
 70
     1
102
RTVSPost2010Prop37
 90
       50
102
RTVSPost2010PropOp37
 70
     1
102
RTVSPost2010Prop38
140
0.0
102
RTVSPost2010PropOp38
 70
     1
102
RTVSPost2010Prop39
140
1.0
102
RTVSPost2010PropOp39
 70
     1
102
RTVSPost2010Prop40
 90
        0
102
RTVSPost2010PropOp40
 70
     1
102
RTVSPost2010Prop41ColorIndex
 90
       18
102
RTVSPost2010Prop41ColorRGB
 90
-16777216
102
RTVSPost2010PropOp41
 70
     1
102
RTVSPost2010Prop42
 90
       50
102
RTVSPost2010PropOp42
 70
     1
102
RTVSPost2010Prop43
 90
        3
102
RTVSPost2010PropOp43
 70
     1
102
RTVSPost2010Prop44ColorIndex
 90
        5
102
RTVSPost2010Prop44ColorRGB
 90
      255
102
RTVSPost2010PropOp44
 70
     1
102
RTVSPost2010Prop45
280
     0
102
RTVSPost2010PropOp45
 70
     1
102
RTVSPost2010Prop46
 90
       50
102
RTVSPost2010PropOp46
 70
     1
102
RTVSPost2010Prop47
 90
       50
102
RTVSPost2010PropOp47
 70
     1
102
RTVSPost2010Prop48
 90
       50
102
RTVSPost2010PropOp48
 70
     1
102
RTVSPost2010Prop49
280
     0
102
RTVSPost2010PropOp49
 70
     1
102
RTVSPost2010Prop50
 90
       50
102
RTVSPost2010PropOp50
 70
     1
102
RTVSPost2010Prop51ColorIndex
 90
      256
102
RTVSPost2010Prop51ColorRGB
 90
-16777216
102
RTVSPost2010PropOp51
 70
     0
102
RTVSPost2010Prop52
140
1.0
102
RTVSPost2010PropOp52
 70
     0
102
RTVSPost2010Prop53
 90
        2
102
RTVSPost2010PropOp53
 70
     1
102
RTVSPost2010Prop54
  1
strokes_ogs.tif
102
RTVSPost2010PropOp54
 70
     1
102
RTVSPost2010Prop55
280
     0
102
RTVSPost2010PropOp55
 70
     1
102
RTVSPost2010Prop56
140
1.0
102
RTVSPost2010PropOp56
 70
     1
102
RTVSPost2010Prop57
140
1.0
102
RTVSPost2010PropOp57
 70
     1
102
RTVSPropertyOp0
 70
     1
102
RTVSPropertyOp1
 70
     1
102
RTVSPropertyOp2
 70
     1
102
RTVSPropertyOp3
 70
     1
102
RTVSPropertyOp4
 70
     1
102
RTVSPropertyOp5
 70
     1
102
RTVSPropertyOp6
 70
     1
102
RTVSPropertyOp7
 70
     1
102
RTVSPropertyOp8
 70
     1
102
RTVSPropertyOp9
 70
     1
102
RTVSPropertyOp10
 70
     1
102
RTVSPropertyOp11
 70
     1
102
RTVSPropertyOp12
 70
     1
102
RTVSPropertyOp13
 70
     1
102
RTVSPropertyOp14
 70
     1
102
RTVSPropertyOp15
 70
     1
102
RTVSPropertyOp16
 70
     1
102
RTVSPropertyOp17
 70
     1
102
RTVSPropertyOp18
 70
     1
102
RTVSPropertyOp19
 70
     1
102
RTVSPropertyOp20
 70
     1
102
RTVSPropertyOp21
 70
     1
102
RTVSPropertyOp22
 70
     1
102
RTVSPropertyOp23
 70
     1
102
RTVSPropertyOp24
 70
     1
102
RTVSPropertyOp25
 70
     1
102
RTVSPropertyOp26
 70
     1
102
RTVSPropertyOp27
 70
     1
102
RTVSPropertyOp28
 70
     1
102
RTVSPropertyOp29
 70
     1
102
RTVSPropertyOp30
 70
     1
102
RTVSPropertyOp31
 70
     1
102
RTVSPropertyOp32
 70
     1
102
RTVSPropertyOp33
 70
     1
102
RTVSPropertyOp34
 70
     1
102
RTVSPropertyOp35
 70
     1
102
RTVSPropertyOp36
 70
     1
102
RTVSPropertyOp37
 70
     1
102
RTVSPropertyOp38
 70
     1
102
RTVSPropertyOp39
 70
     1
102
RTVSPropertyOp40
 70
     1
102
RTVSPropertyOp41
 70
     1
102
RTVSPropertyOp42
 70
     1
102
RTVSPropertyOp43
 70
     1
102
RTVSPropertyOp44
 70
     1
102
RTVSPropertyOp45
 70
     1
102
RTVSPropertyOp46
 70
     1
102
RTVSPropertyOp47
 70
     1
102
RTVSPropertyOp48
 70
     1
102
RTVSPropertyOp49
 70
     1
102
RTVSPropertyOp50
 70
     1
102
RTVSPropertyOp51
 70
     0
102
RTVSPropertyOp52
 70
     0
102
RTVSPropertyOp53
 70
     1
102
RTVSPropertyOp54
 70
     1
102
RTVSPropertyOp55
 70
     1
102
RTVSPropertyOp56
 70
     1
102
RTVSPropertyOp57
 70
     1
102
RTVSPropertyOp58
 70
     1
102
RTVSPropertyOp59
 70
     1
102
RTVSPropertyOp60
 70
     1
102
RTVSPropertyOp61
 70
     1
102
RTVSPropertyOp62
 70
     1
  0
XRECORD
  5
AA9F
102
{ACAD_REACTORS
330
AA9E
102
}
330
AA9E
100
AcDbXrecord
280
     1
102
RTVSPost2010Prop28
280
     0
102
RTVSPost2010PropOp28
 70
     1
102
RTVSPost2010Prop29
280
     1
102
RTVSPost2010PropOp29
 70
     1
102
RTVSPost2010Prop30
280
     1
102
RTVSPost2010PropOp30
 70
     1
102
RTVSPost2010Prop31
280
     0
102
RTVSPost2010PropOp31
 70
     1
102
RTVSPost2010Prop32
280
     0
102
RTVSPost2010PropOp32
 70
     1
102
RTVSPost2010Prop33
280
     0
102
RTVSPost2010PropOp33
 70
     1
102
RTVSPost2010Prop34
280
     0
102
RTVSPost2010PropOp34
 70
     1
102
RTVSPost2010Prop35
280
     0
102
RTVSPost2010PropOp35
 70
     1
102
RTVSPost2010Prop36
280
     0
102
RTVSPost2010PropOp36
 70
     1
102
RTVSPost2010Prop37
 90
       50
102
RTVSPost2010PropOp37
 70
     1
102
RTVSPost2010Prop38
140
0.0
102
RTVSPost2010PropOp38
 70
     1
102
RTVSPost2010Prop39
140
1.0
102
RTVSPost2010PropOp39
 70
     1
102
RTVSPost2010Prop40
 90
        0
102
RTVSPost2010PropOp40
 70
     1
102
RTVSPost2010Prop41ColorIndex
 90
       18
102
RTVSPost2010Prop41ColorRGB
 90
-16777216
102
RTVSPost2010PropOp41
 70
     1
102
RTVSPost2010Prop42
 90
       50
102
RTVSPost2010PropOp42
 70
     1
102
RTVSPost2010Prop43
 90
        3
102
RTVSPost2010PropOp43
 70
     1
102
RTVSPost2010Prop44ColorIndex
 90
        5
102
RTVSPost2010Prop44ColorRGB
 90
      255
102
RTVSPost2010PropOp44
 70
     1
102
RTVSPost2010Prop45
280
     0
102
RTVSPost2010PropOp45
 70
     1
102
RTVSPost2010Prop46
 90
       50
102
RTVSPost2010PropOp46
 70
     1
102
RTVSPost2010Prop47
 90
       50
102
RTVSPost2010PropOp47
 70
     1
102
RTVSPost2010Prop48
 90
       50
102
RTVSPost2010PropOp48
 70
     1
102
RTVSPost2010Prop49
280
     0
102
RTVSPost2010PropOp49
 70
     1
102
RTVSPost2010Prop50
 90
       50
102
RTVSPost2010PropOp50
 70
     1
102
RTVSPost2010Prop51ColorIndex
 90
      256
102
RTVSPost2010Prop51ColorRGB
 90
-16777216
102
RTVSPost2010PropOp51
 70
     0
102
RTVSPost2010Prop52
140
1.0
102
RTVSPost2010PropOp52
 70
     0
102
RTVSPost2010Prop53
 90
        2
102
RTVSPost2010PropOp53
 70
     1
102
RTVSPost2010Prop54
  1
strokes_ogs.tif
102
RTVSPost2010PropOp54
 70
     1
102
RTVSPost2010Prop55
280
     0
102
RTVSPost2010PropOp55
 70
     1
102
RTVSPost2010Prop56
140
1.0
102
RTVSPost2010PropOp56
 70
     1
102
RTVSPost2010Prop57
140
1.0
102
RTVSPost2010PropOp57
 70
     1
102
RTVSPropertyOp0
 70
     1
102
RTVSPropertyOp1
 70
     1
102
RTVSPropertyOp2
 70
     1
102
RTVSPropertyOp3
 70
     1
102
RTVSPropertyOp4
 70
     1
102
RTVSPropertyOp5
 70
     1
102
RTVSPropertyOp6
 70
     1
102
RTVSPropertyOp7
 70
     1
102
RTVSPropertyOp8
 70
     1
102
RTVSPropertyOp9
 70
     1
102
RTVSPropertyOp10
 70
     1
102
RTVSPropertyOp11
 70
     1
102
RTVSPropertyOp12
 70
     1
102
RTVSPropertyOp13
 70
     1
102
RTVSPropertyOp14
 70
     1
102
RTVSPropertyOp15
 70
     1
102
RTVSPropertyOp16
 70
     1
102
RTVSPropertyOp17
 70
     1
102
RTVSPropertyOp18
 70
     1
102
RTVSPropertyOp19
 70
     1
102
RTVSPropertyOp20
 70
     1
102
RTVSPropertyOp21
 70
     1
102
RTVSPropertyOp22
 70
     1
102
RTVSPropertyOp23
 70
     1
102
RTVSPropertyOp24
 70
     1
102
RTVSPropertyOp25
 70
     1
102
RTVSPropertyOp26
 70
     1
102
RTVSPropertyOp27
 70
     1
102
RTVSPropertyOp28
 70
     1
102
RTVSPropertyOp29
 70
     1
102
RTVSPropertyOp30
 70
     1
102
RTVSPropertyOp31
 70
     1
102
RTVSPropertyOp32
 70
     1
102
RTVSPropertyOp33
 70
     1
102
RTVSPropertyOp34
 70
     1
102
RTVSPropertyOp35
 70
     1
102
RTVSPropertyOp36
 70
     1
102
RTVSPropertyOp37
 70
     1
102
RTVSPropertyOp38
 70
     1
102
RTVSPropertyOp39
 70
     1
102
RTVSPropertyOp40
 70
     1
102
RTVSPropertyOp41
 70
     1
102
RTVSPropertyOp42
 70
     1
102
RTVSPropertyOp43
 70
     1
102
RTVSPropertyOp44
 70
     1
102
RTVSPropertyOp45
 70
     1
102
RTVSPropertyOp46
 70
     1
102
RTVSPropertyOp47
 70
     1
102
RTVSPropertyOp48
 70
     1
102
RTVSPropertyOp49
 70
     1
102
RTVSPropertyOp50
 70
     1
102
RTVSPropertyOp51
 70
     0
102
RTVSPropertyOp52
 70
     0
102
RTVSPropertyOp53
 70
     1
102
RTVSPropertyOp54
 70
     1
102
RTVSPropertyOp55
 70
     1
102
RTVSPropertyOp56
 70
     1
102
RTVSPropertyOp57
 70
     1
102
RTVSPropertyOp58
 70
     1
102
RTVSPropertyOp59
 70
     1
102
RTVSPropertyOp60
 70
     1
102
RTVSPropertyOp61
 70
     1
102
RTVSPropertyOp62
 70
     1
  0
XRECORD
  5
AAB7
102
{ACAD_REACTORS
330
AAB6
102
}
330
AAB6
100
AcDbXrecord
280
     1
102
RTVSPost2010Prop28
280
     0
102
RTVSPost2010PropOp28
 70
     1
102
RTVSPost2010Prop29
280
     1
102
RTVSPost2010PropOp29
 70
     1
102
RTVSPost2010Prop30
280
     1
102
RTVSPost2010PropOp30
 70
     1
102
RTVSPost2010Prop31
280
     0
102
RTVSPost2010PropOp31
 70
     1
102
RTVSPost2010Prop32
280
     0
102
RTVSPost2010PropOp32
 70
     1
102
RTVSPost2010Prop33
280
     0
102
RTVSPost2010PropOp33
 70
     1
102
RTVSPost2010Prop34
280
     0
102
RTVSPost2010PropOp34
 70
     1
102
RTVSPost2010Prop35
280
     0
102
RTVSPost2010PropOp35
 70
     1
102
RTVSPost2010Prop36
280
     0
102
RTVSPost2010PropOp36
 70
     1
102
RTVSPost2010Prop37
 90
       50
102
RTVSPost2010PropOp37
 70
     1
102
RTVSPost2010Prop38
140
0.0
102
RTVSPost2010PropOp38
 70
     1
102
RTVSPost2010Prop39
140
1.0
102
RTVSPost2010PropOp39
 70
     1
102
RTVSPost2010Prop40
 90
        0
102
RTVSPost2010PropOp40
 70
     1
102
RTVSPost2010Prop41ColorIndex
 90
       18
102
RTVSPost2010Prop41ColorRGB
 90
-16777216
102
RTVSPost2010PropOp41
 70
     1
102
RTVSPost2010Prop42
 90
       50
102
RTVSPost2010PropOp42
 70
     1
102
RTVSPost2010Prop43
 90
        3
102
RTVSPost2010PropOp43
 70
     1
102
RTVSPost2010Prop44ColorIndex
 90
        5
102
RTVSPost2010Prop44ColorRGB
 90
      255
102
RTVSPost2010PropOp44
 70
     1
102
RTVSPost2010Prop45
280
     0
102
RTVSPost2010PropOp45
 70
     1
102
RTVSPost2010Prop46
 90
       50
102
RTVSPost2010PropOp46
 70
     1
102
RTVSPost2010Prop47
 90
       50
102
RTVSPost2010PropOp47
 70
     1
102
RTVSPost2010Prop48
 90
       50
102
RTVSPost2010PropOp48
 70
     1
102
RTVSPost2010Prop49
280
     0
102
RTVSPost2010PropOp49
 70
     1
102
RTVSPost2010Prop50
 90
       50
102
RTVSPost2010PropOp50
 70
     1
102
RTVSPost2010Prop51ColorIndex
 90
      256
102
RTVSPost2010Prop51ColorRGB
 90
-16777216
102
RTVSPost2010PropOp51
 70
     0
102
RTVSPost2010Prop52
140
1.0
102
RTVSPost2010PropOp52
 70
     0
102
RTVSPost2010Prop53
 90
        2
102
RTVSPost2010PropOp53
 70
     1
102
RTVSPost2010Prop54
  1
strokes_ogs.tif
102
RTVSPost2010PropOp54
 70
     1
102
RTVSPost2010Prop55
280
     0
102
RTVSPost2010PropOp55
 70
     1
102
RTVSPost2010Prop56
140
1.0
102
RTVSPost2010PropOp56
 70
     1
102
RTVSPost2010Prop57
140
1.0
102
RTVSPost2010PropOp57
 70
     1
102
RTVSPropertyOp0
 70
     1
102
RTVSPropertyOp1
 70
     1
102
RTVSPropertyOp2
 70
     1
102
RTVSPropertyOp3
 70
     1
102
RTVSPropertyOp4
 70
     1
102
RTVSPropertyOp5
 70
     1
102
RTVSPropertyOp6
 70
     1
102
RTVSPropertyOp7
 70
     1
102
RTVSPropertyOp8
 70
     1
102
RTVSPropertyOp9
 70
     1
102
RTVSPropertyOp10
 70
     1
102
RTVSPropertyOp11
 70
     1
102
RTVSPropertyOp12
 70
     1
102
RTVSPropertyOp13
 70
     1
102
RTVSPropertyOp14
 70
     1
102
RTVSPropertyOp15
 70
     1
102
RTVSPropertyOp16
 70
     1
102
RTVSPropertyOp17
 70
     1
102
RTVSPropertyOp18
 70
     1
102
RTVSPropertyOp19
 70
     1
102
RTVSPropertyOp20
 70
     1
102
RTVSPropertyOp21
 70
     1
102
RTVSPropertyOp22
 70
     1
102
RTVSPropertyOp23
 70
     1
102
RTVSPropertyOp24
 70
     1
102
RTVSPropertyOp25
 70
     1
102
RTVSPropertyOp26
 70
     1
102
RTVSPropertyOp27
 70
     1
102
RTVSPropertyOp28
 70
     1
102
RTVSPropertyOp29
 70
     1
102
RTVSPropertyOp30
 70
     1
102
RTVSPropertyOp31
 70
     1
102
RTVSPropertyOp32
 70
     1
102
RTVSPropertyOp33
 70
     1
102
RTVSPropertyOp34
 70
     1
102
RTVSPropertyOp35
 70
     1
102
RTVSPropertyOp36
 70
     1
102
RTVSPropertyOp37
 70
     1
102
RTVSPropertyOp38
 70
     1
102
RTVSPropertyOp39
 70
     1
102
RTVSPropertyOp40
 70
     1
102
RTVSPropertyOp41
 70
     1
102
RTVSPropertyOp42
 70
     1
102
RTVSPropertyOp43
 70
     1
102
RTVSPropertyOp44
 70
     1
102
RTVSPropertyOp45
 70
     1
102
RTVSPropertyOp46
 70
     1
102
RTVSPropertyOp47
 70
     1
102
RTVSPropertyOp48
 70
     1
102
RTVSPropertyOp49
 70
     1
102
RTVSPropertyOp50
 70
     1
102
RTVSPropertyOp51
 70
     0
102
RTVSPropertyOp52
 70
     0
102
RTVSPropertyOp53
 70
     1
102
RTVSPropertyOp54
 70
     1
102
RTVSPropertyOp55
 70
     1
102
RTVSPropertyOp56
 70
     1
102
RTVSPropertyOp57
 70
     1
102
RTVSPropertyOp58
 70
     1
102
RTVSPropertyOp59
 70
     1
102
RTVSPropertyOp60
 70
     1
102
RTVSPropertyOp61
 70
     1
102
RTVSPropertyOp62
 70
     1
  0
ENDSEC
  0
EOF
