  0
SECTION
  2
HEADER
  9
$ACADVER
  1
AC1021
  9
$ACADMAINTVER
 70
    50
  9
$DWGCODEPAGE
  3
ANSI_932
  9
$LASTSAVEDBY
  1
mino-t
  9
$INSBASE
 10
0.0
 20
0.0
 30
0.0
  9
$EXTMIN
 10
80.0
 20
-0.000000000000453
 30
0.0
  9
$EXTMAX
 10
3271.651703438543
 20
2808.0
 30
0.0
  9
$LIMMIN
 10
0.0
 20
0.0
  9
$LIMMAX
 10
2100.0
 20
2970.0
  9
$ORTHOMODE
 70
     1
  9
$REGENMODE
 70
     1
  9
$FILLMODE
 70
     1
  9
$QTEXTMODE
 70
     0
  9
$MIRRTEXT
 70
     0
  9
$LTSCALE
 40
80.0
  9
$ATTMODE
 70
     1
  9
$TEXTSIZE
 40
30.0
  9
$TRACEWID
 40
0.05
  9
$TEXTSTYLE
  7
STANDARD
  9
$CLAYER
  8
0
  9
$CELTYPE
  6
ByLayer
  9
$CECOLOR
 62
   256
  9
$CELTSCALE
 40
1.0
  9
$DISPSILH
 70
     0
  9
$DIMSCALE
 40
10.0
  9
$DIMASZ
 40
0.12
  9
$DIMEXO
 40
0.05
  9
$DIMDLI
 40
0.5
  9
$DIMRND
 40
0.0
  9
$DIMDLE
 40
0.0
  9
$DIMEXE
 40
0.1
  9
$DIMTP
 40
0.1
  9
$DIMTM
 40
0.1
  9
$DIMTXT
 40
0.12
  9
$DIMCEN
 40
0.0
  9
$DIMTSZ
 40
0.0
  9
$DIMTOL
 70
     0
  9
$DIMLIM
 70
     0
  9
$DIMTIH
 70
     1
  9
$DIMTOH
 70
     1
  9
$DIMSE1
 70
     0
  9
$DIMSE2
 70
     0
  9
$DIMTAD
 70
     0
  9
$DIMZIN
 70
     7
  9
$DIMBLK
  1

  9
$DIMASO
 70
     1
  9
$DIMSHO
 70
     1
  9
$DIMPOST
  1

  9
$DIMAPOST
  1
mm
  9
$DIMALT
 70
     0
  9
$DIMALTD
 70
     2
  9
$DIMALTF
 40
25.4
  9
$DIMLFAC
 40
1.0
  9
$DIMTOFL
 70
     0
  9
$DIMTVP
 40
0.0
  9
$DIMTIX
 70
     0
  9
$DIMSOXD
 70
     0
  9
$DIMSAH
 70
     0
  9
$DIMBLK1
  1

  9
$DIMBLK2
  1

  9
$DIMSTYLE
  2
AM_ANSI
  9
$DIMCLRD
 70
   256
  9
$DIMCLRE
 70
   256
  9
$DIMCLRT
 70
     2
  9
$DIMTFAC
 40
0.71
  9
$DIMGAP
 40
0.06
  9
$DIMJUST
 70
     0
  9
$DIMSD1
 70
     0
  9
$DIMSD2
 70
     0
  9
$DIMTOLJ
 70
     1
  9
$DIMTZIN
 70
     0
  9
$DIMALTZ
 70
     0
  9
$DIMALTTZ
 70
     0
  9
$DIMUPT
 70
     0
  9
$DIMDEC
 70
     4
  9
$DIMTDEC
 70
     4
  9
$DIMALTU
 70
     2
  9
$DIMALTTD
 70
     2
  9
$DIMTXSTY
  7
STANDARD
  9
$DIMAUNIT
 70
     0
  9
$DIMADEC
 70
     0
  9
$DIMALTRND
 40
0.0
  9
$DIMAZIN
 70
     0
  9
$DIMDSEP
 70
    46
  9
$DIMATFIT
 70
     3
  9
$DIMFRAC
 70
     0
  9
$DIMLDRBLK
  1

  9
$DIMLUNIT
 70
     2
  9
$DIMLWD
 70
    -2
  9
$DIMLWE
 70
    -2
  9
$DIMTMOVE
 70
     0
  9
$DIMFXL
 40
1.0
  9
$DIMFXLON
 70
     0
  9
$DIMJOGANG
 40
0.7853981633974483
  9
$DIMTFILL
 70
     0
  9
$DIMTFILLCLR
 70
     0
  9
$DIMARCSYM
 70
     0
  9
$DIMLTYPE
  6

  9
$DIMLTEX1
  6

  9
$DIMLTEX2
  6

  9
$LUNITS
 70
     2
  9
$LUPREC
 70
     3
  9
$SKETCHINC
 40
0.1
  9
$FILLETRAD
 40
0.0
  9
$AUNITS
 70
     0
  9
$AUPREC
 70
     2
  9
$MENU
  1
amecex
  9
$ELEVATION
 40
0.0
  9
$PELEVATION
 40
0.0
  9
$THICKNESS
 40
0.0
  9
$LIMCHECK
 70
     0
  9
$CHAMFERA
 40
0.0
  9
$CHAMFERB
 40
0.0
  9
$CHAMFERC
 40
0.0
  9
$CHAMFERD
 40
0.0
  9
$SKPOLY
 70
     0
  9
$TDCREATE
 40
2452793.377199074
  9
$TDUCREATE
 40
2452793.002199074
  9
$TDUPDATE
 40
2459529.748402778
  9
$TDUUPDATE
 40
2459529.373402778
  9
$TDINDWG
 40
0.4543481481
  9
$TDUSRTIMER
 40
0.4543477662
  9
$USRTIMER
 70
     1
  9
$ANGBASE
 50
0.0
  9
$ANGDIR
 70
     0
  9
$PDMODE
 70
     0
  9
$PDSIZE
 40
0.0
  9
$PLINEWID
 40
0.0
  9
$SPLFRAME
 70
     0
  9
$SPLINETYPE
 70
     6
  9
$SPLINESEGS
 70
     8
  9
$HANDSEED
  5
7F80
  9
$SURFTAB1
 70
     6
  9
$SURFTAB2
 70
     6
  9
$SURFTYPE
 70
     6
  9
$SURFU
 70
     6
  9
$SURFV
 70
     6
  9
$UCSBASE
  2

  9
$UCSNAME
  2

  9
$UCSORG
 10
0.0
 20
0.0
 30
0.0
  9
$UCSXDIR
 10
1.0
 20
0.0
 30
0.0
  9
$UCSYDIR
 10
0.0
 20
1.0
 30
0.0
  9
$UCSORTHOREF
  2

  9
$UCSORTHOVIEW
 70
     0
  9
$UCSORGTOP
 10
0.0
 20
0.0
 30
0.0
  9
$UCSORGBOTTOM
 10
0.0
 20
0.0
 30
0.0
  9
$UCSORGLEFT
 10
0.0
 20
0.0
 30
0.0
  9
$UCSORGRIGHT
 10
0.0
 20
0.0
 30
0.0
  9
$UCSORGFRONT
 10
0.0
 20
0.0
 30
0.0
  9
$UCSORGBACK
 10
0.0
 20
0.0
 30
0.0
  9
$PUCSBASE
  2

  9
$PUCSNAME
  2

  9
$PUCSORG
 10
0.0
 20
0.0
 30
0.0
  9
$PUCSXDIR
 10
1.0
 20
0.0
 30
0.0
  9
$PUCSYDIR
 10
0.0
 20
1.0
 30
0.0
  9
$PUCSORTHOREF
  2

  9
$PUCSORTHOVIEW
 70
     0
  9
$PUCSORGTOP
 10
0.0
 20
0.0
 30
0.0
  9
$PUCSORGBOTTOM
 10
0.0
 20
0.0
 30
0.0
  9
$PUCSORGLEFT
 10
0.0
 20
0.0
 30
0.0
  9
$PUCSORGRIGHT
 10
0.0
 20
0.0
 30
0.0
  9
$PUCSORGFRONT
 10
0.0
 20
0.0
 30
0.0
  9
$PUCSORGBACK
 10
0.0
 20
0.0
 30
0.0
  9
$USERI1
 70
     0
  9
$USERI2
 70
     0
  9
$USERI3
 70
     0
  9
$USERI4
 70
     0
  9
$USERI5
 70
     0
  9
$USERR1
 40
30.0
  9
$USERR2
 40
0.0
  9
$USERR3
 40
0.0
  9
$USERR4
 40
0.0
  9
$USERR5
 40
0.0
  9
$WORLDVIEW
 70
     1
  9
$SHADEDGE
 70
     3
  9
$SHADEDIF
 70
    70
  9
$TILEMODE
 70
     1
  9
$MAXACTVP
 70
    16
  9
$PINSBASE
 10
0.0
 20
0.0
 30
0.0
  9
$PLIMCHECK
 70
     0
  9
$PEXTMIN
 10
1.000000000000000E+20
 20
1.000000000000000E+20
 30
1.000000000000000E+20
  9
$PEXTMAX
 10
-1.000000000000000E+20
 20
-1.000000000000000E+20
 30
-1.000000000000000E+20
  9
$PLIMMIN
 10
0.0
 20
0.0
  9
$PLIMMAX
 10
12.0
 20
9.0
  9
$UNITMODE
 70
     0
  9
$VISRETAIN
 70
     0
  9
$PLINEGEN
 70
     0
  9
$PSLTSCALE
 70
     0
  9
$TREEDEPTH
 70
  3020
  9
$CMLSTYLE
  2
Standard
  9
$CMLJUST
 70
     0
  9
$CMLSCALE
 40
1.0
  9
$PROXYGRAPHICS
 70
     1
  9
$MEASUREMENT
 70
     0
  9
$CELWEIGHT
370
    -1
  9
$ENDCAPS
280
     0
  9
$JOINSTYLE
280
     0
  9
$LWDISPLAY
290
     0
  9
$INSUNITS
 70
     0
  9
$HYPERLINKBASE
  1

  9
$STYLESHEET
  1

  9
$XEDIT
290
     1
  9
$CEPSNTYPE
380
     0
  9
$PSTYLEMODE
290
     1
  9
$FINGERPRINTGUID
  2
{1D4BFAB7-5260-3F42-8951-3BCA0E382C85}
  9
$VERSIONGUID
  2
{977ECF48-299D-CA43-A88C-710071BE6DB6}
  9
$EXTNAMES
290
     1
  9
$PSVPSCALE
 40
0.0
  9
$OLESTARTUP
290
     0
  9
$SORTENTS
280
   127
  9
$INDEXCTL
280
     0
  9
$HIDETEXT
280
     0
  9
$XCLIPFRAME
290
     0
  9
$HALOGAP
280
     0
  9
$OBSCOLOR
 70
   257
  9
$OBSLTYPE
280
     0
  9
$INTERSECTIONDISPLAY
280
     0
  9
$INTERSECTIONCOLOR
 70
   257
  9
$DIMASSOC
280
     1
  9
$PROJECTNAME
  1

  9
$CAMERADISPLAY
290
     0
  9
$LENSLENGTH
 40
50.0
  9
$CAMERAHEIGHT
 40
0.0
  9
$STEPSPERSEC
 40
2.0
  9
$STEPSIZE
 40
6.0
  9
$3DDWFPREC
 40
2.0
  9
$PSOLWIDTH
 40
0.25
  9
$PSOLHEIGHT
 40
4.0
  9
$LOFTANG1
 40
1.570796326794896
  9
$LOFTANG2
 40
1.570796326794896
  9
$LOFTMAG1
 40
0.0
  9
$LOFTMAG2
 40
0.0
  9
$LOFTPARAM
 70
     7
  9
$LOFTNORMALS
280
     1
  9
$LATITUDE
 40
37.795
  9
$LONGITUDE
 40
-122.394
  9
$NORTHDIRECTION
 40
0.0
  9
$TIMEZONE
 70
 -8000
  9
$LIGHTGLYPHDISPLAY
280
     1
  9
$TILEMODELIGHTSYNCH
280
     1
  9
$CMATERIAL
347
76DB
  9
$SOLIDHIST
280
     0
  9
$SHOWHIST
280
     1
  9
$DWFFRAME
280
     2
  9
$DGNFRAME
280
     0
  9
$REALWORLDSCALE
290
     1
  9
$INTERFERECOLOR
 62
     1
  9
$INTERFEREOBJVS
345
76FD
  9
$INTERFEREVPVS
346
76FA
  9
$CSHADOW
280
     0
  9
$SHADOWPLANELOCATION
 40
0.0
  0
ENDSEC
  0
SECTION
  2
CLASSES
  0
CLASS
  1
ACDBDICTIONARYWDFLT
  2
AcDbDictionaryWithDefault
  3
ObjectDBX Classes
 90
        0
 91
        1
280
     0
281
     0
  0
CLASS
  1
MATERIAL
  2
AcDbMaterial
  3
ObjectDBX Classes
 90
     1153
 91
        3
280
     0
281
     0
  0
CLASS
  1
VISUALSTYLE
  2
AcDbVisualStyle
  3
ObjectDBX Classes
 90
     4095
 91
       24
280
     0
281
     0
  0
CLASS
  1
SCALE
  2
AcDbScale
  3
ObjectDBX Classes
 90
     1153
 91
       17
280
     0
281
     0
  0
CLASS
  1
TABLESTYLE
  2
AcDbTableStyle
  3
ObjectDBX Classes
 90
     4095
 91
        1
280
     0
281
     0
  0
CLASS
  1
MLEADERSTYLE
  2
AcDbMLeaderStyle
  3
ACDB_MLEADERSTYLE_CLASS
 90
     4095
 91
        1
280
     0
281
     0
  0
CLASS
  1
ACDBSECTIONVIEWSTYLE
  2
AcDbSectionViewStyle
  3
ObjectDBX Classes
 90
     1025
 91
        5
280
     0
281
     0
  0
CLASS
  1
ACDBDETAILVIEWSTYLE
  2
AcDbDetailViewStyle
  3
ObjectDBX Classes
 90
     1025
 91
        5
280
     0
281
     0
  0
CLASS
  1
AMGSETTINGSOBJ
  2
AmgSettingsObj
  3
"AcadM|Product Description: AutoCAD Mechanical|Company: Autodesk, Inc."
 90
     1024
 91
        2
280
     0
281
     0
  0
CLASS
  1
ACME_DOCUMENT
  2
AcMeDbDoc
  3
AcMeServices
 90
     1024
 91
        1
280
     0
281
     0
  0
CLASS
  1
ACMESCOPE
  2
AcMeScope
  3
AcMeServices
 90
     1024
 91
        1
280
     0
281
     0
  0
CLASS
  1
ACMECOMMANDHISTORY
  2
AcMeCommandHistory
  3
AcMeServices
 90
     1024
 91
        1
280
     0
281
     0
  0
CLASS
  1
ACIMSYSVARMAN
  2
AcImSysVarManager
  3
AcMeServices
 90
     1024
 91
        3
280
     0
281
     0
  0
CLASS
  1
ACIMINTSYSVAR
  2
AcImIntSysVar
  3
AcMeServices
 90
     1024
 91
        2
280
     0
281
     0
  0
CLASS
  1
ACMESTATEMGR
  2
AcMeStateMgr
  3
AcMeServices
 90
     1024
 91
        1
280
     0
281
     0
  0
CLASS
  1
ACDBENTITYCACHE
  2
AcMeEntityCache
  3
AcMeServices
 90
     1024
 91
        1
280
     0
281
     0
  0
CLASS
  1
ACGREFMASTER
  2
AcGrefMaster
  3
AcAttribServices
 90
     1024
 91
        1
280
     0
281
     0
  0
CLASS
  1
ACME_DATABASE
  2
AcMeDbDatabase
  3
AcMeServices
 90
     1024
 91
        2
280
     0
281
     0
  0
CLASS
  1
ACRFINSADJUSTERMGR
  2
AcRfInsAdjusterMgr
  3
AcMeServices
 90
     1024
 91
        1
280
     0
281
     0
  0
CLASS
  1
ACGREFACADMASTER
  2
AcGrefacadMaster
  3
AcGrefServices
 90
     1024
 91
        1
280
     0
281
     0
  0
CLASS
  1
AMIMASTER
  2
AmiMaster
  3
AmiServices
 90
     1024
 91
        1
280
     0
281
     0
  0
CLASS
  1
AMDTMENUSTATEMGR
  2
AmdtMenuStateMgr
  3
McadcomServices
 90
     1024
 91
        1
280
     0
281
     0
  0
CLASS
  1
AMDTMCOMMENUSTATE
  2
AmdtMcomMenuState
  3
McadcomServices
 90
     1024
 91
        1
280
     0
281
     0
  0
CLASS
  1
MAPIAMMOUDLE
  2
MApiAmModule
  3
MApiAmServices
 90
     1024
 91
        1
280
     0
281
     0
  0
CLASS
  1
ACIMSTRSYSVAR
  2
AcImStrSysVar
  3
AcMeServices
 90
     1024
 91
        5
280
     0
281
     0
  0
CLASS
  1
AMDTAMMENUSTATE
  2
AmdtAmMenuState
  3
DesignerAssemblies_arx
 90
     1024
 91
        1
280
     0
281
     0
  0
CLASS
  1
ACAMPROJECT
  2
AcAmProject
  3
DesignerAssemblies
 90
     1024
 91
        1
280
     0
281
     0
  0
CLASS
  1
ACAMGRCOMPDEF
  2
AcAmGrCompDef
  3
DesignerAssemblies
 90
     1024
 91
        1
280
     0
281
     0
  0
CLASS
  1
ACAMCOMPDEF
  2
AcAmCompDef
  3
DesignerAssemblies
 90
     1024
 91
        1
280
     0
281
     0
  0
CLASS
  1
ACAMCOMPDEFMGR
  2
AcAmCompDefMgr
  3
DesignerAssemblies
 90
     1024
 91
        1
280
     0
281
     0
  0
CLASS
  1
AMCONTEXTMGR
  2
AcAmContextMgr
  3
DesignerAssemblies
 90
     1024
 91
        1
280
     0
281
     0
  0
CLASS
  1
ACAMCONTEXTMODELER
  2
AcAmContextModeler
  3
DesignerAssemblies
 90
     1024
 91
        1
280
     0
281
     0
  0
CLASS
  1
ACMDATADICTIONARY
  2
AcmDataDictionary
  3
"AcmSymBB|Product Description: AutoCAD Mechanical|Company: Autodesk, Inc."
 90
     1024
 91
        1
280
     0
281
     0
  0
CLASS
  1
ACAMGRCOMPDEFSET
  2
AcAmGrCompDefSet
  3
DesignerAssemblies
 90
     1024
 91
        1
280
     0
281
     0
  0
CLASS
  1
AMDTBROWSERDBTAB
  2
AmdtBrowserDbTab
  3
McadcomServices
 90
     1024
 91
        1
280
     0
281
     0
  0
CLASS
  1
CBROWSERAPPOBJECT
  2
CBrowserAppObject
  3
McadcomServices
 90
     1024
 91
        2
280
     0
281
     0
  0
CLASS
  1
DM_PLACEHOLDER
  2
AcDmSelsetPlaceholder
  3
McadcomServices
 90
     1024
 91
        1
280
     0
281
     0
  0
CLASS
  1
ACMSTANDARDANSI
  2
AcmStandardANSI
  3
"Amdt_StdImp|Product Description: AutoCAD Mechanical|Company: Autodesk, Inc."
 90
     1024
 91
        1
280
     0
281
     0
  0
CLASS
  1
ACMSURFSTANDARDANSI
  2
AcmSurfTextStdANSI
  3
"Amdt_StdImp|Product Description: AutoCAD Mechanical|Company: Autodesk, Inc."
 90
     1024
 91
        1
280
     0
281
     0
  0
CLASS
  1
ACMFCFSTANDARDANSI
  2
AcmFCFStdANSI
  3
"Amdt_StdImp|Product Description: AutoCAD Mechanical|Company: Autodesk, Inc."
 90
     1024
 91
        1
280
     0
281
     0
  0
CLASS
  1
ACMWELDSTANDARDANSI
  2
AcmWeldingStdANSI
  3
"Amdt_StdImp|Product Description: AutoCAD Mechanical|Company: Autodesk, Inc."
 90
     1024
 91
        1
280
     0
281
     0
  0
CLASS
  1
ACMIDSTANDARDANSI
  2
AcmIdStdANSI
  3
"Amdt_StdImp|Product Description: AutoCAD Mechanical|Company: Autodesk, Inc."
 90
     1024
 91
        1
280
     0
281
     0
  0
CLASS
  1
ACMDATUMSTANDARDANSI
  2
AcmDatumStdANSI
  3
"Amdt_StdImp|Product Description: AutoCAD Mechanical|Company: Autodesk, Inc."
 90
     1024
 91
        1
280
     0
281
     0
  0
CLASS
  1
ACMBOMSTANDARDANSI
  2
AcmBOMStdANSI
  3
"Amdt_StdImp|Product Description: AutoCAD Mechanical|Company: Autodesk, Inc."
 90
     1024
 91
        1
280
     0
281
     0
  0
CLASS
  1
ACMDETAILSTANDARDANSI
  2
AmdtDetailSymStdANSI
  3
"Amdt_StdImp|Product Description: AutoCAD Mechanical|Company: Autodesk, Inc."
 90
     1024
 91
        1
280
     0
281
     0
  0
CLASS
  1
ACMSECTIONSTANDARDANSI
  2
AmdtSectionSymStdANSI
  3
"Amdt_StdImp|Product Description: AutoCAD Mechanical|Company: Autodesk, Inc."
 90
     1024
 91
        1
280
     0
281
     0
  0
CLASS
  1
ACMCENTERLINESTANDARDANSI
  2
AmdtCenterLineStdANSI
  3
"Amdt_StdImp|Product Description: AutoCAD Mechanical|Company: Autodesk, Inc."
 90
     1024
 91
        1
280
     0
281
     0
  0
CLASS
  1
ACMTHREADLINESTANDARDANSI
  2
AmdtThreadLineStdANSI
  3
"Amdt_StdImp|Product Description: AutoCAD Mechanical|Company: Autodesk, Inc."
 90
     1024
 91
        1
280
     0
281
     0
  0
CLASS
  1
ACMNOTESTANDARDANSI
  2
AmdtNoteStdANSI
  3
"Amdt_StdImp|Product Description: AutoCAD Mechanical|Company: Autodesk, Inc."
 90
     1024
 91
        1
280
     0
281
     0
  0
CLASS
  1
ACMTAPERSTANDARDANSI
  2
AcmTaperStdANSI
  3
"Amdt_StdImp|Product Description: AutoCAD Mechanical|Company: Autodesk, Inc."
 90
     1024
 91
        1
280
     0
281
     0
  0
CLASS
  1
ACMANOOTATIONVIEWSTANDARDANSI
  2
AmdtAnViewStdANSI
  3
"Amdt_StdImp|Product Description: AutoCAD Mechanical|Company: Autodesk, Inc."
 90
     1024
 91
        1
280
     0
281
     0
  0
CLASS
  1
ACAMGLAYSTD
  2
AcAmgLayStd
  3
"AmgLay|Product Description: AutoCAD Mechanical|Company: Autodesk, Inc."
 90
     1024
 91
        2
280
     0
281
     0
  0
CLASS
  1
ACAMGTITLESTD
  2
AcAmgTitleStd
  3
"AmgTitle|Product Description: AutoCAD Mechanical|Company: Autodesk, Inc."
 90
     1024
 91
        2
280
     0
281
     0
  0
CLASS
  1
ACAMGDIMSTD
  2
AcAmgDimStd
  3
"AmgDim|Product Description: AutoCAD Mechanical|Company: Autodesk, Inc."
 90
     1024
 91
        2
280
     0
281
     0
  0
CLASS
  1
ACAMGHOLECHARTSTDANSI
  2
AcAmgHoleChartStdANSI
  3
"AmgDim" "Product Description: AutoCAD Mechanical|Company: Autodesk, Inc."
 90
     1024
 91
        1
280
     0
281
     0
  0
CLASS
  1
AMGOBJPROPCFG
  2
AmgObjPropCfg
  3
"AmgLay|Product Description: AutoCAD Mechanical|Company: Autodesk, Inc."
 90
     1024
 91
        1
280
     0
281
     0
  0
CLASS
  1
ACMSECTIONSTANDARDCUSTOM
  2
AmdtSectionSymStdCustom
  3
"Amdt_StdImp|Product Description: AutoCAD Mechanical|Company: Autodesk, Inc."
 90
     1024
 91
        6
280
     0
281
     0
  0
CLASS
  1
ACMDETAILTANDARDCUSTOM
  2
AmdtDetailSymStdCustom
  3
"Amdt_StdImp|Product Description: AutoCAD Mechanical|Company: Autodesk, Inc."
 90
     1024
 91
        6
280
     0
281
     0
  0
CLASS
  1
FIELD
  2
AcDbField
  3
ObjectDBX Classes
 90
     1152
 91
       14
280
     0
281
     0
  0
CLASS
  1
FIELDLIST
  2
AcDbFieldList
  3
ObjectDBX Classes
 90
     1152
 91
        1
280
     0
281
     0
  0
CLASS
  1
AMDTNOTETEMPLATEDB
  2
AmdtNoteTemplateDB
  3
"AcmSymBB" "Product Description: AutoCAD Mechanical|Company: Autodesk, Inc."
 90
     1024
 91
       17
280
     0
281
     0
  0
CLASS
  1
ACAMGFILTERDAT
  2
AcAmgFilterDat
  3
"AcadM|Product Description: AutoCAD Mechanical|Company: Autodesk, Inc."
 90
     1024
 91
        0
280
     0
281
     0
  0
CLASS
  1
SORTENTSTABLE
  2
AcDbSortentsTable
  3
ObjectDBX Classes
 90
        0
 91
        2
280
     0
281
     0
  0
CLASS
  1
DICTIONARYVAR
  2
AcDbDictionaryVar
  3
ObjectDBX Classes
 90
        0
 91
       11
280
     0
281
     0
  0
CLASS
  1
CELLSTYLEMAP
  2
AcDbCellStyleMap
  3
ObjectDBX Classes
 90
     1152
 91
        2
280
     0
281
     0
  0
CLASS
  1
ACMSTANDARDJIS
  2
AcmStandardJIS
  3
"Amdt_StdImp|Product Description: AutoCAD Mechanical|Company: Autodesk, Inc."
 90
     1024
 91
        1
280
     0
281
     0
  0
CLASS
  1
ACMSURFSTANDARDJIS2003
  2
AcmSurfTextStdJIS2003
  3
"Amdt_StdImp|Product Description: AutoCAD Mechanical|Company: Autodesk, Inc."
 90
     1024
 91
        1
280
     0
281
     0
  0
CLASS
  1
ACMFCFSTANDARDJIS98
  2
AcmFCFStdJIS98
  3
"Amdt_StdImp|Product Description: AutoCAD Mechanical|Company: Autodesk, Inc."
 90
     1024
 91
        1
280
     0
281
     0
  0
CLASS
  1
ACMWELDSTANDARDJIS
  2
AcmWeldingStdJIS
  3
"Amdt_StdImp|Product Description: AutoCAD Mechanical|Company: Autodesk, Inc."
 90
     1024
 91
        1
280
     0
281
     0
  0
CLASS
  1
ACMIDSTANDARDJIS1998
  2
AcmIdStdJIS1998
  3
"Amdt_StdImp|Product Description: AutoCAD Mechanical|Company: Autodesk, Inc."
 90
     1024
 91
        1
280
     0
281
     0
  0
CLASS
  1
ACMDATUMSTANDARDJIS
  2
AcmDatumStdJIS
  3
"Amdt_StdImp|Product Description: AutoCAD Mechanical|Company: Autodesk, Inc."
 90
     1024
 91
        1
280
     0
281
     0
  0
CLASS
  1
ACMBOMSTANDARDJIS
  2
AcmBOMStdJIS
  3
"Amdt_StdImp|Product Description: AutoCAD Mechanical|Company: Autodesk, Inc."
 90
     1024
 91
        1
280
     0
281
     0
  0
CLASS
  1
ACMDETAILSTANDARDJIS
  2
AmdtDetailSymStdJIS
  3
"Amdt_StdImp|Product Description: AutoCAD Mechanical|Company: Autodesk, Inc."
 90
     1024
 91
        1
280
     0
281
     0
  0
CLASS
  1
ACMSECTIONSTANDARDJIS
  2
AmdtSectionSymStdJIS
  3
"Amdt_StdImp|Product Description: AutoCAD Mechanical|Company: Autodesk, Inc."
 90
     1024
 91
        1
280
     0
281
     0
  0
CLASS
  1
ACMCENTERLINESTANDARDJIS
  2
AmdtCenterLineStdJIS
  3
"Amdt_StdImp|Product Description: AutoCAD Mechanical|Company: Autodesk, Inc."
 90
     1024
 91
        1
280
     0
281
     0
  0
CLASS
  1
ACMTHREADLINESTANDARDJIS
  2
AmdtThreadLineStdJIS
  3
"Amdt_StdImp|Product Description: AutoCAD Mechanical|Company: Autodesk, Inc."
 90
     1024
 91
        1
280
     0
281
     0
  0
CLASS
  1
ACMNOTESTANDARDJIS
  2
AmdtNoteStdJIS
  3
"Amdt_StdImp|Product Description: AutoCAD Mechanical|Company: Autodesk, Inc."
 90
     1024
 91
        1
280
     0
281
     0
  0
CLASS
  1
ACMTAPERSTANDARDJIS
  2
AcmTaperStdJIS
  3
"Amdt_StdImp|Product Description: AutoCAD Mechanical|Company: Autodesk, Inc."
 90
     1024
 91
        1
280
     0
281
     0
  0
CLASS
  1
ACMANOOTATIONVIEWSTANDARDJIS
  2
AmdtAnViewStdJIS
  3
"Amdt_StdImp|Product Description: AutoCAD Mechanical|Company: Autodesk, Inc."
 90
     1024
 91
        1
280
     0
281
     0
  0
CLASS
  1
AMDTEDGESTANDARDJIS
  2
AmdtEdgeStdJIS
  3
"Amdt_StdImp|Product Description: AutoCAD Mechanical|Company: Autodesk, Inc."
 90
     1024
 91
        1
280
     0
281
     0
  0
CLASS
  1
ACAMGHOLECHARTSTDJIS
  2
AcAmgHoleChartStdJIS
  3
"AmgDim" "Product Description: AutoCAD Mechanical|Company: Autodesk, Inc."
 90
     1024
 91
        1
280
     0
281
     0
  0
ENDSEC
  0
SECTION
  2
TABLES
  0
TABLE
  2
VPORT
  5
76D2
330
0
100
AcDbSymbolTable
 70
     1
  0
VPORT
  5
773D
330
76D2
100
AcDbSymbolTableRecord
100
AcDbViewportTableRecord
  2
*ACTIVE
 70
     0
 10
0.0
 20
0.0
 11
1.0
 21
1.0
 12
1437.64849010914
 22
1383.425778992731
 13
0.0
 23
0.0
 14
1.0
 24
1.0
 15
0.0
 25
0.0
 16
0.0
 26
0.0
 36
1.0
 17
0.0
 27
0.0
 37
0.0
 40
3211.250367731747
 41
1.887694145758661
 42
50.0
 43
0.0
 44
0.0
 50
0.0
 51
0.0
 71
     0
 72
   100
 73
     1
 74
     1
 75
     0
 76
     0
 77
     0
 78
     0
281
     0
 65
     0
110
0.0
120
0.0
130
0.0
111
1.0
121
0.0
131
0.0
112
0.0
122
1.0
132
0.0
 79
     0
146
0.0
348
76F9
 60
     3
 61
     5
292
     1
282
     0
141
0.0
142
0.0
 63
   250
421
  3355443
1001
ACAD_NAV_VCDISPLAY
1070
     3
  0
ENDTAB
  0
TABLE
  2
LTYPE
  5
76CF
330
0
100
AcDbSymbolTable
 70
    19
  0
LTYPE
  5
7724
330
76CF
100
AcDbSymbolTableRecord
100
AcDbLinetypeTableRecord
  2
ByBlock
 70
     0
  3

 72
    65
 73
     0
 40
0.0
  0
LTYPE
  5
7725
330
76CF
100
AcDbSymbolTableRecord
100
AcDbLinetypeTableRecord
  2
ByLayer
 70
     0
  3

 72
    65
 73
     0
 40
0.0
  0
LTYPE
  5
7726
330
76CF
100
AcDbSymbolTableRecord
100
AcDbLinetypeTableRecord
  2
CONTINUOUS
 70
     0
  3
実線
 72
    65
 73
     0
 40
0.0
  0
LTYPE
  5
773E
330
76CF
100
AcDbSymbolTableRecord
100
AcDbLinetypeTableRecord
  2
HIDDEN
 70
     0
  3
_ _ _ _ _ _ _ _ _ _ _ _ _ _ _ _ _ _ _ _ _ _ _
 72
    65
 73
     2
 40
0.375
 49
0.25
 74
     0
 49
-0.125
 74
     0
  0
LTYPE
  5
773F
330
76CF
100
AcDbSymbolTableRecord
100
AcDbLinetypeTableRecord
  2
CENTER
 70
     0
  3
____ _ ____ _ ____ _ ____ _ ____ _ ____ _ ____
 72
    65
 73
     4
 40
2.0
 49
1.25
 74
     0
 49
-0.25
 74
     0
 49
0.25
 74
     0
 49
-0.25
 74
     0
  0
LTYPE
  5
7741
330
76CF
100
AcDbSymbolTableRecord
100
AcDbLinetypeTableRecord
  2
PHANTOM2
 70
     0
  3
Phantom (.5x) ___ _ _ ___ _ _ ___ _ _ ___ _ _
 72
    65
 73
     6
 40
31.75
 49
15.875
 74
     0
 49
-3.174999999999998
 74
     0
 49
3.174999999999998
 74
     0
 49
-3.174999999999998
 74
     0
 49
3.174999999999998
 74
     0
 49
-3.174999999999998
 74
     0
  0
LTYPE
  5
7745
330
76CF
100
AcDbSymbolTableRecord
100
AcDbLinetypeTableRecord
  2
AMCONSTR
 70
     0
  3
_______________________
 72
    65
 73
     2
 40
9999.0
 49
9999.0
 74
     0
 49
0.0
 74
     0
  0
LTYPE
  5
774F
330
76CF
100
AcDbSymbolTableRecord
100
AcDbLinetypeTableRecord
  2
HIDDEN2
 70
     0
  3
_ _ _ _ _ _ _ _ _ _ _ _ _ _ _ _ _ _ _ _ _ _ _ _
 72
    65
 73
     2
 40
0.1875
 49
0.125
 74
     0
 49
-0.0625
 74
     0
  0
LTYPE
  5
7750
330
76CF
100
AcDbSymbolTableRecord
100
AcDbLinetypeTableRecord
  2
CENTER2
 70
     0
  3
Center (.5x) ___ _ ___ _ ___ _ ___ _ ___ _ ___
 72
    65
 73
     4
 40
1.125
 49
0.75
 74
     0
 49
-0.125
 74
     0
 49
0.125
 74
     0
 49
-0.125
 74
     0
  0
LTYPE
  5
7751
330
76CF
100
AcDbSymbolTableRecord
100
AcDbLinetypeTableRecord
  2
AMZIGZAG2
 70
     0
  3
/\/-/\/-/\/-/\/-/\/-/\/
 72
    65
 73
     2
 40
0.4401
 49
0.0001
 74
     0
 49
-0.4400000000000003
 74
     0
  0
LTYPE
  5
7752
330
76CF
100
AcDbSymbolTableRecord
100
AcDbLinetypeTableRecord
  2
ACANSTGB
 70
     0
  3
__ . . __ . .
 72
    65
 73
     6
 40
0.35433070866
 49
0.15748031496
 74
     0
 49
-0.03937007874
 74
     0
 49
0.03937007874
 74
     0
 49
-0.03937007874
 74
     0
 49
0.03937007874
 74
     0
 49
-0.03937007874
 74
     0
  0
LTYPE
  5
7753
330
76CF
100
AcDbSymbolTableRecord
100
AcDbLinetypeTableRecord
  2
ACANSTGL
 70
     0
  3
_ _ _ _ _
 72
    65
 73
     2
 40
0.11811023622
 49
0.07874015748
 74
     0
 49
-0.03937007874
 74
     0
  0
LTYPE
  5
7E1C
330
76CF
100
AcDbSymbolTableRecord
100
AcDbLinetypeTableRecord
  2
AM_ISO02W050
 70
     0
  3
__ __ __ __ __ __ __ __ __ __ __ __ __ __ __
 72
    65
 73
     2
 40
7.5
 49
6.0
 74
     0
 49
-1.5
 74
     0
  0
LTYPE
  5
7E1D
330
76CF
100
AcDbSymbolTableRecord
100
AcDbLinetypeTableRecord
  2
AM_ISO08W050
 70
     0
  3
____ . ____ . ____ . ____ . ____ . ____ . ____
 72
    65
 73
     4
 40
18.0
 49
12.0
 74
     0
 49
-1.5
 74
     0
 49
3.0
 74
     0
 49
-1.5
 74
     0
  0
LTYPE
  5
7E1F
330
76CF
100
AcDbSymbolTableRecord
100
AcDbLinetypeTableRecord
  2
AM_ISO08W050x2
 70
     0
  3
__ . __ . __ . __ . __ . __
 72
    65
 73
     4
 40
9.0
 49
6.0
 74
     0
 49
-0.75
 74
     0
 49
1.5
 74
     0
 49
-0.75
 74
     0
  0
LTYPE
  5
7E20
330
76CF
100
AcDbSymbolTableRecord
100
AcDbLinetypeTableRecord
  2
AM_ISO02W050x2
 70
     0
  3
 _ _ _ _ _ _ _ _ _ _ _ _
 72
    65
 73
     2
 40
3.75
 49
3.0
 74
     0
 49
-0.75
 74
     0
  0
LTYPE
  5
7E23
330
76CF
100
AcDbSymbolTableRecord
100
AcDbLinetypeTableRecord
  2
Amzigzag
 70
     0
  3
/\/-/\/-/\/-/\/-/\/-/\/
 72
    65
 73
     2
 40
11.0001
 49
0.0001
 74
     4
 75
   136
340
7E22
 46
0.04
 50
0.0
 44
0.0
 45
0.0
 49
-11.0
 74
     0
  0
LTYPE
  5
7E69
330
76CF
100
AcDbSymbolTableRecord
100
AcDbLinetypeTableRecord
  2
ACJISWELD
 70
     0
  3
_ _ _ _ _
 72
    65
 73
     2
 40
2.0
 49
2.0
 74
     0
 49
-1.0
 74
     0
  0
LTYPE
  5
7E6A
330
76CF
100
AcDbSymbolTableRecord
100
AcDbLinetypeTableRecord
  2
ACJISTGL
 70
     0
  3
_ _ _ _ _
 72
    65
 73
     2
 40
3.0
 49
2.0
 74
     0
 49
-1.0
 74
     0
  0
LTYPE
  5
7E6B
330
76CF
100
AcDbSymbolTableRecord
100
AcDbLinetypeTableRecord
  2
ACJISTGB
 70
     0
  3
__ . . __ . .
 72
    65
 73
     6
 40
9.0
 49
4.0
 74
     0
 49
-1.0
 74
     0
 49
1.0
 74
     0
 49
-1.0
 74
     0
 49
1.0
 74
     0
 49
-1.0
 74
     0
  0
ENDTAB
  0
TABLE
  2
LAYER
  5
76CC
102
{ACAD_XDICTIONARY
360
7B99
102
}
330
0
100
AcDbSymbolTable
 70
     7
  0
LAYER
  5
771E
102
{ACAD_XDICTIONARY
360
7BDE
102
}
330
76CC
100
AcDbSymbolTableRecord
100
AcDbLayerTableRecord
  2
0
 70
     0
 62
     7
  6
CONTINUOUS
370
    -3
390
76D9
347
76EB
  0
LAYER
  5
7754
102
{ACAD_XDICTIONARY
360
7BE0
102
}
330
76CC
100
AcDbSymbolTableRecord
100
AcDbLayerTableRecord
  2
HOJYO
 70
     0
 62
     6
  6
CONTINUOUS
370
    -3
390
76D9
347
76EB
  0
LAYER
  5
7755
330
76CC
100
AcDbSymbolTableRecord
100
AcDbLayerTableRecord
  2
DEFPOINTS
 70
     0
 62
     7
  6
CONTINUOUS
290
     0
370
    -3
390
76D9
347
76EB
  0
ENDTAB
  0
TABLE
  2
STYLE
  5
76CD
330
0
100
AcDbSymbolTable
 70
     6
  0
STYLE
  5
771F
330
76CD
100
AcDbSymbolTableRecord
100
AcDbTextStyleTableRecord
  2
STANDARD
 70
     0
 40
0.0
 41
1.0
 50
0.0
 71
     0
 42
30.0
  3
TXT
  4
BIGFONT
  0
STYLE
  5
7756
330
76CD
100
AcDbSymbolTableRecord
100
AcDbTextStyleTableRecord
  2
MONO-SET
 70
     0
 40
0.0
 41
1.0
 50
0.0
 71
     0
 42
0.2
  3
MONOTXT
  4
BIGFONT
  0
STYLE
  5
7759
330
76CD
100
AcDbSymbolTableRecord
100
AcDbTextStyleTableRecord
  2
ACANSGDT
 70
     0
 40
0.0
 41
1.0
 50
0.0
 71
     0
 42
30.0
  3
amgdt.shx
  4

  0
STYLE
  5
7E22
330
76CD
100
AcDbSymbolTableRecord
100
AcDbTextStyleTableRecord
  2

 70
     1
 40
0.0
 41
1.0
 50
0.0
 71
     0
 42
30.0
  3
genltshp.shx
  4

  0
STYLE
  5
7E74
330
76CD
100
AcDbSymbolTableRecord
100
AcDbTextStyleTableRecord
  2
ACJISGDT
 70
     0
 40
0.0
 41
1.0
 50
0.0
 71
     0
 42
2.5
  3
amgdt.shx
  4
extfont2.shx
  0
ENDTAB
  0
TABLE
  2
VIEW
  5
76D0
330
0
100
AcDbSymbolTable
 70
     0
  0
ENDTAB
  0
TABLE
  2
UCS
  5
76D1
330
0
100
AcDbSymbolTable
 70
     0
  0
ENDTAB
  0
TABLE
  2
APPID
  5
76D3
330
0
100
AcDbSymbolTable
 70
    35
  0
APPID
  5
7720
330
76D3
100
AcDbSymbolTableRecord
100
AcDbRegAppTableRecord
  2
ACAD
 70
     0
  0
APPID
  5
7727
330
76D3
100
AcDbSymbolTableRecord
100
AcDbRegAppTableRecord
  2
ACADANNOTATIVE
 70
     0
  0
APPID
  5
775A
330
76D3
100
AcDbSymbolTableRecord
100
AcDbRegAppTableRecord
  2
ACE-LT__COPYRIGHT_TRIALSOFT-JPN
 70
     0
  0
APPID
  5
775B
330
76D3
100
AcDbSymbolTableRecord
100
AcDbRegAppTableRecord
  2
MCAD_NO_VIS
 70
     0
  0
APPID
  5
775C
330
76D3
100
AcDbSymbolTableRecord
100
AcDbRegAppTableRecord
  2
ACAD_TEMP_GRAPHIC
 70
     0
  0
APPID
  5
775D
330
76D3
100
AcDbSymbolTableRecord
100
AcDbRegAppTableRecord
  2
ACATTRIBSERVICES
 70
     0
  0
APPID
  5
775E
330
76D3
100
AcDbSymbolTableRecord
100
AcDbRegAppTableRecord
  2
DESIGNERASSEMBLIES
 70
     0
  0
APPID
  5
775F
330
76D3
100
AcDbSymbolTableRecord
100
AcDbRegAppTableRecord
  2
ACAD_DSTYLE_DIMJAG
 70
     0
  0
APPID
  5
7760
330
76D3
100
AcDbSymbolTableRecord
100
AcDbRegAppTableRecord
  2
ACAD_DSTYLE_DIMBREAK
 70
     0
  0
APPID
  5
7761
330
76D3
100
AcDbSymbolTableRecord
100
AcDbRegAppTableRecord
  2
ACAD_NAV_VCDISPLAY
 70
     0
  0
APPID
  5
7762
330
76D3
100
AcDbSymbolTableRecord
100
AcDbRegAppTableRecord
  2
ACAD_DSTYLE_DIMTALN
 70
     0
  0
APPID
  5
7763
330
76D3
100
AcDbSymbolTableRecord
100
AcDbRegAppTableRecord
  2
ACAD_PSEXT
 70
     0
  0
APPID
  5
7764
330
76D3
100
AcDbSymbolTableRecord
100
AcDbRegAppTableRecord
  2
ACAD_EXEMPT_FROM_CAD_STANDARDS
 70
     0
  0
APPID
  5
7765
330
76D3
100
AcDbSymbolTableRecord
100
AcDbRegAppTableRecord
  2
GENIUS_GENTRA_14
 70
     0
  0
APPID
  5
7766
330
76D3
100
AcDbSymbolTableRecord
100
AcDbRegAppTableRecord
  2
ACAECLAYERSTANDARD
 70
     0
  0
APPID
  5
7767
330
76D3
100
AcDbSymbolTableRecord
100
AcDbRegAppTableRecord
  2
GENIUS_GENODEF_13
 70
     0
  0
APPID
  5
7768
330
76D3
100
AcDbSymbolTableRecord
100
AcDbRegAppTableRecord
  2
GENIUS_GENOENT_13
 70
     0
  0
APPID
  5
7769
330
76D3
100
AcDbSymbolTableRecord
100
AcDbRegAppTableRecord
  2
GENIUS_GENOLIS_13
 70
     0
  0
APPID
  5
776A
330
76D3
100
AcDbSymbolTableRecord
100
AcDbRegAppTableRecord
  2
GENIUS_GENOREF_13
 70
     0
  0
APPID
  5
776B
330
76D3
100
AcDbSymbolTableRecord
100
AcDbRegAppTableRecord
  2
GENIUS_GENOBJ-N-TIT_13
 70
     0
  0
APPID
  5
776C
330
76D3
100
AcDbSymbolTableRecord
100
AcDbRegAppTableRecord
  2
GENIUS_GENTITLE_13
 70
     0
  0
APPID
  5
776D
330
76D3
100
AcDbSymbolTableRecord
100
AcDbRegAppTableRecord
  2
GENIUS_GENSCREG_15
 70
     0
  0
APPID
  5
776E
330
76D3
100
AcDbSymbolTableRecord
100
AcDbRegAppTableRecord
  2
GENIUS_GENOBJ-N-SDF_13
 70
     0
  0
APPID
  5
776F
330
76D3
100
AcDbSymbolTableRecord
100
AcDbRegAppTableRecord
  2
GENIUS_GENOBJ-N-LIB_13
 70
     0
  0
APPID
  5
7770
330
76D3
100
AcDbSymbolTableRecord
100
AcDbRegAppTableRecord
  2
GENIUS_GENOBJ-N-RSBK_13
 70
     0
  0
APPID
  5
7771
330
76D3
100
AcDbSymbolTableRecord
100
AcDbRegAppTableRecord
  2
GENIUS_GENSCALE_13
 70
     0
  0
APPID
  5
7772
330
76D3
100
AcDbSymbolTableRecord
100
AcDbRegAppTableRecord
  2
ACAD_DSTYLE_DIMINSPECT
 70
     0
  0
APPID
  5
7773
330
76D3
100
AcDbSymbolTableRecord
100
AcDbRegAppTableRecord
  2
GENIUS_GENREC_14
 70
     0
  0
APPID
  5
7774
330
76D3
100
AcDbSymbolTableRecord
100
AcDbRegAppTableRecord
  2
GENIUS_GENOBJ-N-REC_13
 70
     0
  0
APPID
  5
7775
330
76D3
100
AcDbSymbolTableRecord
100
AcDbRegAppTableRecord
  2
ACAUTHENVIRON
 70
     0
  0
APPID
  5
7776
330
76D3
100
AcDbSymbolTableRecord
100
AcDbRegAppTableRecord
  2
ACDBDYNAMICBLOCKTRUENAME
 70
     0
  0
APPID
  5
7777
330
76D3
100
AcDbSymbolTableRecord
100
AcDbRegAppTableRecord
  2
ACDBDYNAMICBLOCKGUID
 70
     0
  0
APPID
  5
7778
330
76D3
100
AcDbSymbolTableRecord
100
AcDbRegAppTableRecord
  2
GENIUS_GENDTOL_13
 70
     0
  0
APPID
  5
7779
330
76D3
100
AcDbSymbolTableRecord
100
AcDbRegAppTableRecord
  2
ACADANNOMONITORALERTICONDI
 70
     0
  0
APPID
  5
777A
330
76D3
100
AcDbSymbolTableRecord
100
AcDbRegAppTableRecord
  2
ACAD_MLEADERVER
 70
     0
  0
ENDTAB
  0
TABLE
  2
DIMSTYLE
  5
76D4
330
0
100
AcDbSymbolTable
 70
    19
100
AcDbDimStyleTable
 71
     0
  0
DIMSTYLE
105
7721
330
76D4
100
AcDbSymbolTableRecord
100
AcDbDimStyleTableRecord
  2
STANDARD
 70
     0
271
     3
272
     3
279
     2
284
     7
285
     7
286
     7
340
771F
  0
DIMSTYLE
105
7789
102
{ACAD_REACTORS
330
7E09
102
}
330
76D4
100
AcDbSymbolTableRecord
100
AcDbDimStyleTableRecord
  2
AM_ANSI
 70
     0
  4
mm
 40
20.0
 41
0.12
 42
0.05
 43
0.5
 44
0.1
 47
0.1
 48
0.1
 78
     7
140
0.12
141
0.0
146
0.71
147
0.06
176
   256
177
   256
178
     2
271
     3
272
     3
279
     2
284
     7
285
     7
286
     7
340
771F
  0
DIMSTYLE
105
778A
330
76D4
100
AcDbSymbolTableRecord
100
AcDbDimStyleTableRecord
  2
AM_ANSI$3
 70
     0
  4
mm
 41
0.12
 42
0.05
 43
0.5
 44
0.1
 47
0.1
 48
0.1
 78
     7
140
0.12
141
0.0
146
0.71
147
0.06
176
   256
177
   256
178
     2
271
     3
272
     3
279
     2
284
     7
285
     7
286
     7
340
771F
  0
DIMSTYLE
105
778B
330
76D4
100
AcDbSymbolTableRecord
100
AcDbDimStyleTableRecord
  2
AM_ANSI$4
 70
     0
  4
mm
 41
0.12
 42
0.05
 43
0.5
 44
0.1
 47
0.1
 48
0.1
 78
     7
140
0.12
141
0.0
146
0.71
147
0.06
176
   256
177
   256
178
     2
271
     3
272
     3
279
     2
284
     7
285
     7
286
     7
340
771F
  0
DIMSTYLE
105
778C
330
76D4
100
AcDbSymbolTableRecord
100
AcDbDimStyleTableRecord
  2
AM_ANSI$7
 70
     0
  4
mm
 41
0.12
 42
0.05
 43
0.5
 44
0.1
 47
0.1
 48
0.1
 78
     7
140
0.12
141
0.0
146
0.71
147
0.06
176
   256
177
   256
178
     2
271
     3
272
     3
279
     2
284
     7
285
     7
286
     7
340
771F
  0
DIMSTYLE
105
778D
330
76D4
100
AcDbSymbolTableRecord
100
AcDbDimStyleTableRecord
  2
AM_ANSI$SF
 70
     0
  4
mm
 41
0.12
 42
0.05
 43
0.5
 44
0.1
 47
0.1
 48
0.1
 75
     1
 76
     1
 78
     7
140
0.12
141
0.0
146
0.71
147
0.06
176
   256
177
   256
178
     2
271
     3
272
     3
279
     2
284
     7
285
     7
286
     7
340
771F
  0
DIMSTYLE
105
778E
330
76D4
100
AcDbSymbolTableRecord
100
AcDbDimStyleTableRecord
  2
AM_ANSI$SH
 70
     0
  4
mm
 41
0.12
 42
0.05
 43
0.5
 44
0.1
 47
0.1
 48
0.1
 75
     1
 76
     1
 78
     7
140
0.12
141
0.0
146
0.71
147
0.06
173
     1
176
   256
177
   256
178
     2
271
     3
272
     3
279
     2
284
     7
285
     7
286
     7
340
771F
  0
DIMSTYLE
105
7E79
102
{ACAD_REACTORS
330
7EBE
102
}
330
76D4
100
AcDbSymbolTableRecord
100
AcDbDimStyleTableRecord
  2
AM_JIS
 70
     0
  4
"
 40
10.0
 41
2.0
 42
1.0
 43
7.0
 44
1.8
 48
0.000000001
 73
     0
 74
     0
 77
     3
 78
     9
 79
     2
 90
        1
140
3.0
141
1.0
143
0.0393701
146
0.71
147
1.5
172
     1
176
   256
177
   256
178
     4
271
     3
272
     3
283
     0
284
     8
340
771F
341
7E5F
342
7E5F
345
7724
346
7724
347
7724
371
    -1
372
    -1
1001
ACAD_DSTYLE_DIMBREAK
1070
   391
1040
3.75
1001
ACAD_DSTYLE_DIMJAG
1070
   388
1040
1.5
1001
ACAD_DSTYLE_DIMTALN
1070
   392
1070
     0
  0
DIMSTYLE
105
7E7A
330
76D4
100
AcDbSymbolTableRecord
100
AcDbDimStyleTableRecord
  2
AM_JIS$3
 70
     0
  4
"
 40
10.0
 41
2.0
 42
1.0
 43
7.0
 44
1.8
 48
0.000000001
 73
     0
 77
     3
 78
     9
 79
     2
 90
        1
140
3.0
141
1.0
143
0.0393701
146
0.71
147
1.5
176
   256
177
   256
178
     4
271
     3
272
     3
283
     0
284
     8
288
     1
289
     0
340
771F
341
7E5F
342
7E5F
345
7724
346
7724
347
7724
371
    -1
372
    -1
1001
ACAD_DSTYLE_DIMBREAK
1070
   391
1040
3.75
1001
ACAD_DSTYLE_DIMJAG
1070
   388
1040
1.5
1001
ACAD_DSTYLE_DIMTALN
1070
   392
1070
     0
  0
DIMSTYLE
105
7E7B
330
76D4
100
AcDbSymbolTableRecord
100
AcDbDimStyleTableRecord
  2
AM_JIS$4
 70
     0
  4
"
 40
10.0
 41
2.0
 42
1.0
 43
7.0
 44
1.8
 48
0.000000001
 73
     0
 74
     0
 77
     3
 78
     9
 79
     2
 90
        1
140
3.0
141
1.0
143
0.0393701
146
0.71
147
1.5
172
     1
176
   256
177
   256
178
     4
271
     3
272
     3
283
     0
284
     8
340
771F
341
7E5F
342
7E5F
345
7724
346
7724
347
7724
371
    -1
372
    -1
1001
ACAD_DSTYLE_DIMBREAK
1070
   391
1040
3.75
1001
ACAD_DSTYLE_DIMJAG
1070
   388
1040
1.5
1001
ACAD_DSTYLE_DIMTALN
1070
   392
1070
     0
  0
DIMSTYLE
105
7E7C
330
76D4
100
AcDbSymbolTableRecord
100
AcDbDimStyleTableRecord
  2
AM_JIS$6
 70
     0
  4
"
 40
10.0
 41
2.0
 42
1.0
 43
7.0
 44
1.8
 48
0.000000001
 73
     0
 74
     0
 78
     9
 79
     2
 90
        1
140
3.0
141
1.0
143
0.0393701
146
0.71
147
1.5
172
     1
176
   256
177
   256
178
     4
271
     3
272
     3
283
     0
284
     8
340
771F
341
7E5F
342
7E5F
345
7724
346
7724
347
7724
371
    -1
372
    -1
1001
ACAD_DSTYLE_DIMBREAK
1070
   391
1040
3.75
1001
ACAD_DSTYLE_DIMJAG
1070
   388
1040
1.5
1001
ACAD_DSTYLE_DIMTALN
1070
   392
1070
     0
  0
DIMSTYLE
105
7E7D
330
76D4
100
AcDbSymbolTableRecord
100
AcDbDimStyleTableRecord
  2
AM_JIS$7
 70
     0
  4
"
 40
10.0
 41
2.0
 42
1.0
 43
7.0
 44
1.8
 48
0.000000001
 73
     0
 74
     0
 77
     3
 78
     9
 79
     2
 90
        1
140
3.0
141
1.0
143
0.0393701
146
0.71
147
1.5
172
     1
176
   256
177
   256
178
     4
271
     3
272
     3
283
     0
284
     8
340
771F
341
7E5F
342
7E5F
345
7724
346
7724
347
7724
371
    -1
372
    -1
1001
ACAD_DSTYLE_DIMBREAK
1070
   391
1040
3.75
1001
ACAD_DSTYLE_DIMJAG
1070
   388
1040
1.5
1001
ACAD_DSTYLE_DIMTALN
1070
   392
1070
     0
  0
DIMSTYLE
105
7E7E
330
76D4
100
AcDbSymbolTableRecord
100
AcDbDimStyleTableRecord
  2
AM_JIS$SF
 70
     0
  4
"
 40
10.0
 41
2.0
 42
1.0
 43
7.0
 44
1.8
 48
0.000000001
 73
     0
 74
     0
 75
     1
 76
     1
 77
     3
 78
     9
 79
     2
 90
        1
140
3.0
141
1.0
143
0.0393701
146
0.71
147
1.5
172
     1
176
   256
177
   256
178
     4
271
     3
272
     3
283
     0
284
     8
340
771F
341
7E5F
342
7E5F
345
7724
346
7724
347
7724
371
    -1
372
    -1
1001
ACAD_DSTYLE_DIMBREAK
1070
   391
1040
3.75
1001
ACAD_DSTYLE_DIMJAG
1070
   388
1040
1.5
1001
ACAD_DSTYLE_DIMTALN
1070
   392
1070
     0
  0
DIMSTYLE
105
7E7F
330
76D4
100
AcDbSymbolTableRecord
100
AcDbDimStyleTableRecord
  2
AM_JIS$SH
 70
     0
  4
"
 40
10.0
 41
2.0
 42
1.0
 43
7.0
 44
1.8
 48
0.000000001
 73
     0
 74
     0
 75
     1
 76
     1
 77
     3
 78
     9
 79
     2
 90
        1
140
3.0
141
1.0
143
0.0393701
144
2.0
146
0.71
147
1.5
172
     1
173
     1
176
   256
177
   256
178
     4
271
     3
272
     3
283
     0
284
     8
340
771F
341
7E5F
342
7E5F
343
7E65
345
7724
346
7724
347
7724
371
    -1
372
    -1
1001
ACAD_DSTYLE_DIMBREAK
1070
   391
1040
3.75
1001
ACAD_DSTYLE_DIMJAG
1070
   388
1040
1.5
1001
ACAD_DSTYLE_DIMTALN
1070
   392
1070
     0
  0
DIMSTYLE
105
7E80
330
76D4
100
AcDbSymbolTableRecord
100
AcDbDimStyleTableRecord
  2
AM_JIS$0
 70
     0
  4
"
 40
10.0
 41
2.0
 42
1.0
 43
7.0
 44
1.8
 48
0.000000001
 73
     0
 74
     0
 77
     3
 78
     9
 79
     2
 90
        1
140
3.0
141
1.0
143
0.0393701
146
0.71
147
1.5
172
     1
176
   256
177
   256
178
     4
271
     3
272
     3
283
     0
284
     8
340
771F
341
7E5F
342
7E5F
345
7724
346
7724
347
7724
371
    -1
372
    -1
1001
ACAD_DSTYLE_DIMBREAK
1070
   391
1040
3.75
1001
ACAD_DSTYLE_DIMJAG
1070
   388
1040
1.5
1001
ACAD_DSTYLE_DIMTALN
1070
   392
1070
     0
  0
ENDTAB
  0
TABLE
  2
BLOCK_RECORD
  5
76CB
330
0
100
AcDbSymbolTable
 70
    16
  0
BLOCK_RECORD
  5
7739
102
{ACAD_XDICTIONARY
360
7ADD
102
}
330
76CB
100
AcDbSymbolTableRecord
100
AcDbBlockTableRecord
  2
*Model_Space
340
773C
 70
     0
280
     1
281
     0
  0
BLOCK_RECORD
  5
7735
330
76CB
100
AcDbSymbolTableRecord
100
AcDbBlockTableRecord
  2
*Paper_Space
340
7738
 70
     0
280
     1
281
     0
  0
BLOCK_RECORD
  5
779A
330
76CB
100
AcDbSymbolTableRecord
100
AcDbBlockTableRecord
  2
_ACMFILLEDHALF
340
0
 70
     0
280
     1
281
     0
  0
BLOCK_RECORD
  5
779C
330
76CB
100
AcDbSymbolTableRecord
100
AcDbBlockTableRecord
  2
YAZ1
340
0
102
{BLKREFS
331
764F
331
7650
331
7657
331
7658
331
765D
331
765E
331
7665
331
7666
102
}
 70
     0
280
     1
281
     0
  0
BLOCK_RECORD
  5
779E
330
76CB
100
AcDbSymbolTableRecord
100
AcDbBlockTableRecord
  2
*U2
340
0
102
{BLKREFS
331
7651
102
}
 70
     0
280
     1
281
     0
  0
BLOCK_RECORD
  5
77A0
330
76CB
100
AcDbSymbolTableRecord
100
AcDbBlockTableRecord
  2
*U3
340
0
102
{BLKREFS
331
7659
102
}
 70
     0
280
     1
281
     0
  0
BLOCK_RECORD
  5
77A2
330
76CB
100
AcDbSymbolTableRecord
100
AcDbBlockTableRecord
  2
*U4
340
0
102
{BLKREFS
331
765F
102
}
 70
     0
280
     1
281
     0
  0
BLOCK_RECORD
  5
77A4
330
76CB
100
AcDbSymbolTableRecord
100
AcDbBlockTableRecord
  2
*U5
340
0
102
{BLKREFS
331
7667
102
}
 70
     0
280
     1
281
     0
  0
BLOCK_RECORD
  5
7E5F
330
76CB
100
AcDbSymbolTableRecord
100
AcDbBlockTableRecord
  2
_Open30
340
0
 70
     0
280
     1
281
     0
  0
BLOCK_RECORD
  5
7E65
330
76CB
100
AcDbSymbolTableRecord
100
AcDbBlockTableRecord
  2
GENAXEH
340
0
 70
     0
280
     1
281
     0
  0
ENDTAB
  0
ENDSEC
  0
SECTION
  2
BLOCKS
  0
BLOCK
  5
773A
330
7739
100
AcDbEntity
  8
0
100
AcDbBlockBegin
  2
*Model_Space
 70
     0
 10
0.0
 20
0.0
 30
0.0
  3
*Model_Space
  1

  0
ENDBLK
  5
773B
330
7739
100
AcDbEntity
  8
0
100
AcDbBlockEnd
  0
BLOCK
  5
7736
330
7735
100
AcDbEntity
 67
     1
  8
0
100
AcDbBlockBegin
  2
*Paper_Space
 70
     0
 10
0.0
 20
0.0
 30
0.0
  3
*Paper_Space
  1

  0
ENDBLK
  5
7737
330
7735
100
AcDbEntity
 67
     1
  8
0
100
AcDbBlockEnd
  0
BLOCK
  5
779B
330
779A
100
AcDbEntity
  8
0
100
AcDbBlockBegin
  2
_ACMFILLEDHALF
 70
     0
 10
0.0
 20
0.0
 30
0.0
  3
_ACMFILLEDHALF
  1

  0
TRACE
  5
7024
330
779A
100
AcDbEntity
  8
HOJYO
 62
     0
100
AcDbTrace
 10
-0.8
 20
0.0
 30
0.0
 11
-1.0
 21
0.166666666
 31
0.0
 12
0.0
 22
0.0
 32
0.0
 13
0.0
 23
0.0
 33
0.0
  0
LINE
  5
7025
330
779A
100
AcDbEntity
  8
HOJYO
 62
     0
100
AcDbLine
 10
-1.0
 20
0.0
 30
0.0
 11
-0.8
 21
0.0
 31
0.0
  0
ENDBLK
  5
7023
330
779A
100
AcDbEntity
  8
0
100
AcDbBlockEnd
  0
BLOCK
  5
779D
330
779C
100
AcDbEntity
  8
0
100
AcDbBlockBegin
  2
YAZ1
 70
     0
 10
0.0
 20
0.0
 30
0.0
  3
YAZ1
  1

  0
LINE
  5
74D1
330
779C
100
AcDbEntity
  8
0
100
AcDbLine
 10
0.0
 20
0.0
 30
0.0
 11
-1.0
 21
-0.2679491924311037
 31
0.0
  0
LINE
  5
74D2
330
779C
100
AcDbEntity
  8
0
100
AcDbLine
 10
0.0
 20
0.0
 30
0.0
 11
-1.0
 21
0.2679491924311037
 31
0.0
  0
LINE
  5
74D3
330
779C
100
AcDbEntity
  8
0
100
AcDbLine
 10
-1.0
 20
0.0
 30
0.0
 11
0.0
 21
0.0
 31
0.0
  0
ENDBLK
  5
74D4
330
779C
100
AcDbEntity
  8
0
100
AcDbBlockEnd
  0
BLOCK
  5
779F
330
779E
100
AcDbEntity
  8
0
100
AcDbBlockBegin
  2
*U2
 70
     1
 10
0.0
 20
0.0
 30
0.0
  3
*U2
  1

  0
TEXT
  5
76BC
330
779E
100
AcDbEntity
  8
0
100
AcDbText
 10
187.4999554235244
 20
845.1644745930334
 30
0.0
 40
25.0
  1
30
 50
90.0
100
AcDbText
  0
ENDBLK
  5
76BE
330
779E
100
AcDbEntity
  8
0
100
AcDbBlockEnd
  0
BLOCK
  5
77A1
330
77A0
100
AcDbEntity
  8
0
100
AcDbBlockBegin
  2
*U3
 70
     1
 10
0.0
 20
0.0
 30
0.0
  3
*U3
  1

  0
TEXT
  5
76C0
330
77A0
100
AcDbEntity
  8
0
100
AcDbText
 10
429.166633941416
 20
1404.968194292759
 30
0.0
 40
25.0
  1
225
100
AcDbText
  0
ENDBLK
  5
76C2
330
77A0
100
AcDbEntity
  8
0
100
AcDbBlockEnd
  0
BLOCK
  5
77A3
330
77A2
100
AcDbEntity
  8
0
100
AcDbBlockBegin
  2
*U4
 70
     1
 10
0.0
 20
0.0
 30
0.0
  3
*U4
  1

  0
TEXT
  5
76C4
330
77A2
100
AcDbEntity
  8
0
100
AcDbText
 10
1254.166633941416
 20
1404.968194292759
 30
0.0
 40
25.0
  1
225
100
AcDbText
  0
ENDBLK
  5
76C6
330
77A2
100
AcDbEntity
  8
0
100
AcDbBlockEnd
  0
BLOCK
  5
77A5
330
77A4
100
AcDbEntity
  8
0
100
AcDbBlockBegin
  2
*U5
 70
     1
 10
0.0
 20
0.0
 30
0.0
  3
*U5
  1

  0
TEXT
  5
76C8
330
77A4
100
AcDbEntity
  8
0
100
AcDbText
 10
187.4999554235244
 20
1372.664384382512
 30
0.0
 40
25.0
  1
30
 50
90.0
100
AcDbText
  0
ENDBLK
  5
76CA
330
77A4
100
AcDbEntity
  8
0
100
AcDbBlockEnd
  0
BLOCK
  5
7E60
330
7E5F
100
AcDbEntity
  8
0
100
AcDbBlockBegin
  2
_Open30
 70
     0
 10
0.0
 20
0.0
 30
0.0
  3
_Open30
  1

  0
LINE
  5
7E61
330
7E5F
100
AcDbEntity
  8
0
  6
ByBlock
 62
     0
370
    -2
100
AcDbLine
 10
-1.0
 20
0.26794919
 30
0.0
 11
0.0
 21
0.0
 31
0.0
  0
LINE
  5
7E62
330
7E5F
100
AcDbEntity
  8
0
  6
ByBlock
 62
     0
370
    -2
100
AcDbLine
 10
0.0
 20
0.0
 30
0.0
 11
-1.0
 21
-0.26794919
 31
0.0
  0
LINE
  5
7E63
330
7E5F
100
AcDbEntity
  8
0
  6
ByBlock
 62
     0
370
    -2
100
AcDbLine
 10
0.0
 20
0.0
 30
0.0
 11
-1.0
 21
0.0
 31
0.0
  0
ENDBLK
  5
7E64
330
7E5F
100
AcDbEntity
  8
0
100
AcDbBlockEnd
  0
BLOCK
  5
7E66
330
7E65
100
AcDbEntity
  8
0
100
AcDbBlockBegin
  2
GENAXEH
 70
     0
 10
0.0
 20
0.0
 30
0.0
  3
GENAXEH
  1

  0
LINE
  5
7E67
330
7E65
100
AcDbEntity
  8
0
100
AcDbLine
 10
-1.0
 20
0.0
 30
0.0
 11
1.0
 21
0.0
 31
0.0
  0
ENDBLK
  5
7E68
330
7E65
100
AcDbEntity
  8
0
100
AcDbBlockEnd
  0
ENDSEC
  0
SECTION
  2
ENTITIES
  0
TEXT
  5
86E
330
7739
100
AcDbEntity
  8
0
100
AcDbText
 10
926.9153104867148
 20
115.0
 30
0.0
 40
35.0
  1
エアコン防振台
  7
MONO-SET
100
AcDbText
  0
TEXT
  5
86F
330
7739
100
AcDbEntity
  8
0
100
AcDbText
 10
950.0
 20
20.0
 30
0.0
 40
35.0
  1
ABM-305ES2A　　　(耐重塩害仕様)
  7
MONO-SET
100
AcDbText
  0
TEXT
  5
87D
330
7739
100
AcDbEntity
  8
0
100
AcDbText
 10
90.00000000000021
 20
1338.749133298048
 30
0.0
 40
30.0
  1
＜基礎ボルト位置＞
100
AcDbText
  0
TEXT
  5
8FF
330
7739
100
AcDbEntity
  8
0
100
AcDbText
 10
90.00000000000021
 20
2680.0
 30
0.0
 40
30.0
  1
＜外形寸法図＞
100
AcDbText
  0
LINE
  5
2D03
330
7739
100
AcDbEntity
  8
0
100
AcDbLine
 10
416.9852813742394
 20
1618.112605249588
 30
0.0
 11
699.9999554231401
 21
1618.112605249588
 31
0.0
  0
LINE
  5
2D04
330
7739
100
AcDbEntity
  8
0
100
AcDbLine
 10
417.0000000000004
 20
1726.112605249589
 30
0.0
 11
1332.999913675472
 21
1726.112605249589
 31
0.0
  0
LINE
  5
2D05
330
7739
100
AcDbEntity
  8
0
100
AcDbLine
 10
417.0000000000004
 20
1696.112605249589
 30
0.0
 11
1332.999913675472
 21
1696.112605249589
 31
0.0
  0
LINE
  5
2D06
330
7739
100
AcDbEntity
  8
0
100
AcDbLine
 10
417.0000000000004
 20
1588.112605249588
 30
0.0
 11
1332.999913675471
 21
1588.112605249588
 31
0.0
  0
LINE
  5
2D08
330
7739
100
AcDbEntity
  8
0
100
AcDbLine
 10
249.9999554235244
 20
1548.112605249588
 30
0.0
 11
249.9999554235244
 21
1530.538443519746
 31
0.0
  0
LINE
  5
2D09
330
7739
100
AcDbEntity
  8
0
100
AcDbLine
 10
417.0000000000007
 20
1726.112605249589
 30
0.0
 11
350.0000000000002
 21
1726.112605249589
 31
0.0
  0
ARC
  5
2D0A
330
7739
100
AcDbEntity
  8
0
100
AcDbCircle
 10
407.0000000000008
 20
1699.412605249589
 30
0.0
 40
17.0
100
AcDbArc
 50
97.66225566075876
 51
172.3377443392409
  0
LINE
  5
2D0B
330
7739
100
AcDbEntity
  8
0
100
AcDbLine
 10
405.0000000000008
 20
1699.412605249589
 30
0.0
 11
392.1339312526823
 21
1699.412605249589
 31
0.0
  0
LINE
  5
2D0C
330
7739
100
AcDbEntity
  8
0
100
AcDbLine
 10
364.0000000000009
 20
1603.112605249589
 30
0.0
 11
395.0000000000007
 21
1603.112605249589
 31
0.0
  0
LINE
  5
2D0D
330
7739
100
AcDbEntity
  8
0
100
AcDbLine
 10
417.0000000000007
 20
1588.112605249588
 30
0.0
 11
356.3000000000009
 21
1588.112605249588
 31
0.0
  0
LINE
  5
2D0E
330
7739
100
AcDbEntity
  8
0
100
AcDbLine
 10
350.0000000000002
 20
1621.612605249588
 30
0.0
 11
408.5000000000007
 21
1621.612605249589
 31
0.0
  0
LINE
  5
2D0F
330
7739
100
AcDbEntity
  8
0
100
AcDbLine
 10
350.0000000000002
 20
1626.112605249588
 30
0.0
 11
408.4999999999998
 21
1626.112605249589
 31
0.0
  0
LINE
  5
2D10
330
7739
100
AcDbEntity
  8
0
100
AcDbLine
 10
366.9999999999998
 20
1629.312605249589
 30
0.0
 11
396.9999999999998
 21
1629.312605249589
 31
0.0
  0
ARC
  5
2D11
330
7739
100
AcDbEntity
  8
0
100
AcDbCircle
 10
392.3922565677115
 20
1614.203071249589
 30
0.0
 40
5.090450299999996
100
AcDbArc
 50
227.1166399999841
 51
312.8833200000165
  0
ARC
  5
2D12
330
7739
100
AcDbEntity
  8
0
100
AcDbCircle
 10
392.3922999999999
 20
1634.403054249588
 30
0.0
 40
5.090450299999996
100
AcDbArc
 50
227.1166399999841
 51
312.8833169999812
  0
ARC
  5
2D13
330
7739
100
AcDbEntity
  8
0
100
AcDbCircle
 10
392.3922999999999
 20
1634.222126249589
 30
0.0
 40
5.090450299999996
100
AcDbArc
 50
47.1166899999819
 51
132.8833700000024
  0
LINE
  5
2D14
330
7739
100
AcDbEntity
  8
0
100
AcDbLine
 10
381.9999999999998
 20
1645.112605249589
 30
0.0
 11
401.9999999999996
 21
1645.112605249589
 31
0.0
  0
LINE
  5
2D15
330
7739
100
AcDbEntity
  8
0
100
AcDbLine
 10
381.9999999999997
 20
1652.612605249589
 30
0.0
 11
403.4999999999997
 21
1652.612605249589
 31
0.0
  0
LINE
  5
2D16
330
7739
100
AcDbEntity
  8
0
100
AcDbLine
 10
381.9999999999998
 20
1656.112605249589
 30
0.0
 11
409.4999999999997
 21
1656.112605249588
 31
0.0
  0
LINE
  5
2D17
330
7739
100
AcDbEntity
  8
0
100
AcDbLine
 10
381.9999999999997
 20
1660.612605249589
 30
0.0
 11
409.4999999999997
 21
1660.612605249588
 31
0.0
  0
LINE
  5
2D18
330
7739
100
AcDbEntity
  8
0
100
AcDbLine
 10
381.9999999999998
 20
1665.612605249589
 30
0.0
 11
401.9906738308357
 21
1665.612605249589
 31
0.0
  0
LINE
  5
2D19
330
7739
100
AcDbEntity
  8
0
100
AcDbLine
 10
381.9904517889629
 20
1668.812605249589
 30
0.0
 11
401.9906738308357
 21
1668.812605249589
 31
0.0
  0
ARC
  5
2D1A
330
7739
100
AcDbEntity
  8
0
100
AcDbCircle
 10
392.3923048454128
 20
1675.348319535304
 30
0.0
 40
3.464285714285711
100
AcDbArc
 50
359.4093113971839
 51
180.5906886028161
  0
LINE
  5
2D1F
330
7739
100
AcDbEntity
  8
0
100
AcDbLine
 10
373.9734553849406
 20
1645.112605249589
 30
0.0
 11
373.975091948096
 21
1639.312575249588
 31
0.0
  0
LINE
  5
2D20
330
7739
100
AcDbEntity
  8
0
100
AcDbLine
 10
389.9734559613784
 20
1645.112605249588
 30
0.0
 11
389.9750925245337
 21
1639.312575249588
 31
0.0
  0
LINE
  5
2D21
330
7739
100
AcDbEntity
  8
0
100
AcDbLine
 10
381.9999999999998
 20
1682.772148551858
 30
0.0
 11
381.9999999999998
 21
1605.488773979069
 31
0.0
  0
ARC
  5
2D22
330
7739
100
AcDbEntity
  8
0
100
AcDbCircle
 10
353.0000000000002
 20
1591.112605249589
 30
0.0
 40
3.0
100
AcDbArc
 50
180.0
 51
270.0
  0
LINE
  5
2D23
330
7739
100
AcDbEntity
  8
0
100
AcDbLine
 10
350.0000000000002
 20
1591.112605249589
 30
0.0
 11
350.0000000000002
 21
1626.112605249588
 31
0.0
  0
LINE
  5
2D24
330
7739
100
AcDbEntity
  8
0
100
AcDbLine
 10
357.0000000000007
 20
1589.112605249588
 30
0.0
 11
357.0000000000007
 21
1596.112605249589
 31
0.0
  0
ARC
  5
2D25
330
7739
100
AcDbEntity
  8
0
100
AcDbCircle
 10
356.0000000000007
 20
1589.112605249588
 30
0.0
 40
1.0
100
AcDbArc
 50
270.0
 51
0.0
  0
LINE
  5
2D26
330
7739
100
AcDbEntity
  8
0
100
AcDbLine
 10
356.0000000000007
 20
1588.112605249588
 30
0.0
 11
353.0000000000002
 21
1588.112605249588
 31
0.0
  0
LINE
  5
2D27
330
7739
100
AcDbEntity
  8
0
100
AcDbLine
 10
371.6076465677109
 20
1609.112622249589
 30
0.0
 11
392.3922565677115
 21
1609.112622249589
 31
0.0
  0
LINE
  5
2D28
330
7739
100
AcDbEntity
  8
0
100
AcDbLine
 10
392.3922999999999
 20
1639.312575249588
 30
0.0
 11
371.6076949999999
 21
1639.312575249588
 31
0.0
  0
ARC
  5
2D29
330
7739
100
AcDbEntity
  8
0
100
AcDbCircle
 10
371.6076465677109
 20
1614.203071249589
 30
0.0
 40
5.090450299999996
100
AcDbArc
 50
227.1166899999819
 51
312.8833700000025
  0
ARC
  5
2D2A
330
7739
100
AcDbEntity
  8
0
100
AcDbCircle
 10
371.6076949999999
 20
1634.403054249588
 30
0.0
 40
5.090450299999996
100
AcDbArc
 50
227.1166899999819
 51
312.8833619999789
  0
ARC
  5
2D2B
330
7739
100
AcDbEntity
  8
0
100
AcDbCircle
 10
371.6076949999999
 20
1634.222126249589
 30
0.0
 40
5.090450299999996
100
AcDbArc
 50
47.11663999998406
 51
132.8833200000165
  0
ARC
  5
2D2C
330
7739
100
AcDbEntity
  8
0
100
AcDbCircle
 10
364.0000000000009
 20
1596.112605249589
 30
0.0
 40
7.0
100
AcDbArc
 50
90.0
 51
180.0
  0
LINE
  5
2D2D
330
7739
100
AcDbEntity
  8
0
100
AcDbLine
 10
368.1435565677114
 20
1610.473083249589
 30
0.0
 11
368.1435565677114
 21
1621.612605249589
 31
0.0
  0
LINE
  5
2D2E
330
7739
100
AcDbEntity
  8
0
100
AcDbLine
 10
366.9999999999998
 20
1626.112605249589
 30
0.0
 11
366.9999999999998
 21
1629.312605249589
 31
0.0
  0
LINE
  5
2D2F
330
7739
100
AcDbEntity
  8
0
100
AcDbLine
 10
368.1436059999999
 20
1637.952108249588
 30
0.0
 11
368.1436059999999
 21
1630.673072249588
 31
0.0
  0
ARC
  5
2D30
330
7739
100
AcDbEntity
  8
0
100
AcDbCircle
 10
381.999956567711
 20
1627.433785249588
 30
0.0
 40
18.321183
100
AcDbArc
 50
247.7807100000097
 51
292.2193300000003
  0
ARC
  5
2D31
330
7739
100
AcDbEntity
  8
0
100
AcDbCircle
 10
381.9999999999998
 20
1620.991395249589
 30
0.0
 40
18.321183
100
AcDbArc
 50
67.78071000000976
 51
112.2193300000002
  0
ARC
  5
2D32
330
7739
100
AcDbEntity
  8
0
100
AcDbCircle
 10
381.9999999999998
 20
1647.633778249588
 30
0.0
 40
18.321183
100
AcDbArc
 50
247.7806800000021
 51
292.2192999999692
  0
LINE
  5
2D33
330
7739
100
AcDbEntity
  8
0
100
AcDbLine
 10
373.4999999999998
 20
1626.112605249589
 30
0.0
 11
373.4999999999998
 21
1621.612605249589
 31
0.0
  0
LINE
  5
2D34
330
7739
100
AcDbEntity
  8
0
100
AcDbLine
 10
375.0717465677109
 20
1610.473083249589
 30
0.0
 11
375.0717465677109
 21
1621.612605249589
 31
0.0
  0
LINE
  5
2D35
330
7739
100
AcDbEntity
  8
0
100
AcDbLine
 10
375.0717909999996
 20
1637.952114249588
 30
0.0
 11
375.0717909999996
 21
1630.673065249588
 31
0.0
  0
LINE
  5
2D36
330
7739
100
AcDbEntity
  8
0
100
AcDbLine
 10
390.4999999999999
 20
1626.112605249589
 30
0.0
 11
390.4999999999999
 21
1621.612605249589
 31
0.0
  0
LINE
  5
2D37
330
7739
100
AcDbEntity
  8
0
100
AcDbLine
 10
388.9281665677111
 20
1610.473083249589
 30
0.0
 11
388.9281665677111
 21
1621.612605249589
 31
0.0
  0
LINE
  5
2D38
330
7739
100
AcDbEntity
  8
0
100
AcDbLine
 10
388.9281899999998
 20
1637.952114249588
 30
0.0
 11
388.9281899999998
 21
1630.673065249588
 31
0.0
  0
LINE
  5
2D39
330
7739
100
AcDbEntity
  8
0
100
AcDbLine
 10
350.0000000000002
 20
1660.612605249589
 30
0.0
 11
381.9999999999997
 21
1660.612605249588
 31
0.0
  0
LINE
  5
2D3A
330
7739
100
AcDbEntity
  8
0
100
AcDbLine
 10
350.0000000000002
 20
1656.112605249589
 30
0.0
 11
381.9999999999997
 21
1656.112605249588
 31
0.0
  0
LINE
  5
2D3B
330
7739
100
AcDbEntity
  8
0
100
AcDbLine
 10
350.0000000000002
 20
1726.112605249589
 30
0.0
 11
350.0000000000002
 21
1656.112605249589
 31
0.0
  0
ARC
  5
2D3C
330
7739
100
AcDbEntity
  8
0
100
AcDbCircle
 10
371.8660687473191
 20
1701.412605249589
 30
0.0
 40
2.0
100
AcDbArc
 50
270.0
 51
7.662255660759049
  0
ARC
  5
2D3D
330
7739
100
AcDbEntity
  8
0
100
AcDbCircle
 10
359.0000000000007
 20
1701.412605249589
 30
0.0
 40
2.0
100
AcDbArc
 50
180.0
 51
270.0
  0
ARC
  5
2D3E
330
7739
100
AcDbEntity
  8
0
100
AcDbCircle
 10
392.1339312526823
 20
1701.412605249589
 30
0.0
 40
2.0
100
AcDbArc
 50
172.3377443392409
 51
270.0
  0
LINE
  5
2D3F
330
7739
100
AcDbEntity
  8
0
100
AcDbLine
 10
361.9999999999998
 20
1645.112605249589
 30
0.0
 11
381.9999999999997
 21
1645.112605249589
 31
0.0
  0
LINE
  5
2D40
330
7739
100
AcDbEntity
  8
0
100
AcDbLine
 10
360.4999999999998
 20
1652.612605249589
 30
0.0
 11
381.9999999999998
 21
1652.612605249588
 31
0.0
  0
LINE
  5
2D41
330
7739
100
AcDbEntity
  8
0
100
AcDbLine
 10
361.9906727511117
 20
1665.612605249589
 30
0.0
 11
381.9999999999997
 21
1665.612605249589
 31
0.0
  0
LINE
  5
2D42
330
7739
100
AcDbEntity
  8
0
100
AcDbLine
 10
361.9906727511117
 20
1668.812605249589
 30
0.0
 11
381.9904517889629
 21
1668.812605249588
 31
0.0
  0
LINE
  5
2D43
330
7739
100
AcDbEntity
  8
0
100
AcDbLine
 10
371.6076951545868
 20
1678.812605249589
 30
0.0
 11
392.3923048454128
 21
1678.812605249589
 31
0.0
  0
ARC
  5
2D44
330
7739
100
AcDbEntity
  8
0
100
AcDbCircle
 10
371.6076951545868
 20
1675.348319535304
 30
0.0
 40
3.464285714285711
100
AcDbArc
 50
359.4093113971839
 51
180.5906886028161
  0
LINE
  5
2D45
330
7739
100
AcDbEntity
  8
0
100
AcDbLine
 10
359.0000000000007
 20
1699.412605249589
 30
0.0
 11
371.8660687473191
 21
1699.412605249589
 31
0.0
  0
LINE
  5
2D46
330
7739
100
AcDbEntity
  8
0
100
AcDbLine
 10
360.4999999999998
 20
1645.112605249589
 30
0.0
 11
361.9999999999998
 21
1645.112605249589
 31
0.0
  0
LINE
  5
2D47
330
7739
100
AcDbEntity
  8
0
100
AcDbLine
 10
361.9906727511117
 20
1665.612605249589
 30
0.0
 11
361.9913879072162
 21
1660.612605249589
 31
0.0
  0
LINE
  5
2D48
330
7739
100
AcDbEntity
  8
0
100
AcDbLine
 10
368.1435935394486
 20
1668.812605249589
 30
0.0
 11
368.1435935394486
 21
1675.312605249589
 31
0.0
  0
LINE
  5
2D49
330
7739
100
AcDbEntity
  8
0
100
AcDbLine
 10
361.9906727511117
 20
1668.812605249589
 30
0.0
 11
361.9906727511117
 21
1665.612605249589
 31
0.0
  0
LINE
  5
2D4A
330
7739
100
AcDbEntity
  8
0
100
AcDbLine
 10
360.4999999999998
 20
1652.612605249589
 30
0.0
 11
360.4999999999998
 21
1645.112605249589
 31
0.0
  0
LINE
  5
2D4B
330
7739
100
AcDbEntity
  8
0
100
AcDbLine
 10
370.2000000000008
 20
1652.612605249588
 30
0.0
 11
370.2000000000002
 21
1656.112605249589
 31
0.0
  0
ARC
  5
2D4C
330
7739
100
AcDbEntity
  8
0
100
AcDbCircle
 10
381.9999999999998
 20
1670.205462392446
 30
0.0
 40
8.607142857142846
100
AcDbArc
 50
36.39587919809937
 51
143.6041208019006
  0
LINE
  5
2D4D
330
7739
100
AcDbEntity
  8
0
100
AcDbLine
 10
375.0717967697243
 20
1668.812605249589
 30
0.0
 11
375.0717967697243
 21
1675.312605249589
 31
0.0
  0
LINE
  5
2D4E
330
7739
100
AcDbEntity
  8
0
100
AcDbLine
 10
388.9282032302757
 20
1668.812605249589
 30
0.0
 11
388.9282032302757
 21
1675.312605249589
 31
0.0
  0
ARC
  5
2D4F
330
7739
100
AcDbEntity
  8
0
100
AcDbCircle
 10
357.0000000000007
 20
1699.412605249589
 30
0.0
 40
17.0
100
AcDbArc
 50
7.662255660759049
 51
82.3377443392412
  0
LINE
  5
2D50
330
7739
100
AcDbEntity
  8
0
100
AcDbLine
 10
357.0000000000007
 20
1701.412605249589
 30
0.0
 11
357.0000000000007
 21
1714.278673996908
 31
0.0
  0
ARC
  5
2D51
330
7739
100
AcDbEntity
  8
0
100
AcDbCircle
 10
359.0000000000007
 20
1714.278673996908
 30
0.0
 40
2.0
100
AcDbArc
 50
82.3377443392412
 51
180.0
  0
LINE
  5
2D55
330
7739
100
AcDbEntity
  8
0
100
AcDbLine
 10
417.0000000000007
 20
1588.112605249588
 30
0.0
 11
417.0000000000007
 21
1617.612605249589
 31
0.0
  0
LINE
  5
2D56
330
7739
100
AcDbEntity
  8
0
100
AcDbLine
 10
412.5000000000007
 20
1588.112605249588
 30
0.0
 11
412.5000000000007
 21
1617.612605249589
 31
0.0
  0
LINE
  5
2D57
330
7739
100
AcDbEntity
  8
0
100
AcDbLine
 10
402.0000000000006
 20
1589.112605249589
 30
0.0
 11
402.0000000000006
 21
1596.112605249589
 31
0.0
  0
ARC
  5
2D58
330
7739
100
AcDbEntity
  8
0
100
AcDbCircle
 10
403.0000000000006
 20
1589.112605249588
 30
0.0
 40
1.0
100
AcDbArc
 50
180.0
 51
270.0
  0
ARC
  5
2D59
330
7739
100
AcDbEntity
  8
0
100
AcDbCircle
 10
408.5000000000007
 20
1617.612605249589
 30
0.0
 40
8.5
100
AcDbArc
 50
0.0
 51
90.0
  0
LINE
  5
2D5A
330
7739
100
AcDbEntity
  8
0
100
AcDbLine
 10
395.856346567711
 20
1610.473083249589
 30
0.0
 11
395.856346567711
 21
1621.612605249589
 31
0.0
  0
LINE
  5
2D5B
330
7739
100
AcDbEntity
  8
0
100
AcDbLine
 10
396.9999999999998
 20
1626.112605249589
 30
0.0
 11
396.9999999999998
 21
1629.312605249589
 31
0.0
  0
LINE
  5
2D5C
330
7739
100
AcDbEntity
  8
0
100
AcDbLine
 10
395.8563799999995
 20
1637.952114249588
 30
0.0
 11
395.8563799999995
 21
1630.673065249588
 31
0.0
  0
ARC
  5
2D5D
330
7739
100
AcDbEntity
  8
0
100
AcDbCircle
 10
408.4999999999998
 20
1617.612605249589
 30
0.0
 40
4.0
100
AcDbArc
 50
0.0
 51
90.0
  0
ARC
  5
2D5E
330
7739
100
AcDbEntity
  8
0
100
AcDbCircle
 10
395.0000000000007
 20
1596.112605249589
 30
0.0
 40
7.0
100
AcDbArc
 50
0.0
 51
90.0
  0
LINE
  5
2D60
330
7739
100
AcDbEntity
  8
0
100
AcDbLine
 10
574.9999136754722
 20
1630.233946254222
 30
0.0
 11
574.9999136754722
 21
1572.806940324881
 31
0.0
  0
ARC
  5
2D61
330
7739
100
AcDbEntity
  8
0
100
AcDbCircle
 10
405.0000000000008
 20
1701.412605249589
 30
0.0
 40
2.0
100
AcDbArc
 50
270.0
 51
0.0
  0
LINE
  5
2D62
330
7739
100
AcDbEntity
  8
0
100
AcDbLine
 10
417.0000000000007
 20
1726.112605249589
 30
0.0
 11
417.0000000000007
 21
1663.612605249588
 31
0.0
  0
LINE
  5
2D63
330
7739
100
AcDbEntity
  8
0
100
AcDbLine
 10
412.5000000000007
 20
1726.112605249589
 30
0.0
 11
412.5000000000007
 21
1663.612605249588
 31
0.0
  0
ARC
  5
2D64
330
7739
100
AcDbEntity
  8
0
100
AcDbCircle
 10
409.4999999999997
 20
1663.612605249588
 30
0.0
 40
7.5
100
AcDbArc
 50
270.0
 51
0.0
  0
LINE
  5
2D65
330
7739
100
AcDbEntity
  8
0
100
AcDbLine
 10
401.9906738308357
 20
1665.612605249589
 30
0.0
 11
401.9913889869405
 21
1660.612605249589
 31
0.0
  0
LINE
  5
2D66
330
7739
100
AcDbEntity
  8
0
100
AcDbLine
 10
403.4999999999997
 20
1652.612605249589
 30
0.0
 11
403.4999999999997
 21
1645.112605249589
 31
0.0
  0
LINE
  5
2D67
330
7739
100
AcDbEntity
  8
0
100
AcDbLine
 10
401.9999999999996
 20
1645.112605249589
 30
0.0
 11
403.4999999999997
 21
1645.112605249589
 31
0.0
  0
LINE
  5
2D68
330
7739
100
AcDbEntity
  8
0
100
AcDbLine
 10
401.9906738308357
 20
1668.812605249589
 30
0.0
 11
401.9906738308357
 21
1665.612605249589
 31
0.0
  0
LINE
  5
2D69
330
7739
100
AcDbEntity
  8
0
100
AcDbLine
 10
395.8564064605509
 20
1675.312605249589
 30
0.0
 11
395.8564064605509
 21
1668.812605249589
 31
0.0
  0
ARC
  5
2D6A
330
7739
100
AcDbEntity
  8
0
100
AcDbCircle
 10
409.4999999999997
 20
1663.612605249588
 30
0.0
 40
3.0
100
AcDbArc
 50
270.0
 51
0.0
  0
LINE
  5
2D6B
330
7739
100
AcDbEntity
  8
0
100
AcDbLine
 10
393.8000000000002
 20
1652.612605249589
 30
0.0
 11
393.8000000000002
 21
1656.112605249589
 31
0.0
  0
LINE
  5
2D6C
330
7739
100
AcDbEntity
  8
0
100
AcDbLine
 10
407.0000000000008
 20
1701.412605249589
 30
0.0
 11
407.0000000000006
 21
1714.278673996908
 31
0.0
  0
ARC
  5
2D6D
330
7739
100
AcDbEntity
  8
0
100
AcDbCircle
 10
405.0000000000006
 20
1714.278673996908
 30
0.0
 40
2.0
100
AcDbArc
 50
0.0
 51
97.66225566075876
  0
LINE
  5
2D6F
330
7739
100
AcDbEntity
  8
0
100
AcDbLine
 10
575.0
 20
1739.365375183391
 30
0.0
 11
575.0
 21
1681.938369254049
 31
0.0
  0
ARC
  5
2DB9
330
7739
100
AcDbEntity
  8
0
100
AcDbCircle
 10
1392.999955423524
 20
1699.412605249589
 30
0.0
 40
17.0
100
AcDbArc
 50
97.66225566075876
 51
172.3377443392409
  0
LINE
  5
2DBA
330
7739
100
AcDbEntity
  8
0
100
AcDbLine
 10
1378.392260268938
 20
1678.812605249589
 30
0.0
 11
1357.607650578112
 21
1678.812605249589
 31
0.0
  0
LINE
  5
2DBB
330
7739
100
AcDbEntity
  8
0
100
AcDbLine
 10
1387.999955423524
 20
1645.112605249589
 30
0.0
 11
1367.999955423524
 21
1645.112605249589
 31
0.0
  0
LINE
  5
2DBC
330
7739
100
AcDbEntity
  8
0
100
AcDbLine
 10
1389.499955423525
 20
1652.612605249589
 30
0.0
 11
1367.999955423524
 21
1652.612605249588
 31
0.0
  0
LINE
  5
2DBD
330
7739
100
AcDbEntity
  8
0
100
AcDbLine
 10
1388.009282672413
 20
1665.612605249589
 30
0.0
 11
1367.999955423524
 21
1665.612605249589
 31
0.0
  0
LINE
  5
2DBE
330
7739
100
AcDbEntity
  8
0
100
AcDbLine
 10
1388.009282672413
 20
1668.812605249589
 30
0.0
 11
1368.009503634561
 21
1668.812605249588
 31
0.0
  0
ARC
  5
2DBF
330
7739
100
AcDbEntity
  8
0
100
AcDbCircle
 10
1378.392260268938
 20
1675.348319535304
 30
0.0
 40
3.464285714285711
100
AcDbArc
 50
359.4093113971839
 51
180.5906886028161
  0
ARC
  5
2DC0
330
7739
100
AcDbEntity
  8
0
100
AcDbCircle
 10
1378.133886676205
 20
1701.412605249589
 30
0.0
 40
2.0
100
AcDbArc
 50
172.3377443392409
 51
270.0
  0
LINE
  5
2DC1
330
7739
100
AcDbEntity
  8
0
100
AcDbLine
 10
1399.999955423524
 20
1660.612605249589
 30
0.0
 11
1367.999955423524
 21
1660.612605249588
 31
0.0
  0
LINE
  5
2DC2
330
7739
100
AcDbEntity
  8
0
100
AcDbLine
 10
1399.999955423524
 20
1656.112605249589
 30
0.0
 11
1367.999955423524
 21
1656.112605249588
 31
0.0
  0
LINE
  5
2DC3
330
7739
100
AcDbEntity
  8
0
100
AcDbLine
 10
1378.392308855813
 20
1609.112622249589
 30
0.0
 11
1357.607698855813
 21
1609.112622249589
 31
0.0
  0
ARC
  5
2DC4
330
7739
100
AcDbEntity
  8
0
100
AcDbCircle
 10
1378.392308855813
 20
1614.203071249589
 30
0.0
 40
5.090450299999996
100
AcDbArc
 50
227.1166299999975
 51
312.8833100000181
  0
ARC
  5
2DC5
330
7739
100
AcDbEntity
  8
0
100
AcDbCircle
 10
1378.392260423524
 20
1634.403054249588
 30
0.0
 40
5.090450299999996
100
AcDbArc
 50
227.1166380000213
 51
312.8833100000181
  0
LINE
  5
2DC6
330
7739
100
AcDbEntity
  8
0
100
AcDbLine
 10
1357.607655423525
 20
1639.312575249588
 30
0.0
 11
1378.392260423524
 21
1639.312575249588
 31
0.0
  0
ARC
  5
2DC7
330
7739
100
AcDbEntity
  8
0
100
AcDbCircle
 10
1378.392260423524
 20
1634.222126249589
 30
0.0
 40
5.090450299999996
100
AcDbArc
 50
47.1166799999835
 51
132.8833600000159
  0
LINE
  5
2DC8
330
7739
100
AcDbEntity
  8
0
100
AcDbLine
 10
1385.999955423524
 20
1603.112605249589
 30
0.0
 11
1354.999955423523
 21
1603.112605249589
 31
0.0
  0
LINE
  5
2DC9
330
7739
100
AcDbEntity
  8
0
100
AcDbLine
 10
1332.999955423524
 20
1588.112605249588
 30
0.0
 11
1393.699955423523
 21
1588.112605249588
 31
0.0
  0
LINE
  5
2DCA
330
7739
100
AcDbEntity
  8
0
100
AcDbLine
 10
1399.999955423524
 20
1621.612605249588
 30
0.0
 11
1341.499955423524
 21
1621.612605249589
 31
0.0
  0
LINE
  5
2DCB
330
7739
100
AcDbEntity
  8
0
100
AcDbLine
 10
1399.999955423524
 20
1626.112605249588
 30
0.0
 11
1341.499955423524
 21
1626.112605249589
 31
0.0
  0
LINE
  5
2DCC
330
7739
100
AcDbEntity
  8
0
100
AcDbLine
 10
1382.999955423525
 20
1629.312605249589
 30
0.0
 11
1352.999955423525
 21
1629.312605249589
 31
0.0
  0
LINE
  5
2DCD
330
7739
100
AcDbEntity
  8
0
100
AcDbLine
 10
1332.999955423524
 20
1726.112605249589
 30
0.0
 11
1399.999955423524
 21
1726.112605249589
 31
0.0
  0
LINE
  5
2DCE
330
7739
100
AcDbEntity
  8
0
100
AcDbLine
 10
1367.999955423524
 20
1682.772148551858
 30
0.0
 11
1367.999955423524
 21
1605.488773979069
 31
0.0
  0
LINE
  5
2DCF
330
7739
100
AcDbEntity
  8
0
100
AcDbLine
 10
1376.026500038584
 20
1645.112605249589
 30
0.0
 11
1376.024863475428
 21
1639.312575249588
 31
0.0
  0
LINE
  5
2DD0
330
7739
100
AcDbEntity
  8
0
100
AcDbLine
 10
1360.026499462146
 20
1645.112605249588
 30
0.0
 11
1360.024862898991
 21
1639.312575249588
 31
0.0
  0
ARC
  5
2DD1
330
7739
100
AcDbEntity
  8
0
100
AcDbCircle
 10
1341.499955423524
 20
1617.612605249589
 30
0.0
 40
8.5
100
AcDbArc
 50
90.0
 51
180.0
  0
LINE
  5
2DD3
330
7739
100
AcDbEntity
  8
0
100
AcDbLine
 10
1332.999955423524
 20
1588.112605249588
 30
0.0
 11
1332.999955423524
 21
1617.612605249589
 31
0.0
  0
LINE
  5
2DD5
330
7739
100
AcDbEntity
  8
0
100
AcDbLine
 10
1347.999955423524
 20
1589.112605249589
 30
0.0
 11
1347.999955423524
 21
1596.112605249589
 31
0.0
  0
LINE
  5
2DD6
330
7739
100
AcDbEntity
  8
0
100
AcDbLine
 10
1337.499955423524
 20
1588.112605249588
 30
0.0
 11
1337.499955423524
 21
1617.612605249589
 31
0.0
  0
ARC
  5
2DD7
330
7739
100
AcDbEntity
  8
0
100
AcDbCircle
 10
1346.999955423523
 20
1589.112605249588
 30
0.0
 40
1.0
100
AcDbArc
 50
270.0
 51
0.0
  0
ARC
  5
2DD8
330
7739
100
AcDbEntity
  8
0
100
AcDbCircle
 10
1357.607698855813
 20
1614.203071249589
 30
0.0
 40
5.090450299999996
100
AcDbArc
 50
227.1166799999836
 51
312.8833600000159
  0
ARC
  5
2DD9
330
7739
100
AcDbEntity
  8
0
100
AcDbCircle
 10
1357.607655423525
 20
1634.403054249588
 30
0.0
 40
5.090450299999996
100
AcDbArc
 50
227.1166830000189
 51
312.8833600000159
  0
ARC
  5
2DDA
330
7739
100
AcDbEntity
  8
0
100
AcDbCircle
 10
1357.607655423525
 20
1634.222126249589
 30
0.0
 40
5.090450299999996
100
AcDbArc
 50
47.11662999999754
 51
132.883310000018
  0
LINE
  5
2DDB
330
7739
100
AcDbEntity
  8
0
100
AcDbLine
 10
1354.143575423524
 20
1637.952114249588
 30
0.0
 11
1354.143575423524
 21
1630.673065249588
 31
0.0
  0
ARC
  5
2DDC
330
7739
100
AcDbEntity
  8
0
100
AcDbCircle
 10
1341.499955423524
 20
1617.612605249589
 30
0.0
 40
4.0
100
AcDbArc
 50
90.0
 51
180.0
  0
LINE
  5
2DDD
330
7739
100
AcDbEntity
  8
0
100
AcDbLine
 10
1354.143608855813
 20
1610.473083249589
 30
0.0
 11
1354.143608855813
 21
1621.612605249589
 31
0.0
  0
LINE
  5
2DDE
330
7739
100
AcDbEntity
  8
0
100
AcDbLine
 10
1352.999955423525
 20
1626.112605249589
 30
0.0
 11
1352.999955423525
 21
1629.312605249589
 31
0.0
  0
ARC
  5
2DDF
330
7739
100
AcDbEntity
  8
0
100
AcDbCircle
 10
1354.999955423523
 20
1596.112605249589
 30
0.0
 40
7.0
100
AcDbArc
 50
90.0
 51
180.0
  0
LINE
  5
2DE0
330
7739
100
AcDbEntity
  8
0
100
AcDbLine
 10
1374.928164423525
 20
1637.952114249588
 30
0.0
 11
1374.928164423525
 21
1630.673065249588
 31
0.0
  0
LINE
  5
2DE1
330
7739
100
AcDbEntity
  8
0
100
AcDbLine
 10
1361.071765423524
 20
1637.952114249588
 30
0.0
 11
1361.071765423524
 21
1630.673065249588
 31
0.0
  0
ARC
  5
2DE2
330
7739
100
AcDbEntity
  8
0
100
AcDbCircle
 10
1367.999998855812
 20
1627.433785249588
 30
0.0
 40
18.321183
100
AcDbArc
 50
247.7806699999998
 51
292.2192899999902
  0
ARC
  5
2DE3
330
7739
100
AcDbEntity
  8
0
100
AcDbCircle
 10
1367.999955423524
 20
1647.633778249588
 30
0.0
 40
18.321183
100
AcDbArc
 50
247.7807000000308
 51
292.2193199999979
  0
LINE
  5
2DE4
330
7739
100
AcDbEntity
  8
0
100
AcDbLine
 10
1374.928208855813
 20
1610.473083249589
 30
0.0
 11
1374.928208855813
 21
1621.612605249589
 31
0.0
  0
LINE
  5
2DE5
330
7739
100
AcDbEntity
  8
0
100
AcDbLine
 10
1361.071788855813
 20
1610.473083249589
 30
0.0
 11
1361.071788855813
 21
1621.612605249589
 31
0.0
  0
LINE
  5
2DE6
330
7739
100
AcDbEntity
  8
0
100
AcDbLine
 10
1359.499955423524
 20
1626.112605249589
 30
0.0
 11
1359.499955423524
 21
1621.612605249589
 31
0.0
  0
ARC
  5
2DE7
330
7739
100
AcDbEntity
  8
0
100
AcDbCircle
 10
1367.999955423524
 20
1620.991395249589
 30
0.0
 40
18.321183
100
AcDbArc
 50
67.78066999999977
 51
112.2192899999902
  0
ARC
  5
2DE8
330
7739
100
AcDbEntity
  8
0
100
AcDbCircle
 10
1340.499955423524
 20
1663.612605249588
 30
0.0
 40
7.5
100
AcDbArc
 50
180.0
 51
270.0
  0
LINE
  5
2DE9
330
7739
100
AcDbEntity
  8
0
100
AcDbLine
 10
1332.999955423524
 20
1726.112605249589
 30
0.0
 11
1332.999955423524
 21
1663.612605249588
 31
0.0
  0
LINE
  5
2DEA
330
7739
100
AcDbEntity
  8
0
100
AcDbLine
 10
1337.499955423524
 20
1726.112605249589
 30
0.0
 11
1337.499955423524
 21
1663.612605249588
 31
0.0
  0
ARC
  5
2DEB
330
7739
100
AcDbEntity
  8
0
100
AcDbCircle
 10
1344.999955423523
 20
1701.412605249589
 30
0.0
 40
2.0
100
AcDbArc
 50
180.0
 51
270.0
  0
ARC
  5
2DEC
330
7739
100
AcDbEntity
  8
0
100
AcDbCircle
 10
1357.866024170842
 20
1701.412605249589
 30
0.0
 40
2.0
100
AcDbArc
 50
270.0
 51
7.662255660759049
  0
LINE
  5
2DED
330
7739
100
AcDbEntity
  8
0
100
AcDbLine
 10
1368.009503634561
 20
1668.812605249589
 30
0.0
 11
1348.009281592689
 21
1668.812605249589
 31
0.0
  0
ARC
  5
2DEE
330
7739
100
AcDbEntity
  8
0
100
AcDbCircle
 10
1357.607650578112
 20
1675.348319535304
 30
0.0
 40
3.464285714285711
100
AcDbArc
 50
359.4093113971839
 51
180.5906886028161
  0
LINE
  5
2DEF
330
7739
100
AcDbEntity
  8
0
100
AcDbLine
 10
1367.999955423524
 20
1645.112605249589
 30
0.0
 11
1347.999955423525
 21
1645.112605249589
 31
0.0
  0
LINE
  5
2DF0
330
7739
100
AcDbEntity
  8
0
100
AcDbLine
 10
1367.999955423524
 20
1652.612605249589
 30
0.0
 11
1346.499955423525
 21
1652.612605249589
 31
0.0
  0
LINE
  5
2DF1
330
7739
100
AcDbEntity
  8
0
100
AcDbLine
 10
1367.999955423524
 20
1656.112605249589
 30
0.0
 11
1340.499955423524
 21
1656.112605249588
 31
0.0
  0
LINE
  5
2DF2
330
7739
100
AcDbEntity
  8
0
100
AcDbLine
 10
1367.999955423524
 20
1660.612605249589
 30
0.0
 11
1340.499955423524
 21
1660.612605249588
 31
0.0
  0
LINE
  5
2DF3
330
7739
100
AcDbEntity
  8
0
100
AcDbLine
 10
1367.999955423524
 20
1665.612605249589
 30
0.0
 11
1348.009281592689
 21
1665.612605249589
 31
0.0
  0
LINE
  5
2DF4
330
7739
100
AcDbEntity
  8
0
100
AcDbLine
 10
1344.999955423523
 20
1699.412605249589
 30
0.0
 11
1357.866024170842
 21
1699.412605249589
 31
0.0
  0
ARC
  5
2DF5
330
7739
100
AcDbEntity
  8
0
100
AcDbCircle
 10
1340.499955423524
 20
1663.612605249588
 30
0.0
 40
3.0
100
AcDbArc
 50
180.0
 51
270.0
  0
LINE
  5
2DF6
330
7739
100
AcDbEntity
  8
0
100
AcDbLine
 10
1348.009281592689
 20
1665.612605249589
 30
0.0
 11
1348.008566436584
 21
1660.612605249589
 31
0.0
  0
LINE
  5
2DF7
330
7739
100
AcDbEntity
  8
0
100
AcDbLine
 10
1346.499955423525
 20
1652.612605249589
 30
0.0
 11
1346.499955423525
 21
1645.112605249589
 31
0.0
  0
LINE
  5
2DF8
330
7739
100
AcDbEntity
  8
0
100
AcDbLine
 10
1347.999955423525
 20
1645.112605249589
 30
0.0
 11
1346.499955423525
 21
1645.112605249589
 31
0.0
  0
LINE
  5
2DF9
330
7739
100
AcDbEntity
  8
0
100
AcDbLine
 10
1348.009281592689
 20
1668.812605249589
 30
0.0
 11
1348.009281592689
 21
1665.612605249589
 31
0.0
  0
LINE
  5
2DFA
330
7739
100
AcDbEntity
  8
0
100
AcDbLine
 10
1354.143548962973
 20
1675.312605249589
 30
0.0
 11
1354.143548962973
 21
1668.812605249589
 31
0.0
  0
LINE
  5
2DFB
330
7739
100
AcDbEntity
  8
0
100
AcDbLine
 10
1356.199955423524
 20
1652.612605249589
 30
0.0
 11
1356.199955423524
 21
1656.112605249589
 31
0.0
  0
ARC
  5
2DFC
330
7739
100
AcDbEntity
  8
0
100
AcDbCircle
 10
1367.999955423524
 20
1670.205462392446
 30
0.0
 40
8.607142857142846
100
AcDbArc
 50
36.39587919809937
 51
143.6041208019006
  0
LINE
  5
2DFD
330
7739
100
AcDbEntity
  8
0
100
AcDbLine
 10
1374.9281586538
 20
1668.812605249589
 30
0.0
 11
1374.9281586538
 21
1675.312605249589
 31
0.0
  0
LINE
  5
2DFE
330
7739
100
AcDbEntity
  8
0
100
AcDbLine
 10
1361.071752193249
 20
1668.812605249589
 30
0.0
 11
1361.071752193249
 21
1675.312605249589
 31
0.0
  0
ARC
  5
2DFF
330
7739
100
AcDbEntity
  8
0
100
AcDbCircle
 10
1342.999955423523
 20
1699.412605249589
 30
0.0
 40
17.0
100
AcDbArc
 50
7.662255660759049
 51
82.3377443392412
  0
LINE
  5
2E00
330
7739
100
AcDbEntity
  8
0
100
AcDbLine
 10
1342.999955423523
 20
1701.412605249589
 30
0.0
 11
1342.999955423524
 21
1714.278673996908
 31
0.0
  0
ARC
  5
2E01
330
7739
100
AcDbEntity
  8
0
100
AcDbCircle
 10
1344.999955423524
 20
1714.278673996908
 30
0.0
 40
2.0
100
AcDbArc
 50
82.3377443392412
 51
180.0
  0
LINE
  5
2E02
330
7739
100
AcDbEntity
  8
0
100
AcDbLine
 10
1392.999955423524
 20
1589.112605249588
 30
0.0
 11
1392.999955423524
 21
1596.112605249589
 31
0.0
  0
ARC
  5
2E03
330
7739
100
AcDbEntity
  8
0
100
AcDbCircle
 10
1396.999955423524
 20
1591.112605249589
 30
0.0
 40
3.0
100
AcDbArc
 50
270.0
 51
0.0
  0
LINE
  5
2E04
330
7739
100
AcDbEntity
  8
0
100
AcDbLine
 10
1393.999955423524
 20
1588.112605249588
 30
0.0
 11
1396.999955423524
 21
1588.112605249588
 31
0.0
  0
ARC
  5
2E05
330
7739
100
AcDbEntity
  8
0
100
AcDbCircle
 10
1393.999955423524
 20
1589.112605249588
 30
0.0
 40
1.0
100
AcDbArc
 50
180.0
 51
270.0
  0
LINE
  5
2E06
330
7739
100
AcDbEntity
  8
0
100
AcDbLine
 10
1376.499955423524
 20
1626.112605249589
 30
0.0
 11
1376.499955423524
 21
1621.612605249589
 31
0.0
  0
LINE
  5
2E07
330
7739
100
AcDbEntity
  8
0
100
AcDbLine
 10
1381.856349423524
 20
1637.952108249588
 30
0.0
 11
1381.856349423524
 21
1630.673072249588
 31
0.0
  0
ARC
  5
2E08
330
7739
100
AcDbEntity
  8
0
100
AcDbCircle
 10
1385.999955423524
 20
1596.112605249589
 30
0.0
 40
7.0
100
AcDbArc
 50
0.0
 51
90.0
  0
LINE
  5
2E09
330
7739
100
AcDbEntity
  8
0
100
AcDbLine
 10
1381.856398855813
 20
1610.473083249589
 30
0.0
 11
1381.856398855813
 21
1621.612605249589
 31
0.0
  0
LINE
  5
2E0A
330
7739
100
AcDbEntity
  8
0
100
AcDbLine
 10
1382.999955423525
 20
1626.112605249589
 30
0.0
 11
1382.999955423525
 21
1629.312605249589
 31
0.0
  0
LINE
  5
2E0B
330
7739
100
AcDbEntity
  8
0
100
AcDbLine
 10
1399.999955423524
 20
1591.112605249589
 30
0.0
 11
1399.999955423524
 21
1626.112605249588
 31
0.0
  0
ARC
  5
2E0C
330
7739
100
AcDbEntity
  8
0
100
AcDbCircle
 10
1390.999955423524
 20
1701.412605249589
 30
0.0
 40
2.0
100
AcDbArc
 50
270.0
 51
0.0
  0
LINE
  5
2E0D
330
7739
100
AcDbEntity
  8
0
100
AcDbLine
 10
1399.999955423524
 20
1726.112605249589
 30
0.0
 11
1399.999955423524
 21
1656.112605249589
 31
0.0
  0
LINE
  5
2E0E
330
7739
100
AcDbEntity
  8
0
100
AcDbLine
 10
1389.499955423525
 20
1645.112605249589
 30
0.0
 11
1387.999955423524
 21
1645.112605249589
 31
0.0
  0
LINE
  5
2E0F
330
7739
100
AcDbEntity
  8
0
100
AcDbLine
 10
1388.009282672413
 20
1665.612605249589
 30
0.0
 11
1388.008567516308
 21
1660.612605249589
 31
0.0
  0
LINE
  5
2E10
330
7739
100
AcDbEntity
  8
0
100
AcDbLine
 10
1381.856361884076
 20
1668.812605249589
 30
0.0
 11
1381.856361884076
 21
1675.312605249589
 31
0.0
  0
LINE
  5
2E11
330
7739
100
AcDbEntity
  8
0
100
AcDbLine
 10
1388.009282672413
 20
1668.812605249589
 30
0.0
 11
1388.009282672413
 21
1665.612605249589
 31
0.0
  0
LINE
  5
2E12
330
7739
100
AcDbEntity
  8
0
100
AcDbLine
 10
1389.499955423525
 20
1652.612605249589
 30
0.0
 11
1389.499955423525
 21
1645.112605249589
 31
0.0
  0
LINE
  5
2E13
330
7739
100
AcDbEntity
  8
0
100
AcDbLine
 10
1379.799955423523
 20
1652.612605249588
 30
0.0
 11
1379.799955423524
 21
1656.112605249589
 31
0.0
  0
LINE
  5
2E14
330
7739
100
AcDbEntity
  8
0
100
AcDbLine
 10
1390.999955423524
 20
1699.412605249589
 30
0.0
 11
1378.133886676205
 21
1699.412605249589
 31
0.0
  0
LINE
  5
2E15
330
7739
100
AcDbEntity
  8
0
100
AcDbLine
 10
1392.999955423524
 20
1701.412605249589
 30
0.0
 11
1392.999955423524
 21
1714.278673996908
 31
0.0
  0
ARC
  5
2E16
330
7739
100
AcDbEntity
  8
0
100
AcDbCircle
 10
1390.999955423524
 20
1714.278673996908
 30
0.0
 40
2.0
100
AcDbArc
 50
0.0
 51
97.66225566075876
  0
LINE
  5
2E1F
330
7739
100
AcDbEntity
  8
0
100
AcDbLine
 10
631.7160435616152
 20
717.9648268637907
 30
0.0
 11
1038.393314260426
 21
717.9648268637907
 31
0.0
  0
TEXT
  5
2E20
330
7739
100
AcDbEntity
  8
0
100
AcDbText
 10
780.065676041199
 20
722.5934455432359
 30
0.0
 40
25.0
  1
＜基礎ボルト穴＞
100
AcDbText
  0
CIRCLE
  5
2E23
330
7739
100
AcDbEntity
  8
0
100
AcDbCircle
 10
574.9999672747495
 20
841.4135297689801
 30
0.0
 40
10.0
  0
LINE
  5
2E24
330
7739
100
AcDbEntity
  8
0
100
AcDbLine
 10
574.9999672747495
 20
863.3493077005041
 30
0.0
 11
574.9999672747495
 21
819.4777518374563
 31
0.0
  0
LINE
  5
2E27
330
7739
100
AcDbEntity
  8
0
100
AcDbLine
 10
552.6778453463431
 20
841.4135297689801
 30
0.0
 11
596.9357452062736
 21
841.4135297689801
 31
0.0
  0
LINE
  5
2E28
330
7739
100
AcDbEntity
  8
0
100
AcDbLine
 10
574.9999672747495
 20
1169.477817871136
 30
0.0
 11
574.9999672747495
 21
1213.349373734184
 31
0.0
  0
CIRCLE
  5
2E29
330
7739
100
AcDbEntity
  8
0
100
AcDbCircle
 10
574.9999672747495
 20
1191.41359580266
 30
0.0
 40
10.0
  0
LINE
  5
2E2A
330
7739
100
AcDbEntity
  8
0
100
AcDbLine
 10
553.1642820871073
 20
1191.41359580266
 30
0.0
 11
596.9357452062736
 21
1191.41359580266
 31
0.0
  0
CIRCLE
  5
2E2E
330
7739
100
AcDbEntity
  8
0
100
AcDbCircle
 10
1174.999967274749
 20
841.4135957134417
 30
0.0
 40
10.0
  0
LINE
  5
2E2F
330
7739
100
AcDbEntity
  8
0
100
AcDbLine
 10
1174.999967274749
 20
863.3493736449656
 30
0.0
 11
1174.999967274749
 21
819.4778177819177
 31
0.0
  0
LINE
  5
2E30
330
7739
100
AcDbEntity
  8
0
100
AcDbLine
 10
1153.064189343225
 20
841.4135957134417
 30
0.0
 11
1196.935745206272
 21
841.4135957134417
 31
0.0
  0
LINE
  5
2E32
330
7739
100
AcDbEntity
  8
0
100
AcDbLine
 10
1174.999967274749
 20
1169.477751926675
 30
0.0
 11
1174.999967274749
 21
1213.349307789723
 31
0.0
  0
CIRCLE
  5
2E33
330
7739
100
AcDbEntity
  8
0
100
AcDbCircle
 10
1174.999967274749
 20
1191.413529858199
 30
0.0
 40
10.0
  0
LINE
  5
2E34
330
7739
100
AcDbEntity
  8
0
100
AcDbLine
 10
1153.064189343225
 20
1191.413529858199
 30
0.0
 11
1196.935745206272
 21
1191.413529858199
 31
0.0
  0
LINE
  5
327F
330
7739
100
AcDbEntity
  8
0
100
AcDbLine
 10
1332.999976297549
 20
2370.000037743569
 30
0.0
 11
417.0
 21
2369.999949101945
 31
0.0
  0
LINE
  5
3280
330
7739
100
AcDbEntity
  8
0
100
AcDbLine
 10
1332.999976297549
 20
2430.000037743558
 30
0.0
 11
417.0
 21
2429.999949101933
 31
0.0
  0
LINE
  5
3281
330
7739
100
AcDbEntity
  8
0
100
AcDbLine
 10
1332.999976297549
 20
2020.000037743569
 30
0.0
 11
417.0
 21
2019.999949101945
 31
0.0
  0
LINE
  5
3282
330
7739
100
AcDbEntity
  8
0
100
AcDbLine
 10
1332.999976297549
 20
2080.000037743558
 30
0.0
 11
417.0
 21
2079.999949101933
 31
0.0
  0
LINE
  5
3284
330
7739
100
AcDbEntity
  8
0
100
AcDbLine
 10
379.999955423524
 20
2087.000031827833
 30
0.0
 11
379.999955423524
 21
2363.000043659292
 31
0.0
  0
LINE
  5
3285
330
7739
100
AcDbEntity
  8
0
100
AcDbLine
 10
349.9999554235239
 20
2087.000031827833
 30
0.0
 11
349.9999554235239
 21
2363.000043659292
 31
0.0
  0
LINE
  5
3286
330
7739
100
AcDbEntity
  8
0
100
AcDbLine
 10
350.0
 20
2087.000031827836
 30
0.0
 11
417.0
 21
2087.000031827836
 31
0.0
  0
LINE
  5
3287
330
7739
100
AcDbEntity
  8
0
100
AcDbLine
 10
350.0
 20
2082.500031827835
 30
0.0
 11
417.0
 21
2082.500031827835
 31
0.0
  0
LINE
  5
3288
330
7739
100
AcDbEntity
  8
0
100
AcDbLine
 10
373.4999791759792
 20
2020.000075487127
 30
0.0
 11
417.0000000000008
 21
2020.00003774357
 31
0.0
  0
LINE
  5
3289
330
7739
100
AcDbEntity
  8
0
100
AcDbLine
 10
411.0258740186226
 20
2052.000033923225
 30
0.0
 11
352.9741259813782
 21
2052.000033923225
 31
0.0
  0
CIRCLE
  5
328B
330
7739
100
AcDbEntity
  8
0
100
AcDbCircle
 10
382.0
 20
2052.000033923225
 30
0.0
 40
21.0
  0
ARC
  5
328C
330
7739
100
AcDbEntity
  8
0
100
AcDbCircle
 10
374.0
 20
2044.000075487117
 30
0.0
 40
24.0
100
AcDbArc
 50
180.0
 51
269.9999502863144
  0
LINE
  5
328D
330
7739
100
AcDbEntity
  8
0
100
AcDbLine
 10
382.0
 20
2022.974159904603
 30
0.0
 11
382.0
 21
2081.025907941848
 31
0.0
  0
LINE
  5
328E
330
7739
100
AcDbEntity
  8
0
100
AcDbLine
 10
350.0
 20
2043.500075487118
 30
0.0
 11
350.0
 21
2087.000031827836
 31
0.0
  0
LINE
  5
328F
330
7739
100
AcDbEntity
  8
0
100
AcDbLine
 10
412.5
 20
2082.500031827835
 30
0.0
 11
412.5000000000008
 21
2020.00003774357
 31
0.0
  0
LINE
  5
3290
330
7739
100
AcDbEntity
  8
0
100
AcDbLine
 10
417.0
 20
2087.000031827836
 30
0.0
 11
417.0000000000008
 21
2020.00003774357
 31
0.0
  0
LINE
  5
3291
330
7739
100
AcDbEntity
  8
0
100
AcDbLine
 10
411.0258740186229
 20
2398.000041563901
 30
0.0
 11
352.9741259813784
 21
2398.000041563901
 31
0.0
  0
CIRCLE
  5
3292
330
7739
100
AcDbEntity
  8
0
100
AcDbCircle
 10
382.0000000000002
 20
2398.000041563901
 30
0.0
 40
21.0
  0
LINE
  5
3294
330
7739
100
AcDbEntity
  8
0
100
AcDbLine
 10
350.0000000000002
 20
2367.500043659291
 30
0.0
 11
417.0
 21
2367.500043659291
 31
0.0
  0
LINE
  5
3295
330
7739
100
AcDbEntity
  8
0
100
AcDbLine
 10
350.0000000000002
 20
2363.000043659292
 30
0.0
 11
417.0
 21
2363.000043659292
 31
0.0
  0
LINE
  5
3296
330
7739
100
AcDbEntity
  8
0
100
AcDbLine
 10
373.4999791759794
 20
2430.0
 30
0.0
 11
417.0000000000008
 21
2430.000037743556
 31
0.0
  0
ARC
  5
3297
330
7739
100
AcDbEntity
  8
0
100
AcDbCircle
 10
374.0000000000002
 20
2406.000000000009
 30
0.0
 40
24.0
100
AcDbArc
 50
90.00004971368547
 51
180.0
  0
LINE
  5
3298
330
7739
100
AcDbEntity
  8
0
100
AcDbLine
 10
350.0000000000002
 20
2406.500000000009
 30
0.0
 11
350.0000000000002
 21
2363.000043659292
 31
0.0
  0
LINE
  5
3299
330
7739
100
AcDbEntity
  8
0
100
AcDbLine
 10
382.0000000000002
 20
2427.025915582523
 30
0.0
 11
382.0000000000002
 21
2368.974167545279
 31
0.0
  0
LINE
  5
329A
330
7739
100
AcDbEntity
  8
0
100
AcDbLine
 10
412.5
 20
2367.500043659291
 30
0.0
 11
412.5000000000008
 21
2430.000037743556
 31
0.0
  0
LINE
  5
329B
330
7739
100
AcDbEntity
  8
0
100
AcDbLine
 10
417.0
 20
2363.000043659292
 30
0.0
 11
417.0000000000008
 21
2430.000037743556
 31
0.0
  0
LINE
  5
329D
330
7739
100
AcDbEntity
  8
0
100
AcDbLine
 10
658.368321377419
 20
2510.149529630139
 30
0.0
 11
990.1829975197307
 21
2510.149529630139
 31
0.0
  0
TEXT
  5
329E
330
7739
100
AcDbEntity
  8
0
100
AcDbText
 10
676.6164070266775
 20
2516.354993767116
 30
0.0
 40
25.0
  1
4-%%c16<機器取付穴>
 72
     2
 11
976.6164070266775
 21
2516.354993767116
 31
0.0
100
AcDbText
  0
LINE
  5
32A3
330
7739
100
AcDbEntity
  8
0
100
AcDbLine
 10
589.9999554235237
 20
2040.000109258615
 30
0.0
 11
559.999955423524
 21
2040.000112730219
 31
0.0
  0
LINE
  5
32A5
330
7739
100
AcDbEntity
  8
0
100
AcDbLine
 10
574.999955423524
 20
2055.000110994417
 30
0.0
 11
574.999955423524
 21
2025.000110994418
 31
0.0
  0
LINE
  5
32A7
330
7739
100
AcDbEntity
  8
0
100
AcDbLine
 10
587.7955252344452
 20
2425.371151604112
 30
0.0
 11
658.368321377419
 21
2510.149529630139
 31
0.0
  0
LINE
  5
32A8
330
7739
100
AcDbEntity
  8
0
100
AcDbLine
 10
589.9999554235237
 20
2409.999966228509
 30
0.0
 11
559.999955423524
 21
2409.999962756905
 31
0.0
  0
LINE
  5
32AB
330
7739
100
AcDbEntity
  8
0
100
AcDbLine
 10
574.999955423524
 20
2394.999964492707
 30
0.0
 11
574.999955423524
 21
2424.999964492708
 31
0.0
  0
LINE
  5
32AE
330
7739
100
AcDbEntity
  8
0
100
AcDbLine
 10
1189.999955423524
 20
2040.000109258615
 30
0.0
 11
1159.999955423524
 21
2040.000112730219
 31
0.0
  0
LINE
  5
32B0
330
7739
100
AcDbEntity
  8
0
100
AcDbLine
 10
1174.999955423524
 20
2055.000110994417
 30
0.0
 11
1174.999955423524
 21
2025.000110994418
 31
0.0
  0
LINE
  5
32B1
330
7739
100
AcDbEntity
  8
0
100
AcDbLine
 10
1189.999955423524
 20
2409.999966228509
 30
0.0
 11
1159.999955423524
 21
2409.999962756905
 31
0.0
  0
LINE
  5
32B3
330
7739
100
AcDbEntity
  8
0
100
AcDbLine
 10
1174.999955423524
 20
2394.999964492707
 30
0.0
 11
1174.999955423524
 21
2424.999964492708
 31
0.0
  0
LINE
  5
32B6
330
7739
100
AcDbEntity
  8
0
100
AcDbLine
 10
1399.999955423524
 20
2087.000031827833
 30
0.0
 11
1399.999955423524
 21
2384.299778962493
 31
0.0
  0
LINE
  5
32B7
330
7739
100
AcDbEntity
  8
0
100
AcDbLine
 10
1369.999955423524
 20
2087.000031827833
 30
0.0
 11
1369.999955423524
 21
2363.000043659292
 31
0.0
  0
LINE
  5
32B8
330
7739
100
AcDbEntity
  8
0
100
AcDbLine
 10
1399.999976297549
 20
2082.500031827835
 30
0.0
 11
1332.999976297549
 21
2082.500031827835
 31
0.0
  0
LINE
  5
32B9
330
7739
100
AcDbEntity
  8
0
100
AcDbLine
 10
1399.999976297549
 20
2087.000031827836
 30
0.0
 11
1332.999976297549
 21
2087.000031827836
 31
0.0
  0
LINE
  5
32BA
330
7739
100
AcDbEntity
  8
0
100
AcDbLine
 10
1376.49999712157
 20
2020.000075487127
 30
0.0
 11
1332.999976297549
 21
2020.00003774357
 31
0.0
  0
LINE
  5
32BC
330
7739
100
AcDbEntity
  8
0
100
AcDbLine
 10
1332.999976297549
 20
2087.000031827836
 30
0.0
 11
1332.999976297549
 21
2020.00003774357
 31
0.0
  0
ARC
  5
32BD
330
7739
100
AcDbEntity
  8
0
100
AcDbCircle
 10
1375.999976297549
 20
2044.000075487117
 30
0.0
 40
24.0
100
AcDbArc
 50
270.0000497136854
 51
0.0
  0
CIRCLE
  5
32BE
330
7739
100
AcDbEntity
  8
0
100
AcDbCircle
 10
1367.999976297549
 20
2052.000033923225
 30
0.0
 40
21.0
  0
LINE
  5
32BF
330
7739
100
AcDbEntity
  8
0
100
AcDbLine
 10
1338.974102278926
 20
2052.000033923225
 30
0.0
 11
1397.025850316171
 21
2052.000033923225
 31
0.0
  0
LINE
  5
32C0
330
7739
100
AcDbEntity
  8
0
100
AcDbLine
 10
1367.999976297549
 20
2022.974159904603
 30
0.0
 11
1367.999976297549
 21
2081.025907941848
 31
0.0
  0
LINE
  5
32C1
330
7739
100
AcDbEntity
  8
0
100
AcDbLine
 10
1337.499976297549
 20
2082.500031827835
 30
0.0
 11
1337.499976297549
 21
2020.00003774357
 31
0.0
  0
LINE
  5
32C4
330
7739
100
AcDbEntity
  8
0
100
AcDbLine
 10
1399.999976297549
 20
2043.500075487118
 30
0.0
 11
1399.999976297549
 21
2087.000031827836
 31
0.0
  0
LINE
  5
32C5
330
7739
100
AcDbEntity
  8
0
100
AcDbLine
 10
1399.999976297549
 20
2367.500043659291
 30
0.0
 11
1332.999976297549
 21
2367.500043659291
 31
0.0
  0
LINE
  5
32C6
330
7739
100
AcDbEntity
  8
0
100
AcDbLine
 10
1399.999976297549
 20
2363.000043659292
 30
0.0
 11
1332.999976297549
 21
2363.000043659292
 31
0.0
  0
LINE
  5
32C7
330
7739
100
AcDbEntity
  8
0
100
AcDbLine
 10
1376.49999712157
 20
2430.0
 30
0.0
 11
1332.999976297548
 21
2430.000037743556
 31
0.0
  0
LINE
  5
32C8
330
7739
100
AcDbEntity
  8
0
100
AcDbLine
 10
1332.999976297549
 20
2363.000043659292
 30
0.0
 11
1332.999976297548
 21
2430.000037743556
 31
0.0
  0
ARC
  5
32C9
330
7739
100
AcDbEntity
  8
0
100
AcDbCircle
 10
1375.999976297549
 20
2406.000000000009
 30
0.0
 40
24.0
100
AcDbArc
 50
0.0
 51
89.99995028631451
  0
LINE
  5
32CA
330
7739
100
AcDbEntity
  8
0
100
AcDbLine
 10
1338.974102278926
 20
2398.000041563901
 30
0.0
 11
1397.025850316171
 21
2398.000041563901
 31
0.0
  0
CIRCLE
  5
32CB
330
7739
100
AcDbEntity
  8
0
100
AcDbCircle
 10
1367.999976297549
 20
2398.000041563901
 30
0.0
 40
21.0
  0
LINE
  5
32CD
330
7739
100
AcDbEntity
  8
0
100
AcDbLine
 10
1337.499976297549
 20
2367.500043659291
 30
0.0
 11
1337.499976297548
 21
2430.000037743556
 31
0.0
  0
LINE
  5
32CE
330
7739
100
AcDbEntity
  8
0
100
AcDbLine
 10
1367.999976297549
 20
2427.025915582523
 30
0.0
 11
1367.999976297549
 21
2368.974167545279
 31
0.0
  0
LINE
  5
32CF
330
7739
100
AcDbEntity
  8
0
100
AcDbLine
 10
1399.999976297549
 20
2406.500000000009
 30
0.0
 11
1399.999976297549
 21
2363.000043659292
 31
0.0
  0
LINE
  5
354C
330
7739
100
AcDbEntity
  8
0
100
AcDbLine
 10
1644.290406619238
 20
2076.99997064724
 30
0.0
 11
1631.424337871919
 21
2076.999970647239
 31
0.0
  0
ARC
  5
354D
330
7739
100
AcDbEntity
  8
0
100
AcDbCircle
 10
1646.290406619238
 20
2026.999970647239
 30
0.0
 40
17.0
100
AcDbArc
 50
97.66225566075876
 51
172.3377443392412
  0
LINE
  5
354E
330
7739
100
AcDbEntity
  8
0
100
AcDbLine
 10
1644.290406619238
 20
2026.999970647239
 30
0.0
 11
1631.424337871919
 21
2026.999970647239
 31
0.0
  0
ARC
  5
354F
330
7739
100
AcDbEntity
  8
0
100
AcDbCircle
 10
1646.290406619238
 20
2076.99997064724
 30
0.0
 40
17.0
100
AcDbArc
 50
187.6622556607587
 51
262.3377443392413
  0
LINE
  5
3550
330
7739
100
AcDbEntity
  8
0
100
AcDbLine
 10
1619.590406619238
 20
2019.999970647239
 30
0.0
 11
1689.590406619238
 21
2019.999970647239
 31
0.0
  0
LINE
  5
3551
330
7739
100
AcDbEntity
  8
0
100
AcDbLine
 10
1619.590406619238
 20
2086.999970647239
 30
0.0
 11
1682.090406619239
 21
2086.999970647239
 31
0.0
  0
LINE
  5
3552
330
7739
100
AcDbEntity
  8
0
100
AcDbLine
 10
1619.590406619238
 20
2082.499970647239
 30
0.0
 11
1682.090406619239
 21
2082.499970647239
 31
0.0
  0
LINE
  5
3553
330
7739
100
AcDbEntity
  8
0
100
AcDbLine
 10
1644.290406619238
 20
2372.999988695323
 30
0.0
 11
1631.424337871919
 21
2372.999988695323
 31
0.0
  0
ARC
  5
3554
330
7739
100
AcDbEntity
  8
0
100
AcDbCircle
 10
1646.290406619238
 20
2422.999988695324
 30
0.0
 40
17.0
100
AcDbArc
 50
187.6622556607587
 51
262.3377443392413
  0
LINE
  5
3555
330
7739
100
AcDbEntity
  8
0
100
AcDbLine
 10
1644.290406619238
 20
2422.999988695324
 30
0.0
 11
1631.424337871919
 21
2422.999988695324
 31
0.0
  0
ARC
  5
3556
330
7739
100
AcDbEntity
  8
0
100
AcDbCircle
 10
1646.290406619238
 20
2372.999988695323
 30
0.0
 40
17.0
100
AcDbArc
 50
97.66225566075876
 51
172.3377443392412
  0
LINE
  5
3557
330
7739
100
AcDbEntity
  8
0
100
AcDbLine
 10
1619.590406619238
 20
2429.999988695324
 30
0.0
 11
1689.590406619238
 21
2429.999988695324
 31
0.0
  0
LINE
  5
3558
330
7739
100
AcDbEntity
  8
0
100
AcDbLine
 10
1619.590406619238
 20
2362.999988695323
 30
0.0
 11
1682.090406619239
 21
2362.999988695323
 31
0.0
  0
LINE
  5
3559
330
7739
100
AcDbEntity
  8
0
100
AcDbLine
 10
1619.590406619238
 20
2367.499988695323
 30
0.0
 11
1682.090406619239
 21
2367.499988695323
 31
0.0
  0
LINE
  5
355A
330
7739
100
AcDbEntity
  8
0
100
AcDbLine
 10
1619.590406619238
 20
2362.999988695323
 30
0.0
 11
1619.590406619238
 21
2218.015044730762
 31
0.0
  0
LINE
  5
355B
330
7739
100
AcDbEntity
  8
0
100
AcDbLine
 10
1619.590406619238
 20
2086.999970647239
 30
0.0
 11
1619.590406619238
 21
2231.984914611802
 31
0.0
  0
LINE
  5
355D
330
7739
100
AcDbEntity
  8
0
100
AcDbLine
 10
1619.590406619238
 20
2086.999970647239
 30
0.0
 11
1619.590406619238
 21
2019.999970647239
 31
0.0
  0
ARC
  5
355E
330
7739
100
AcDbEntity
  8
0
100
AcDbCircle
 10
1631.424337871919
 20
2028.99997064724
 30
0.0
 40
2.0
100
AcDbArc
 50
172.3377443392412
 51
270.0
  0
ARC
  5
355F
330
7739
100
AcDbEntity
  8
0
100
AcDbCircle
 10
1631.424337871919
 20
2074.999970647239
 30
0.0
 40
2.0
100
AcDbArc
 50
90.0
 51
187.6622556607587
  0
ARC
  5
3560
330
7739
100
AcDbEntity
  8
0
100
AcDbCircle
 10
1631.424337871919
 20
2374.999988695323
 30
0.0
 40
2.0
100
AcDbArc
 50
172.3377443392412
 51
270.0
  0
ARC
  5
3561
330
7739
100
AcDbEntity
  8
0
100
AcDbCircle
 10
1631.424337871919
 20
2420.999988695323
 30
0.0
 40
2.0
100
AcDbArc
 50
90.0
 51
187.6622556607587
  0
LINE
  5
3563
330
7739
100
AcDbEntity
  8
0
100
AcDbLine
 10
1619.590406619238
 20
2362.999988695323
 30
0.0
 11
1619.590406619238
 21
2429.999988695324
 31
0.0
  0
ARC
  5
3564
330
7739
100
AcDbEntity
  8
0
100
AcDbCircle
 10
1728.090406619238
 20
2371.499988695323
 30
0.0
 40
8.5
100
AcDbArc
 50
180.0
 51
270.0
  0
LINE
  5
3565
330
7739
100
AcDbEntity
  8
0
100
AcDbLine
 10
1757.590406619239
 20
2362.999988695323
 30
0.0
 11
1757.590406619239
 21
2218.015044730762
 31
0.0
  0
LINE
  5
3566
330
7739
100
AcDbEntity
  8
0
100
AcDbLine
 10
1728.590406619239
 20
2363.014707321084
 30
0.0
 11
1728.590406619239
 21
2218.015044730762
 31
0.0
  0
LINE
  5
3567
330
7739
100
AcDbEntity
  8
0
100
AcDbLine
 10
1649.590406619238
 20
2362.999988695323
 30
0.0
 11
1649.590406619238
 21
2231.984914611802
 31
0.0
  0
LINE
  5
3568
330
7739
100
AcDbEntity
  8
0
100
AcDbLine
 10
1757.590406619239
 20
2086.999970647239
 30
0.0
 11
1728.090406619238
 21
2086.999970647239
 31
0.0
  0
LINE
  5
3569
330
7739
100
AcDbEntity
  8
0
100
AcDbLine
 10
1757.590406619239
 20
2082.499970647239
 30
0.0
 11
1728.090406619238
 21
2082.499970647239
 31
0.0
  0
LINE
  5
356A
330
7739
100
AcDbEntity
  8
0
100
AcDbLine
 10
1735.229928619238
 20
2065.856317214951
 30
0.0
 11
1724.090406619238
 21
2065.856317214951
 31
0.0
  0
LINE
  5
356B
330
7739
100
AcDbEntity
  8
0
100
AcDbLine
 10
1735.229928619238
 20
2045.07171721495
 30
0.0
 11
1724.090406619238
 21
2045.07171721495
 31
0.0
  0
LINE
  5
356C
330
7739
100
AcDbEntity
  8
0
100
AcDbLine
 10
1735.229928619238
 20
2038.14352721495
 30
0.0
 11
1724.090406619238
 21
2038.14352721495
 31
0.0
  0
LINE
  5
356D
330
7739
100
AcDbEntity
  8
0
100
AcDbLine
 10
1735.229928619238
 20
2058.92813721495
 30
0.0
 11
1724.090406619238
 21
2058.92813721495
 31
0.0
  0
LINE
  5
356E
330
7739
100
AcDbEntity
  8
0
100
AcDbLine
 10
1754.590406619238
 20
2019.999970647239
 30
0.0
 11
1719.590406619239
 21
2019.999970647239
 31
0.0
  0
LINE
  5
356F
330
7739
100
AcDbEntity
  8
0
100
AcDbLine
 10
1662.930863316968
 20
2051.999970647239
 30
0.0
 11
1740.214237889757
 21
2051.999970647239
 31
0.0
  0
LINE
  5
3570
330
7739
100
AcDbEntity
  8
0
100
AcDbLine
 10
1728.590406619239
 20
2086.985252021478
 30
0.0
 11
1728.590406619239
 21
2231.984914611802
 31
0.0
  0
LINE
  5
3571
330
7739
100
AcDbEntity
  8
0
100
AcDbLine
 10
1649.590406619238
 20
2086.999970647239
 30
0.0
 11
1649.590406619238
 21
2231.984914611802
 31
0.0
  0
ARC
  5
3572
330
7739
100
AcDbEntity
  8
0
100
AcDbCircle
 10
1682.090406619239
 20
2079.499970647239
 30
0.0
 40
7.5
100
AcDbArc
 50
0.0
 51
90.0
  0
LINE
  5
3573
330
7739
100
AcDbEntity
  8
0
100
AcDbLine
 10
1646.290406619238
 20
2028.99997064724
 30
0.0
 11
1646.290406619238
 21
2041.866039394558
 31
0.0
  0
LINE
  5
3574
330
7739
100
AcDbEntity
  8
0
100
AcDbLine
 10
1680.090406619238
 20
2031.990643398351
 30
0.0
 11
1680.090406619238
 21
2051.999970647239
 31
0.0
  0
LINE
  5
3575
330
7739
100
AcDbEntity
  8
0
100
AcDbLine
 10
1676.890406619238
 20
2031.990643398351
 30
0.0
 11
1676.890406619239
 21
2051.990422436204
 31
0.0
  0
LINE
  5
3576
330
7739
100
AcDbEntity
  8
0
100
AcDbLine
 10
1685.090406619238
 20
2019.999970647239
 30
0.0
 11
1685.090406619239
 21
2051.999970647239
 31
0.0
  0
ARC
  5
3577
330
7739
100
AcDbEntity
  8
0
100
AcDbCircle
 10
1644.290406619238
 20
2028.99997064724
 30
0.0
 40
2.0
100
AcDbArc
 50
270.0
 51
0.0
  0
LINE
  5
3578
330
7739
100
AcDbEntity
  8
0
100
AcDbLine
 10
1680.090406619238
 20
2031.990643398351
 30
0.0
 11
1685.090406619238
 21
2031.991358554455
 31
0.0
  0
LINE
  5
3579
330
7739
100
AcDbEntity
  8
0
100
AcDbLine
 10
1676.890406619238
 20
2031.990643398351
 30
0.0
 11
1680.090406619238
 21
2031.990643398351
 31
0.0
  0
ARC
  5
357A
330
7739
100
AcDbEntity
  8
0
100
AcDbCircle
 10
1644.290406619238
 20
2074.99997064724
 30
0.0
 40
2.0
100
AcDbArc
 50
0.0
 51
90.0
  0
ARC
  5
357B
330
7739
100
AcDbEntity
  8
0
100
AcDbCircle
 10
1644.290406619238
 20
2062.133901899921
 30
0.0
 40
2.0
100
AcDbArc
 50
262.3377443392413
 51
0.0
  0
LINE
  5
357C
330
7739
100
AcDbEntity
  8
0
100
AcDbLine
 10
1646.290406619238
 20
2074.99997064724
 30
0.0
 11
1646.290406619238
 21
2062.133901899921
 31
0.0
  0
ARC
  5
357D
330
7739
100
AcDbEntity
  8
0
100
AcDbCircle
 10
1644.290406619238
 20
2041.866039394558
 30
0.0
 40
2.0
100
AcDbArc
 50
0.0
 51
97.66225566075876
  0
LINE
  5
357E
330
7739
100
AcDbEntity
  8
0
100
AcDbLine
 10
1680.090406619238
 20
2071.990644478074
 30
0.0
 11
1685.090406619238
 21
2071.991359634179
 31
0.0
  0
LINE
  5
357F
330
7739
100
AcDbEntity
  8
0
100
AcDbLine
 10
1676.890406619238
 20
2071.990644478074
 30
0.0
 11
1680.090406619238
 21
2071.990644478074
 31
0.0
  0
LINE
  5
3580
330
7739
100
AcDbEntity
  8
0
100
AcDbLine
 10
1670.390406619238
 20
2065.856377107791
 30
0.0
 11
1676.890406619238
 21
2065.856377107791
 31
0.0
  0
ARC
  5
3581
330
7739
100
AcDbEntity
  8
0
100
AcDbCircle
 10
1682.090406619239
 20
2079.499970647239
 30
0.0
 40
3.0
100
AcDbArc
 50
0.0
 51
90.0
  0
ARC
  5
3582
330
7739
100
AcDbEntity
  8
0
100
AcDbCircle
 10
1675.497549476381
 20
2051.999970647239
 30
0.0
 40
8.607142857142846
100
AcDbArc
 50
126.3958791981002
 51
233.6041208018997
  0
LINE
  5
3583
330
7739
100
AcDbEntity
  8
0
100
AcDbLine
 10
1676.890406619238
 20
2045.071767416963
 30
0.0
 11
1670.390406619238
 21
2045.071767416963
 31
0.0
  0
LINE
  5
3584
330
7739
100
AcDbEntity
  8
0
100
AcDbLine
 10
1676.890406619238
 20
2038.143564186688
 30
0.0
 11
1670.390406619238
 21
2038.143564186688
 31
0.0
  0
ARC
  5
3585
330
7739
100
AcDbEntity
  8
0
100
AcDbCircle
 10
1670.354692333523
 20
2041.607665801826
 30
0.0
 40
3.464285714285711
100
AcDbArc
 50
89.40931139718381
 51
270.5906886028162
  0
LINE
  5
3586
330
7739
100
AcDbEntity
  8
0
100
AcDbLine
 10
1676.890406619238
 20
2058.928173877514
 30
0.0
 11
1670.390406619238
 21
2058.928173877514
 31
0.0
  0
LINE
  5
3587
330
7739
100
AcDbEntity
  8
0
100
AcDbLine
 10
1666.890406619238
 20
2041.607665801826
 30
0.0
 11
1666.890406619238
 21
2062.392275492652
 31
0.0
  0
LINE
  5
3588
330
7739
100
AcDbEntity
  8
0
100
AcDbLine
 10
1685.090406619238
 20
2051.999970647239
 30
0.0
 11
1685.090406619239
 21
2079.499970647239
 31
0.0
  0
LINE
  5
3589
330
7739
100
AcDbEntity
  8
0
100
AcDbLine
 10
1680.090406619238
 20
2051.999970647239
 30
0.0
 11
1680.090406619238
 21
2071.990644478074
 31
0.0
  0
LINE
  5
358A
330
7739
100
AcDbEntity
  8
0
100
AcDbLine
 10
1676.890406619238
 20
2051.990422436204
 30
0.0
 11
1676.890406619238
 21
2071.990644478074
 31
0.0
  0
ARC
  5
358B
330
7739
100
AcDbEntity
  8
0
100
AcDbCircle
 10
1670.354692333523
 20
2062.392275492652
 30
0.0
 40
3.464285714285711
100
AcDbArc
 50
89.40931139718381
 51
270.5906886028162
  0
LINE
  5
358C
330
7739
100
AcDbEntity
  8
0
100
AcDbLine
 10
1700.590406619238
 20
2031.999970647239
 30
0.0
 11
1700.590406619238
 21
2051.999970647239
 31
0.0
  0
LINE
  5
358D
330
7739
100
AcDbEntity
  8
0
100
AcDbLine
 10
1693.090406619238
 20
2030.499970647239
 30
0.0
 11
1693.090406619239
 21
2051.999970647239
 31
0.0
  0
LINE
  5
358E
330
7739
100
AcDbEntity
  8
0
100
AcDbLine
 10
1689.590406619238
 20
2019.999970647239
 30
0.0
 11
1689.590406619239
 21
2051.999970647239
 31
0.0
  0
LINE
  5
358F
330
7739
100
AcDbEntity
  8
0
100
AcDbLine
 10
1724.090406619239
 20
2019.999970647239
 30
0.0
 11
1724.090406619238
 21
2078.499970647239
 31
0.0
  0
LINE
  5
3590
330
7739
100
AcDbEntity
  8
0
100
AcDbLine
 10
1719.590406619239
 20
2019.999970647239
 30
0.0
 11
1719.590406619238
 21
2078.499970647239
 31
0.0
  0
LINE
  5
3591
330
7739
100
AcDbEntity
  8
0
100
AcDbLine
 10
1700.590406619238
 20
2030.499970647239
 30
0.0
 11
1700.590406619238
 21
2031.999970647239
 31
0.0
  0
LINE
  5
3592
330
7739
100
AcDbEntity
  8
0
100
AcDbLine
 10
1693.090406619238
 20
2030.499970647239
 30
0.0
 11
1700.590406619238
 21
2030.499970647239
 31
0.0
  0
LINE
  5
3593
330
7739
100
AcDbEntity
  8
0
100
AcDbLine
 10
1700.590406619239
 20
2059.973426608618
 30
0.0
 11
1706.390436619238
 21
2059.975063171773
 31
0.0
  0
LINE
  5
3594
330
7739
100
AcDbEntity
  8
0
100
AcDbLine
 10
1700.590406619238
 20
2043.973426032179
 30
0.0
 11
1706.390436619238
 21
2043.975062595335
 31
0.0
  0
LINE
  5
3595
330
7739
100
AcDbEntity
  8
0
100
AcDbLine
 10
1693.090406619238
 20
2063.799970647239
 30
0.0
 11
1689.590406619238
 21
2063.799970647239
 31
0.0
  0
LINE
  5
3596
330
7739
100
AcDbEntity
  8
0
100
AcDbLine
 10
1693.090406619238
 20
2073.499970647239
 30
0.0
 11
1700.590406619238
 21
2073.499970647239
 31
0.0
  0
LINE
  5
3597
330
7739
100
AcDbEntity
  8
0
100
AcDbLine
 10
1700.590406619238
 20
2071.999970647238
 30
0.0
 11
1700.590406619238
 21
2073.499970647239
 31
0.0
  0
LINE
  5
3598
330
7739
100
AcDbEntity
  8
0
100
AcDbLine
 10
1693.090406619238
 20
2040.19997064724
 30
0.0
 11
1689.590406619238
 21
2040.199970647239
 31
0.0
  0
LINE
  5
3599
330
7739
100
AcDbEntity
  8
0
100
AcDbLine
 10
1700.590406619238
 20
2051.999970647239
 30
0.0
 11
1700.590406619238
 21
2071.999970647238
 31
0.0
  0
LINE
  5
359A
330
7739
100
AcDbEntity
  8
0
100
AcDbLine
 10
1693.090406619238
 20
2051.999970647239
 30
0.0
 11
1693.090406619238
 21
2073.499970647239
 31
0.0
  0
LINE
  5
359B
330
7739
100
AcDbEntity
  8
0
100
AcDbLine
 10
1689.590406619238
 20
2051.999970647239
 30
0.0
 11
1689.590406619239
 21
2079.499970647239
 31
0.0
  0
ARC
  5
359C
330
7739
100
AcDbEntity
  8
0
100
AcDbCircle
 10
1728.090406619238
 20
2078.499970647239
 30
0.0
 40
8.5
100
AcDbArc
 50
90.0
 51
180.0
  0
LINE
  5
359D
330
7739
100
AcDbEntity
  8
0
100
AcDbLine
 10
1719.590406619238
 20
2066.999970647239
 30
0.0
 11
1716.390406619238
 21
2066.999970647239
 31
0.0
  0
LINE
  5
359E
330
7739
100
AcDbEntity
  8
0
100
AcDbLine
 10
1707.750897619238
 20
2065.856350647237
 30
0.0
 11
1715.029946619238
 21
2065.856350647237
 31
0.0
  0
ARC
  5
359F
330
7739
100
AcDbEntity
  8
0
100
AcDbCircle
 10
1728.090406619238
 20
2078.499970647239
 30
0.0
 40
4.0
100
AcDbArc
 50
90.0
 51
180.0
  0
LINE
  5
35A0
330
7739
100
AcDbEntity
  8
0
100
AcDbLine
 10
1719.590406619238
 20
2060.499970647239
 30
0.0
 11
1724.090406619238
 21
2060.499970647239
 31
0.0
  0
ARC
  5
35A1
330
7739
100
AcDbEntity
  8
0
100
AcDbCircle
 10
1724.711616619238
 20
2051.999970647239
 30
0.0
 40
18.321183
100
AcDbArc
 50
157.7807100000207
 51
202.2193300000018
  0
ARC
  5
35A2
330
7739
100
AcDbEntity
  8
0
100
AcDbCircle
 10
1698.069233619239
 20
2051.999970647239
 30
0.0
 40
18.321183
100
AcDbArc
 50
337.7806799999991
 51
22.21929999998009
  0
LINE
  5
35A3
330
7739
100
AcDbEntity
  8
0
100
AcDbLine
 10
1719.590406619238
 20
2043.499970647239
 30
0.0
 11
1724.090406619238
 21
2043.499970647239
 31
0.0
  0
LINE
  5
35A4
330
7739
100
AcDbEntity
  8
0
100
AcDbLine
 10
1719.590406619238
 20
2036.999970647238
 30
0.0
 11
1716.390406619238
 21
2036.999970647238
 31
0.0
  0
ARC
  5
35A5
330
7739
100
AcDbEntity
  8
0
100
AcDbCircle
 10
1711.299957619238
 20
2041.607665647239
 30
0.0
 40
5.090450299999996
100
AcDbArc
 50
317.1166899999783
 51
42.8833619999752
  0
ARC
  5
35A6
330
7739
100
AcDbEntity
  8
0
100
AcDbCircle
 10
1711.480885619238
 20
2041.607665647239
 30
0.0
 40
5.090450299999996
100
AcDbArc
 50
137.1166399999876
 51
222.8833200000199
  0
LINE
  5
35A7
330
7739
100
AcDbEntity
  8
0
100
AcDbLine
 10
1707.750897619238
 20
2045.071761647239
 30
0.0
 11
1715.029946619238
 21
2045.071761647239
 31
0.0
  0
LINE
  5
35A8
330
7739
100
AcDbEntity
  8
0
100
AcDbLine
 10
1707.750903619239
 20
2038.143576647239
 30
0.0
 11
1715.029939619238
 21
2038.143576647239
 31
0.0
  0
LINE
  5
35A9
330
7739
100
AcDbEntity
  8
0
100
AcDbLine
 10
1707.750897619238
 20
2058.92816064724
 30
0.0
 11
1715.029946619238
 21
2058.92816064724
 31
0.0
  0
LINE
  5
35AA
330
7739
100
AcDbEntity
  8
0
100
AcDbLine
 10
1706.390436619238
 20
2062.392270647238
 30
0.0
 11
1706.390436619238
 21
2041.607665647239
 31
0.0
  0
LINE
  5
35AB
330
7739
100
AcDbEntity
  8
0
100
AcDbLine
 10
1716.390406619238
 20
2036.999970647238
 30
0.0
 11
1716.390406619238
 21
2066.999970647239
 31
0.0
  0
ARC
  5
35AC
330
7739
100
AcDbEntity
  8
0
100
AcDbCircle
 10
1711.299957619238
 20
2062.392270647238
 30
0.0
 40
5.090450299999996
100
AcDbArc
 50
317.1166399999876
 51
42.88331699997889
  0
ARC
  5
35AD
330
7739
100
AcDbEntity
  8
0
100
AcDbCircle
 10
1711.480885619238
 20
2062.392270647238
 30
0.0
 40
5.090450299999996
100
AcDbArc
 50
137.1166899999784
 51
222.8833700000012
  0
LINE
  5
35AE
330
7739
100
AcDbEntity
  8
0
100
AcDbLine
 10
1757.590406619239
 20
2086.999970647239
 30
0.0
 11
1757.590406619239
 21
2231.984914611802
 31
0.0
  0
LINE
  5
35AF
330
7739
100
AcDbEntity
  8
0
100
AcDbLine
 10
1742.590406619238
 20
2033.99997064724
 30
0.0
 11
1742.590406619238
 21
2064.99997064724
 31
0.0
  0
LINE
  5
35B0
330
7739
100
AcDbEntity
  8
0
100
AcDbLine
 10
1757.590406619239
 20
2086.999970647239
 30
0.0
 11
1757.590406619239
 21
2026.29997064724
 31
0.0
  0
LINE
  5
35B1
330
7739
100
AcDbEntity
  8
0
100
AcDbLine
 10
1756.590406619238
 20
2026.999970647239
 30
0.0
 11
1749.590406619238
 21
2026.999970647239
 31
0.0
  0
ARC
  5
35B2
330
7739
100
AcDbEntity
  8
0
100
AcDbCircle
 10
1754.590406619238
 20
2022.999970647239
 30
0.0
 40
3.0
100
AcDbArc
 50
270.0
 51
0.0
  0
ARC
  5
35B3
330
7739
100
AcDbEntity
  8
0
100
AcDbCircle
 10
1749.590406619238
 20
2033.99997064724
 30
0.0
 40
7.0
100
AcDbArc
 50
180.0
 51
270.0
  0
ARC
  5
35B4
330
7739
100
AcDbEntity
  8
0
100
AcDbCircle
 10
1756.590406619238
 20
2025.99997064724
 30
0.0
 40
1.0
100
AcDbArc
 50
0.0
 51
90.0
  0
LINE
  5
35B5
330
7739
100
AcDbEntity
  8
0
100
AcDbLine
 10
1757.590406619239
 20
2025.99997064724
 30
0.0
 11
1757.590406619239
 21
2022.999970647239
 31
0.0
  0
LINE
  5
35B6
330
7739
100
AcDbEntity
  8
0
100
AcDbLine
 10
1756.590406619238
 20
2071.99997064724
 30
0.0
 11
1749.590406619238
 21
2071.99997064724
 31
0.0
  0
ARC
  5
35B7
330
7739
100
AcDbEntity
  8
0
100
AcDbCircle
 10
1749.590406619238
 20
2064.99997064724
 30
0.0
 40
7.0
100
AcDbArc
 50
90.0
 51
180.0
  0
ARC
  5
35B8
330
7739
100
AcDbEntity
  8
0
100
AcDbCircle
 10
1718.269226619239
 20
2051.99992721495
 30
0.0
 40
18.321183
100
AcDbArc
 50
337.7807100000207
 51
22.21933000000174
  0
ARC
  5
35B9
330
7739
100
AcDbEntity
  8
0
100
AcDbCircle
 10
1731.499940619238
 20
2041.60761721495
 30
0.0
 40
5.090450299999996
100
AcDbArc
 50
317.1166899999783
 51
42.88337000000121
  0
LINE
  5
35BA
330
7739
100
AcDbEntity
  8
0
100
AcDbLine
 10
1736.590389619238
 20
2041.60761721495
 30
0.0
 11
1736.590389619238
 21
2062.39222721495
 31
0.0
  0
ARC
  5
35BB
330
7739
100
AcDbEntity
  8
0
100
AcDbCircle
 10
1731.499940619238
 20
2062.39222721495
 30
0.0
 40
5.090450299999996
100
AcDbArc
 50
317.1166399999876
 51
42.88332000001999
  0
ARC
  5
35BC
330
7739
100
AcDbEntity
  8
0
100
AcDbCircle
 10
1756.590406619238
 20
2072.99997064724
 30
0.0
 40
1.0
100
AcDbArc
 50
270.0
 51
0.0
  0
LINE
  5
35BD
330
7739
100
AcDbEntity
  8
0
100
AcDbLine
 10
1757.590406619239
 20
2362.999988695323
 30
0.0
 11
1728.090406619238
 21
2362.999988695323
 31
0.0
  0
LINE
  5
35BE
330
7739
100
AcDbEntity
  8
0
100
AcDbLine
 10
1757.590406619239
 20
2367.499988695323
 30
0.0
 11
1728.090406619238
 21
2367.499988695323
 31
0.0
  0
LINE
  5
35BF
330
7739
100
AcDbEntity
  8
0
100
AcDbLine
 10
1735.229928619238
 20
2384.143642127613
 30
0.0
 11
1724.090406619238
 21
2384.143642127613
 31
0.0
  0
LINE
  5
35C0
330
7739
100
AcDbEntity
  8
0
100
AcDbLine
 10
1735.229928619238
 20
2404.928242127613
 30
0.0
 11
1724.090406619238
 21
2404.928242127613
 31
0.0
  0
LINE
  5
35C1
330
7739
100
AcDbEntity
  8
0
100
AcDbLine
 10
1735.229928619238
 20
2411.856432127613
 30
0.0
 11
1724.090406619238
 21
2411.856432127613
 31
0.0
  0
LINE
  5
35C2
330
7739
100
AcDbEntity
  8
0
100
AcDbLine
 10
1735.229928619238
 20
2391.071822127613
 30
0.0
 11
1724.090406619238
 21
2391.071822127613
 31
0.0
  0
LINE
  5
35C3
330
7739
100
AcDbEntity
  8
0
100
AcDbLine
 10
1754.590406619238
 20
2429.999988695324
 30
0.0
 11
1719.590406619239
 21
2429.999988695324
 31
0.0
  0
LINE
  5
35C4
330
7739
100
AcDbEntity
  8
0
100
AcDbLine
 10
1662.930863316968
 20
2397.999988695324
 30
0.0
 11
1740.214237889757
 21
2397.999988695324
 31
0.0
  0
ARC
  5
35C5
330
7739
100
AcDbEntity
  8
0
100
AcDbCircle
 10
1682.090406619239
 20
2370.499988695324
 30
0.0
 40
7.5
100
AcDbArc
 50
270.0
 51
0.0
  0
ARC
  5
35C6
330
7739
100
AcDbEntity
  8
0
100
AcDbCircle
 10
1644.290406619238
 20
2374.999988695323
 30
0.0
 40
2.0
100
AcDbArc
 50
270.0
 51
0.0
  0
ARC
  5
35C7
330
7739
100
AcDbEntity
  8
0
100
AcDbCircle
 10
1644.290406619238
 20
2387.866057442643
 30
0.0
 40
2.0
100
AcDbArc
 50
0.0
 51
97.66225566075876
  0
LINE
  5
35C8
330
7739
100
AcDbEntity
  8
0
100
AcDbLine
 10
1646.290406619238
 20
2374.999988695323
 30
0.0
 11
1646.290406619238
 21
2387.866057442643
 31
0.0
  0
LINE
  5
35C9
330
7739
100
AcDbEntity
  8
0
100
AcDbLine
 10
1646.290406619238
 20
2420.999988695323
 30
0.0
 11
1646.290406619238
 21
2408.133919948005
 31
0.0
  0
ARC
  5
35CA
330
7739
100
AcDbEntity
  8
0
100
AcDbCircle
 10
1644.290406619238
 20
2408.133919948005
 30
0.0
 40
2.0
100
AcDbArc
 50
262.3377443392413
 51
0.0
  0
ARC
  5
35CB
330
7739
100
AcDbEntity
  8
0
100
AcDbCircle
 10
1644.290406619238
 20
2420.999988695323
 30
0.0
 40
2.0
100
AcDbArc
 50
0.0
 51
90.0
  0
LINE
  5
35CC
330
7739
100
AcDbEntity
  8
0
100
AcDbLine
 10
1680.090406619238
 20
2378.009314864488
 30
0.0
 11
1685.090406619238
 21
2378.008599708383
 31
0.0
  0
LINE
  5
35CD
330
7739
100
AcDbEntity
  8
0
100
AcDbLine
 10
1676.890406619238
 20
2378.009314864488
 30
0.0
 11
1680.090406619238
 21
2378.009314864488
 31
0.0
  0
LINE
  5
35CE
330
7739
100
AcDbEntity
  8
0
100
AcDbLine
 10
1670.390406619238
 20
2384.143582234773
 30
0.0
 11
1676.890406619238
 21
2384.143582234773
 31
0.0
  0
ARC
  5
35CF
330
7739
100
AcDbEntity
  8
0
100
AcDbCircle
 10
1682.090406619239
 20
2370.499988695324
 30
0.0
 40
3.0
100
AcDbArc
 50
270.0
 51
0.0
  0
LINE
  5
35D0
330
7739
100
AcDbEntity
  8
0
100
AcDbLine
 10
1680.090406619238
 20
2418.009315944213
 30
0.0
 11
1680.090406619238
 21
2397.999988695324
 31
0.0
  0
ARC
  5
35D1
330
7739
100
AcDbEntity
  8
0
100
AcDbCircle
 10
1675.497549476381
 20
2397.999988695324
 30
0.0
 40
8.607142857142846
100
AcDbArc
 50
126.3958791981002
 51
233.6041208018997
  0
LINE
  5
35D2
330
7739
100
AcDbEntity
  8
0
100
AcDbLine
 10
1676.890406619238
 20
2418.009315944213
 30
0.0
 11
1676.890406619239
 21
2398.009536906361
 31
0.0
  0
LINE
  5
35D3
330
7739
100
AcDbEntity
  8
0
100
AcDbLine
 10
1680.090406619238
 20
2418.009315944213
 30
0.0
 11
1685.090406619238
 21
2418.008600788108
 31
0.0
  0
LINE
  5
35D4
330
7739
100
AcDbEntity
  8
0
100
AcDbLine
 10
1676.890406619238
 20
2404.9281919256
 30
0.0
 11
1670.390406619238
 21
2404.9281919256
 31
0.0
  0
LINE
  5
35D5
330
7739
100
AcDbEntity
  8
0
100
AcDbLine
 10
1676.890406619238
 20
2411.856395155876
 30
0.0
 11
1670.390406619238
 21
2411.856395155876
 31
0.0
  0
ARC
  5
35D6
330
7739
100
AcDbEntity
  8
0
100
AcDbCircle
 10
1670.354692333523
 20
2408.392293540738
 30
0.0
 40
3.464285714285711
100
AcDbArc
 50
89.40931139718381
 51
270.5906886028162
  0
LINE
  5
35D7
330
7739
100
AcDbEntity
  8
0
100
AcDbLine
 10
1676.890406619238
 20
2418.009315944213
 30
0.0
 11
1680.090406619238
 21
2418.009315944213
 31
0.0
  0
LINE
  5
35D8
330
7739
100
AcDbEntity
  8
0
100
AcDbLine
 10
1676.890406619238
 20
2391.071785465049
 30
0.0
 11
1670.390406619238
 21
2391.071785465049
 31
0.0
  0
LINE
  5
35D9
330
7739
100
AcDbEntity
  8
0
100
AcDbLine
 10
1685.090406619238
 20
2429.999988695324
 30
0.0
 11
1685.090406619239
 21
2397.999988695324
 31
0.0
  0
LINE
  5
35DA
330
7739
100
AcDbEntity
  8
0
100
AcDbLine
 10
1666.890406619238
 20
2408.392293540738
 30
0.0
 11
1666.890406619238
 21
2387.60768384991
 31
0.0
  0
LINE
  5
35DB
330
7739
100
AcDbEntity
  8
0
100
AcDbLine
 10
1685.090406619238
 20
2397.999988695324
 30
0.0
 11
1685.090406619239
 21
2370.499988695324
 31
0.0
  0
LINE
  5
35DC
330
7739
100
AcDbEntity
  8
0
100
AcDbLine
 10
1680.090406619238
 20
2397.999988695324
 30
0.0
 11
1680.090406619238
 21
2378.009314864488
 31
0.0
  0
LINE
  5
35DD
330
7739
100
AcDbEntity
  8
0
100
AcDbLine
 10
1676.890406619238
 20
2398.009536906361
 30
0.0
 11
1676.890406619238
 21
2378.009314864488
 31
0.0
  0
ARC
  5
35DE
330
7739
100
AcDbEntity
  8
0
100
AcDbCircle
 10
1670.354692333523
 20
2387.60768384991
 30
0.0
 40
3.464285714285711
100
AcDbArc
 50
89.40931139718381
 51
270.5906886028162
  0
LINE
  5
35DF
330
7739
100
AcDbEntity
  8
0
100
AcDbLine
 10
1700.590406619239
 20
2390.026532733947
 30
0.0
 11
1706.390436619238
 21
2390.024896170789
 31
0.0
  0
LINE
  5
35E0
330
7739
100
AcDbEntity
  8
0
100
AcDbLine
 10
1700.590406619238
 20
2406.026533310384
 30
0.0
 11
1706.390436619238
 21
2406.024896747228
 31
0.0
  0
LINE
  5
35E1
330
7739
100
AcDbEntity
  8
0
100
AcDbLine
 10
1693.090406619238
 20
2386.199988695324
 30
0.0
 11
1689.590406619238
 21
2386.199988695324
 31
0.0
  0
LINE
  5
35E2
330
7739
100
AcDbEntity
  8
0
100
AcDbLine
 10
1693.090406619238
 20
2376.499988695324
 30
0.0
 11
1700.590406619238
 21
2376.499988695324
 31
0.0
  0
LINE
  5
35E3
330
7739
100
AcDbEntity
  8
0
100
AcDbLine
 10
1700.590406619238
 20
2377.999988695324
 30
0.0
 11
1700.590406619238
 21
2376.499988695324
 31
0.0
  0
LINE
  5
35E4
330
7739
100
AcDbEntity
  8
0
100
AcDbLine
 10
1693.090406619238
 20
2409.799988695323
 30
0.0
 11
1689.590406619238
 21
2409.799988695324
 31
0.0
  0
LINE
  5
35E5
330
7739
100
AcDbEntity
  8
0
100
AcDbLine
 10
1700.590406619238
 20
2417.999988695325
 30
0.0
 11
1700.590406619238
 21
2397.999988695324
 31
0.0
  0
LINE
  5
35E6
330
7739
100
AcDbEntity
  8
0
100
AcDbLine
 10
1693.090406619238
 20
2419.499988695324
 30
0.0
 11
1693.090406619239
 21
2397.999988695324
 31
0.0
  0
LINE
  5
35E7
330
7739
100
AcDbEntity
  8
0
100
AcDbLine
 10
1700.590406619238
 20
2419.499988695324
 30
0.0
 11
1700.590406619238
 21
2417.999988695325
 31
0.0
  0
LINE
  5
35E8
330
7739
100
AcDbEntity
  8
0
100
AcDbLine
 10
1693.090406619238
 20
2419.499988695324
 30
0.0
 11
1700.590406619238
 21
2419.499988695324
 31
0.0
  0
LINE
  5
35E9
330
7739
100
AcDbEntity
  8
0
100
AcDbLine
 10
1689.590406619238
 20
2429.999988695324
 30
0.0
 11
1689.590406619239
 21
2397.999988695324
 31
0.0
  0
LINE
  5
35EA
330
7739
100
AcDbEntity
  8
0
100
AcDbLine
 10
1700.590406619238
 20
2397.999988695324
 30
0.0
 11
1700.590406619238
 21
2377.999988695324
 31
0.0
  0
LINE
  5
35EB
330
7739
100
AcDbEntity
  8
0
100
AcDbLine
 10
1693.090406619238
 20
2397.999988695324
 30
0.0
 11
1693.090406619238
 21
2376.499988695324
 31
0.0
  0
LINE
  5
35EC
330
7739
100
AcDbEntity
  8
0
100
AcDbLine
 10
1689.590406619238
 20
2397.999988695324
 30
0.0
 11
1689.590406619239
 21
2370.499988695324
 31
0.0
  0
LINE
  5
35ED
330
7739
100
AcDbEntity
  8
0
100
AcDbLine
 10
1719.590406619238
 20
2382.999988695324
 30
0.0
 11
1716.390406619238
 21
2382.999988695324
 31
0.0
  0
LINE
  5
35EE
330
7739
100
AcDbEntity
  8
0
100
AcDbLine
 10
1707.750897619238
 20
2384.143608695325
 30
0.0
 11
1715.029946619238
 21
2384.143608695325
 31
0.0
  0
ARC
  5
35EF
330
7739
100
AcDbEntity
  8
0
100
AcDbCircle
 10
1728.090406619238
 20
2371.499988695324
 30
0.0
 40
4.0
100
AcDbArc
 50
180.0
 51
270.0
  0
LINE
  5
35F0
330
7739
100
AcDbEntity
  8
0
100
AcDbLine
 10
1719.590406619238
 20
2389.499988695324
 30
0.0
 11
1724.090406619238
 21
2389.499988695324
 31
0.0
  0
ARC
  5
35F1
330
7739
100
AcDbEntity
  8
0
100
AcDbCircle
 10
1724.711616619238
 20
2397.999988695324
 30
0.0
 40
18.321183
100
AcDbArc
 50
157.7806699999982
 51
202.2192899999793
  0
ARC
  5
35F2
330
7739
100
AcDbEntity
  8
0
100
AcDbCircle
 10
1698.069233619239
 20
2397.999988695324
 30
0.0
 40
18.321183
100
AcDbArc
 50
337.78070000002
 51
22.21932000000092
  0
LINE
  5
35F3
330
7739
100
AcDbEntity
  8
0
100
AcDbLine
 10
1719.590406619238
 20
2406.499988695324
 30
0.0
 11
1724.090406619238
 21
2406.499988695324
 31
0.0
  0
LINE
  5
35F4
330
7739
100
AcDbEntity
  8
0
100
AcDbLine
 10
1719.590406619238
 20
2412.999988695324
 30
0.0
 11
1716.390406619238
 21
2412.999988695324
 31
0.0
  0
ARC
  5
35F5
330
7739
100
AcDbEntity
  8
0
100
AcDbCircle
 10
1711.299957619238
 20
2408.392293695324
 30
0.0
 40
5.090450299999996
100
AcDbArc
 50
317.1166380000152
 51
42.88331000001202
  0
ARC
  5
35F6
330
7739
100
AcDbEntity
  8
0
100
AcDbCircle
 10
1711.480885619238
 20
2408.392293695324
 30
0.0
 40
5.090450299999996
100
AcDbArc
 50
137.11667999998
 51
222.8833600000124
  0
LINE
  5
35F7
330
7739
100
AcDbEntity
  8
0
100
AcDbLine
 10
1707.750897619238
 20
2404.928197695324
 30
0.0
 11
1715.029946619238
 21
2404.928197695324
 31
0.0
  0
LINE
  5
35F8
330
7739
100
AcDbEntity
  8
0
100
AcDbLine
 10
1707.750903619239
 20
2411.856382695324
 30
0.0
 11
1715.029939619238
 21
2411.856382695324
 31
0.0
  0
LINE
  5
35F9
330
7739
100
AcDbEntity
  8
0
100
AcDbLine
 10
1707.750897619238
 20
2391.071798695324
 30
0.0
 11
1715.029946619238
 21
2391.071798695324
 31
0.0
  0
LINE
  5
35FA
330
7739
100
AcDbEntity
  8
0
100
AcDbLine
 10
1706.390436619238
 20
2387.607688695324
 30
0.0
 11
1706.390436619238
 21
2408.392293695324
 31
0.0
  0
LINE
  5
35FB
330
7739
100
AcDbEntity
  8
0
100
AcDbLine
 10
1724.090406619239
 20
2429.999988695324
 30
0.0
 11
1724.090406619238
 21
2371.499988695323
 31
0.0
  0
LINE
  5
35FC
330
7739
100
AcDbEntity
  8
0
100
AcDbLine
 10
1719.590406619239
 20
2429.999988695324
 30
0.0
 11
1719.590406619238
 21
2371.499988695324
 31
0.0
  0
LINE
  5
35FD
330
7739
100
AcDbEntity
  8
0
100
AcDbLine
 10
1716.390406619238
 20
2412.999988695324
 30
0.0
 11
1716.390406619238
 21
2382.999988695324
 31
0.0
  0
ARC
  5
35FE
330
7739
100
AcDbEntity
  8
0
100
AcDbCircle
 10
1711.299957619238
 20
2387.607688695324
 30
0.0
 40
5.090450299999996
100
AcDbArc
 50
317.1166830000116
 51
42.88336000001232
  0
ARC
  5
35FF
330
7739
100
AcDbEntity
  8
0
100
AcDbCircle
 10
1711.480885619238
 20
2387.607688695324
 30
0.0
 40
5.090450299999996
100
AcDbArc
 50
137.1166299999987
 51
222.883310000012
  0
LINE
  5
3600
330
7739
100
AcDbEntity
  8
0
100
AcDbLine
 10
1756.590406619238
 20
2377.999988695323
 30
0.0
 11
1749.590406619238
 21
2377.999988695323
 31
0.0
  0
LINE
  5
3601
330
7739
100
AcDbEntity
  8
0
100
AcDbLine
 10
1756.590406619238
 20
2422.999988695324
 30
0.0
 11
1749.590406619238
 21
2422.999988695324
 31
0.0
  0
ARC
  5
3602
330
7739
100
AcDbEntity
  8
0
100
AcDbCircle
 10
1754.590406619238
 20
2426.999988695325
 30
0.0
 40
3.0
100
AcDbArc
 50
0.0
 51
90.0
  0
ARC
  5
3603
330
7739
100
AcDbEntity
  8
0
100
AcDbCircle
 10
1749.590406619238
 20
2384.999988695323
 30
0.0
 40
7.0
100
AcDbArc
 50
180.0
 51
270.0
  0
ARC
  5
3604
330
7739
100
AcDbEntity
  8
0
100
AcDbCircle
 10
1749.590406619238
 20
2415.999988695324
 30
0.0
 40
7.0
100
AcDbArc
 50
90.0
 51
180.0
  0
ARC
  5
3605
330
7739
100
AcDbEntity
  8
0
100
AcDbCircle
 10
1718.269226619239
 20
2398.000032127613
 30
0.0
 40
18.321183
100
AcDbArc
 50
337.7806699999982
 51
22.21928999997926
  0
ARC
  5
3606
330
7739
100
AcDbEntity
  8
0
100
AcDbCircle
 10
1731.499940619238
 20
2408.392342127613
 30
0.0
 40
5.090450299999996
100
AcDbArc
 50
317.1166299999987
 51
42.88331000001202
  0
LINE
  5
3607
330
7739
100
AcDbEntity
  8
0
100
AcDbLine
 10
1742.590406619238
 20
2415.999988695324
 30
0.0
 11
1742.590406619238
 21
2384.999988695323
 31
0.0
  0
LINE
  5
3608
330
7739
100
AcDbEntity
  8
0
100
AcDbLine
 10
1736.590389619238
 20
2408.392342127613
 30
0.0
 11
1736.590389619238
 21
2387.607732127612
 31
0.0
  0
ARC
  5
3609
330
7739
100
AcDbEntity
  8
0
100
AcDbCircle
 10
1731.499940619238
 20
2387.607732127612
 30
0.0
 40
5.090450299999996
100
AcDbArc
 50
317.11667999998
 51
42.88336000001232
  0
ARC
  5
360A
330
7739
100
AcDbEntity
  8
0
100
AcDbCircle
 10
1756.590406619238
 20
2376.999988695323
 30
0.0
 40
1.0
100
AcDbArc
 50
0.0
 51
90.0
  0
ARC
  5
360B
330
7739
100
AcDbEntity
  8
0
100
AcDbCircle
 10
1756.590406619238
 20
2423.999988695323
 30
0.0
 40
1.0
100
AcDbArc
 50
270.0
 51
0.0
  0
LINE
  5
360C
330
7739
100
AcDbEntity
  8
0
100
AcDbLine
 10
1757.590406619239
 20
2423.999988695323
 30
0.0
 11
1757.590406619239
 21
2426.999988695325
 31
0.0
  0
LINE
  5
360D
330
7739
100
AcDbEntity
  8
0
100
AcDbLine
 10
1757.590406619239
 20
2362.999988695323
 30
0.0
 11
1757.590406619239
 21
2423.699988695323
 31
0.0
  0
LINE
  5
360F
330
7739
100
AcDbEntity
  8
0
100
AcDbLine
 10
1175.0
 20
1739.365375183391
 30
0.0
 11
1175.0
 21
1681.938369254049
 31
0.0
  0
LINE
  5
3610
330
7739
100
AcDbEntity
  8
0
100
AcDbLine
 10
1174.999913675472
 20
1630.233946254222
 30
0.0
 11
1174.999913675472
 21
1572.806940324881
 31
0.0
  0
CIRCLE
  5
36AB
330
7739
100
AcDbEntity
  8
0
100
AcDbCircle
 10
1174.999955423524
 20
2409.999964492707
 30
0.0
 40
8.0
  0
CIRCLE
  5
36AC
330
7739
100
AcDbEntity
  8
0
100
AcDbCircle
 10
1174.999955423524
 20
2040.000110994418
 30
0.0
 40
8.0
  0
CIRCLE
  5
36AD
330
7739
100
AcDbEntity
  8
0
100
AcDbCircle
 10
574.999955423524
 20
2409.999964492707
 30
0.0
 40
8.0
  0
CIRCLE
  5
36AE
330
7739
100
AcDbEntity
  8
0
100
AcDbCircle
 10
574.999955423524
 20
2040.000110994418
 30
0.0
 40
8.0
  0
ARC
  5
69C5
330
7739
100
AcDbEntity
  8
0
100
AcDbCircle
 10
1304.999955422923
 20
1646.612605249197
 30
0.0
 40
1.0
100
AcDbArc
 50
270.0
 51
90.0
  0
ARC
  5
69C6
330
7739
100
AcDbEntity
  8
0
100
AcDbCircle
 10
1294.999955422923
 20
1668.356162463998
 30
0.0
 40
10.0
100
AcDbArc
 50
0.0
 51
14.32271997980582
  0
LINE
  5
69C7
330
7739
100
AcDbEntity
  8
0
100
AcDbLine
 10
1304.999955422923
 20
1637.612605249198
 30
0.0
 11
1304.999955422923
 21
1645.612605249198
 31
0.0
  0
LINE
  5
69C8
330
7739
100
AcDbEntity
  8
0
100
AcDbLine
 10
1304.999955422923
 20
1647.612605249198
 30
0.0
 11
1304.999955422923
 21
1668.356162463998
 31
0.0
  0
LINE
  5
69C9
330
7739
100
AcDbEntity
  8
0
100
AcDbLine
 10
1304.689132529024
 20
1670.829994916998
 30
0.0
 11
1298.999955422222
 21
1693.112605249598
 31
0.0
  0
ARC
  5
69CA
330
7739
100
AcDbEntity
  8
0
100
AcDbCircle
 10
1297.999955422223
 20
1694.112605249598
 30
0.0
 40
1.0
100
AcDbArc
 50
0.0
 51
90.0
  0
LINE
  5
69CB
330
7739
100
AcDbEntity
  8
0
100
AcDbLine
 10
1298.999955422222
 20
1693.112605249598
 30
0.0
 11
1298.999955422222
 21
1694.112605249598
 31
0.0
  0
LINE
  5
69CC
330
7739
100
AcDbEntity
  8
0
100
AcDbLine
 10
1269.999955423524
 20
1647.612605249198
 30
0.0
 11
1304.999955422923
 21
1647.612605249198
 31
0.0
  0
LINE
  5
69CD
330
7739
100
AcDbEntity
  8
0
100
AcDbLine
 10
1269.999955423524
 20
1645.612605249198
 30
0.0
 11
1304.999955422923
 21
1645.612605249198
 31
0.0
  0
LINE
  5
69CE
330
7739
100
AcDbEntity
  8
0
100
AcDbLine
 10
1269.999955423524
 20
1637.612605249198
 30
0.0
 11
1304.999955422923
 21
1637.612605249198
 31
0.0
  0
LINE
  5
69CF
330
7739
100
AcDbEntity
  8
0
100
AcDbLine
 10
1269.999955423524
 20
1695.112605249598
 30
0.0
 11
1297.999955422223
 21
1695.112605249598
 31
0.0
  0
LINE
  5
69D0
330
7739
100
AcDbEntity
  8
0
100
AcDbLine
 10
1299.999955423908
 20
1607.112605249588
 30
0.0
 11
1269.999955423524
 21
1607.112605249588
 31
0.0
  0
LINE
  5
69D1
330
7739
100
AcDbEntity
  8
0
100
AcDbLine
 10
1299.999955423908
 20
1607.112605249588
 30
0.0
 11
1299.999955423908
 21
1620.112605249588
 31
0.0
  0
LINE
  5
69D3
330
7739
100
AcDbEntity
  8
0
100
AcDbLine
 10
1298.999955423524
 20
1620.112605249588
 30
0.0
 11
1298.999955423524
 21
1637.612605249736
 31
0.0
  0
LINE
  5
69D4
330
7739
100
AcDbEntity
  8
0
100
AcDbLine
 10
1299.999955423908
 20
1620.112605249588
 30
0.0
 11
1299.999955423908
 21
1618.112605249588
 31
0.0
  0
LINE
  5
69D5
330
7739
100
AcDbEntity
  8
0
100
AcDbLine
 10
1299.999955423908
 20
1620.112605249588
 30
0.0
 11
1269.999955423524
 21
1620.112605249588
 31
0.0
  0
LINE
  5
69D6
330
7739
100
AcDbEntity
  8
0
100
AcDbLine
 10
1269.999955423524
 20
1637.612605249736
 30
0.0
 11
1298.999955423524
 21
1637.612605249736
 31
0.0
  0
LINE
  5
69D7
330
7739
100
AcDbEntity
  8
0
100
AcDbLine
 10
1286.999955423524
 20
1696.112605249589
 30
0.0
 11
1286.999955423524
 21
1695.112605249598
 31
0.0
  0
LINE
  5
69D8
330
7739
100
AcDbEntity
  8
0
100
AcDbLine
 10
1286.999955423524
 20
1696.112605249589
 30
0.0
 11
1269.999955423524
 21
1696.112605249589
 31
0.0
  0
ARC
  5
69D9
330
7739
100
AcDbEntity
  8
0
100
AcDbCircle
 10
1234.999955424124
 20
1646.612605249197
 30
0.0
 40
1.0
100
AcDbArc
 50
90.0
 51
270.0
  0
ARC
  5
69DA
330
7739
100
AcDbEntity
  8
0
100
AcDbCircle
 10
1244.999955424124
 20
1668.356162463998
 30
0.0
 40
10.0
100
AcDbArc
 50
165.6772800201942
 51
180.0
  0
LINE
  5
69DB
330
7739
100
AcDbEntity
  8
0
100
AcDbLine
 10
1234.999955424124
 20
1637.612605249198
 30
0.0
 11
1234.999955424124
 21
1645.612605249198
 31
0.0
  0
LINE
  5
69DC
330
7739
100
AcDbEntity
  8
0
100
AcDbLine
 10
1234.999955424124
 20
1647.612605249198
 30
0.0
 11
1234.999955424124
 21
1668.356162463998
 31
0.0
  0
LINE
  5
69DD
330
7739
100
AcDbEntity
  8
0
100
AcDbLine
 10
1235.310778318024
 20
1670.829994916998
 30
0.0
 11
1240.999955424822
 21
1693.112605249598
 31
0.0
  0
ARC
  5
69DE
330
7739
100
AcDbEntity
  8
0
100
AcDbCircle
 10
1241.999955424822
 20
1694.112605249598
 30
0.0
 40
1.0
100
AcDbArc
 50
90.0
 51
180.0
  0
LINE
  5
69DF
330
7739
100
AcDbEntity
  8
0
100
AcDbLine
 10
1240.999955424822
 20
1693.112605249598
 30
0.0
 11
1240.999955424822
 21
1694.112605249598
 31
0.0
  0
LINE
  5
69E0
330
7739
100
AcDbEntity
  8
0
100
AcDbLine
 10
1269.999955423524
 20
1647.612605249198
 30
0.0
 11
1234.999955424124
 21
1647.612605249198
 31
0.0
  0
LINE
  5
69E1
330
7739
100
AcDbEntity
  8
0
100
AcDbLine
 10
1269.999955423524
 20
1645.612605249198
 30
0.0
 11
1234.999955424124
 21
1645.612605249198
 31
0.0
  0
LINE
  5
69E2
330
7739
100
AcDbEntity
  8
0
100
AcDbLine
 10
1269.999955423524
 20
1637.612605249198
 30
0.0
 11
1234.999955424124
 21
1637.612605249198
 31
0.0
  0
LINE
  5
69E3
330
7739
100
AcDbEntity
  8
0
100
AcDbLine
 10
1269.999955423524
 20
1695.112605249598
 30
0.0
 11
1241.999955424822
 21
1695.112605249598
 31
0.0
  0
LINE
  5
69E4
330
7739
100
AcDbEntity
  8
0
100
AcDbLine
 10
1239.99995542314
 20
1607.112605249588
 30
0.0
 11
1269.999955423524
 21
1607.112605249588
 31
0.0
  0
LINE
  5
69E5
330
7739
100
AcDbEntity
  8
0
100
AcDbLine
 10
1239.99995542314
 20
1607.112605249588
 30
0.0
 11
1239.99995542314
 21
1620.112605249588
 31
0.0
  0
LINE
  5
69E7
330
7739
100
AcDbEntity
  8
0
100
AcDbLine
 10
1240.999955423524
 20
1620.112605249588
 30
0.0
 11
1240.999955423524
 21
1637.612605249736
 31
0.0
  0
LINE
  5
69E8
330
7739
100
AcDbEntity
  8
0
100
AcDbLine
 10
1239.99995542314
 20
1620.112605249588
 30
0.0
 11
1239.99995542314
 21
1618.112605249588
 31
0.0
  0
LINE
  5
69E9
330
7739
100
AcDbEntity
  8
0
100
AcDbLine
 10
1239.99995542314
 20
1620.112605249588
 30
0.0
 11
1269.999955423524
 21
1620.112605249588
 31
0.0
  0
LINE
  5
69EA
330
7739
100
AcDbEntity
  8
0
100
AcDbLine
 10
1269.999955423524
 20
1637.612605249736
 30
0.0
 11
1240.999955423524
 21
1637.612605249736
 31
0.0
  0
LINE
  5
69EB
330
7739
100
AcDbEntity
  8
0
100
AcDbLine
 10
1252.999955423524
 20
1696.112605249589
 30
0.0
 11
1252.999955423524
 21
1695.112605249598
 31
0.0
  0
LINE
  5
69EC
330
7739
100
AcDbEntity
  8
0
100
AcDbLine
 10
1252.999955423524
 20
1696.112605249589
 30
0.0
 11
1269.999955423524
 21
1696.112605249589
 31
0.0
  0
ARC
  5
69ED
330
7739
100
AcDbEntity
  8
0
100
AcDbCircle
 10
764.9999554229234
 20
1646.612605249197
 30
0.0
 40
1.0
100
AcDbArc
 50
270.0
 51
90.0
  0
ARC
  5
69EE
330
7739
100
AcDbEntity
  8
0
100
AcDbCircle
 10
754.9999554229234
 20
1668.356162463998
 30
0.0
 40
10.0
100
AcDbArc
 50
0.0
 51
14.32271997980582
  0
LINE
  5
69EF
330
7739
100
AcDbEntity
  8
0
100
AcDbLine
 10
764.9999554229234
 20
1637.612605249198
 30
0.0
 11
764.9999554229234
 21
1645.612605249198
 31
0.0
  0
LINE
  5
69F0
330
7739
100
AcDbEntity
  8
0
100
AcDbLine
 10
764.9999554229234
 20
1647.612605249198
 30
0.0
 11
764.9999554229234
 21
1668.356162463998
 31
0.0
  0
LINE
  5
69F1
330
7739
100
AcDbEntity
  8
0
100
AcDbLine
 10
764.6891325290234
 20
1670.829994916998
 30
0.0
 11
758.9999554222234
 21
1693.112605249598
 31
0.0
  0
ARC
  5
69F2
330
7739
100
AcDbEntity
  8
0
100
AcDbCircle
 10
757.9999554222232
 20
1694.112605249598
 30
0.0
 40
1.0
100
AcDbArc
 50
0.0
 51
90.0
  0
LINE
  5
69F3
330
7739
100
AcDbEntity
  8
0
100
AcDbLine
 10
758.9999554222234
 20
1693.112605249598
 30
0.0
 11
758.9999554222234
 21
1694.112605249598
 31
0.0
  0
LINE
  5
69F4
330
7739
100
AcDbEntity
  8
0
100
AcDbLine
 10
729.9999554235236
 20
1647.612605249198
 30
0.0
 11
764.9999554229234
 21
1647.612605249198
 31
0.0
  0
LINE
  5
69F5
330
7739
100
AcDbEntity
  8
0
100
AcDbLine
 10
729.9999554235236
 20
1645.612605249198
 30
0.0
 11
764.9999554229234
 21
1645.612605249198
 31
0.0
  0
LINE
  5
69F6
330
7739
100
AcDbEntity
  8
0
100
AcDbLine
 10
729.9999554235236
 20
1637.612605249198
 30
0.0
 11
764.9999554229234
 21
1637.612605249198
 31
0.0
  0
LINE
  5
69F7
330
7739
100
AcDbEntity
  8
0
100
AcDbLine
 10
729.9999554235236
 20
1695.112605249598
 30
0.0
 11
757.9999554222232
 21
1695.112605249598
 31
0.0
  0
LINE
  5
69F8
330
7739
100
AcDbEntity
  8
0
100
AcDbLine
 10
759.9999554239075
 20
1607.112605249588
 30
0.0
 11
729.9999554235236
 21
1607.112605249588
 31
0.0
  0
LINE
  5
69F9
330
7739
100
AcDbEntity
  8
0
100
AcDbLine
 10
759.9999554239075
 20
1607.112605249588
 30
0.0
 11
759.9999554239075
 21
1620.112605249588
 31
0.0
  0
LINE
  5
69FB
330
7739
100
AcDbEntity
  8
0
100
AcDbLine
 10
758.9999554235236
 20
1620.112605249588
 30
0.0
 11
758.9999554235236
 21
1637.612605249736
 31
0.0
  0
LINE
  5
69FC
330
7739
100
AcDbEntity
  8
0
100
AcDbLine
 10
759.9999554239075
 20
1620.112605249588
 30
0.0
 11
759.9999554239075
 21
1618.112605249588
 31
0.0
  0
LINE
  5
69FD
330
7739
100
AcDbEntity
  8
0
100
AcDbLine
 10
759.9999554239075
 20
1620.112605249588
 30
0.0
 11
729.9999554235236
 21
1620.112605249588
 31
0.0
  0
LINE
  5
69FE
330
7739
100
AcDbEntity
  8
0
100
AcDbLine
 10
729.9999554235236
 20
1637.612605249736
 30
0.0
 11
758.9999554235236
 21
1637.612605249736
 31
0.0
  0
LINE
  5
69FF
330
7739
100
AcDbEntity
  8
0
100
AcDbLine
 10
746.9999554235235
 20
1696.112605249589
 30
0.0
 11
746.9999554235235
 21
1695.112605249598
 31
0.0
  0
LINE
  5
6A00
330
7739
100
AcDbEntity
  8
0
100
AcDbLine
 10
746.9999554235235
 20
1696.112605249589
 30
0.0
 11
729.9999554235236
 21
1696.112605249589
 31
0.0
  0
ARC
  5
6A01
330
7739
100
AcDbEntity
  8
0
100
AcDbCircle
 10
694.9999554241241
 20
1646.612605249197
 30
0.0
 40
1.0
100
AcDbArc
 50
90.0
 51
270.0
  0
ARC
  5
6A02
330
7739
100
AcDbEntity
  8
0
100
AcDbCircle
 10
704.9999554241241
 20
1668.356162463998
 30
0.0
 40
10.0
100
AcDbArc
 50
165.6772800201942
 51
180.0
  0
LINE
  5
6A03
330
7739
100
AcDbEntity
  8
0
100
AcDbLine
 10
694.9999554241241
 20
1637.612605249198
 30
0.0
 11
694.9999554241241
 21
1645.612605249198
 31
0.0
  0
LINE
  5
6A04
330
7739
100
AcDbEntity
  8
0
100
AcDbLine
 10
694.9999554241241
 20
1647.612605249198
 30
0.0
 11
694.9999554241241
 21
1668.356162463998
 31
0.0
  0
LINE
  5
6A05
330
7739
100
AcDbEntity
  8
0
100
AcDbLine
 10
695.3107783180241
 20
1670.829994916998
 30
0.0
 11
700.9999554248236
 21
1693.112605249598
 31
0.0
  0
ARC
  5
6A06
330
7739
100
AcDbEntity
  8
0
100
AcDbCircle
 10
701.9999554248236
 20
1694.112605249598
 30
0.0
 40
1.0
100
AcDbArc
 50
90.0
 51
180.0
  0
LINE
  5
6A07
330
7739
100
AcDbEntity
  8
0
100
AcDbLine
 10
700.9999554248236
 20
1693.112605249598
 30
0.0
 11
700.9999554248236
 21
1694.112605249598
 31
0.0
  0
LINE
  5
6A08
330
7739
100
AcDbEntity
  8
0
100
AcDbLine
 10
729.9999554235236
 20
1647.612605249198
 30
0.0
 11
694.9999554241241
 21
1647.612605249198
 31
0.0
  0
LINE
  5
6A09
330
7739
100
AcDbEntity
  8
0
100
AcDbLine
 10
729.9999554235236
 20
1645.612605249198
 30
0.0
 11
694.9999554241241
 21
1645.612605249198
 31
0.0
  0
LINE
  5
6A0A
330
7739
100
AcDbEntity
  8
0
100
AcDbLine
 10
729.9999554235236
 20
1637.612605249198
 30
0.0
 11
694.9999554241241
 21
1637.612605249198
 31
0.0
  0
LINE
  5
6A0B
330
7739
100
AcDbEntity
  8
0
100
AcDbLine
 10
729.9999554235236
 20
1695.112605249598
 30
0.0
 11
701.9999554248236
 21
1695.112605249598
 31
0.0
  0
LINE
  5
6A0C
330
7739
100
AcDbEntity
  8
0
100
AcDbLine
 10
699.9999554231401
 20
1607.112605249588
 30
0.0
 11
729.9999554235236
 21
1607.112605249588
 31
0.0
  0
LINE
  5
6A0D
330
7739
100
AcDbEntity
  8
0
100
AcDbLine
 10
699.9999554231401
 20
1607.112605249588
 30
0.0
 11
699.9999554231401
 21
1620.112605249588
 31
0.0
  0
LINE
  5
6A0F
330
7739
100
AcDbEntity
  8
0
100
AcDbLine
 10
700.9999554235243
 20
1620.112605249588
 30
0.0
 11
700.9999554235243
 21
1637.612605249736
 31
0.0
  0
LINE
  5
6A10
330
7739
100
AcDbEntity
  8
0
100
AcDbLine
 10
699.9999554231401
 20
1620.112605249588
 30
0.0
 11
699.9999554231401
 21
1618.112605249588
 31
0.0
  0
LINE
  5
6A11
330
7739
100
AcDbEntity
  8
0
100
AcDbLine
 10
699.9999554231401
 20
1620.112605249588
 30
0.0
 11
729.9999554235236
 21
1620.112605249588
 31
0.0
  0
LINE
  5
6A12
330
7739
100
AcDbEntity
  8
0
100
AcDbLine
 10
729.9999554235236
 20
1637.612605249736
 30
0.0
 11
700.9999554235243
 21
1637.612605249736
 31
0.0
  0
LINE
  5
6A13
330
7739
100
AcDbEntity
  8
0
100
AcDbLine
 10
712.9999554235241
 20
1696.112605249589
 30
0.0
 11
712.9999554235241
 21
1695.112605249598
 31
0.0
  0
LINE
  5
6A14
330
7739
100
AcDbEntity
  8
0
100
AcDbLine
 10
712.9999554235241
 20
1696.112605249589
 30
0.0
 11
729.9999554235236
 21
1696.112605249589
 31
0.0
  0
LINE
  5
6A15
330
7739
100
AcDbEntity
  8
0
100
AcDbLine
 10
759.9999554239079
 20
1618.112605249588
 30
0.0
 11
1239.99995542314
 21
1618.112605249588
 31
0.0
  0
LINE
  5
6A18
330
7739
100
AcDbEntity
  8
0
100
AcDbLine
 10
1299.999955423908
 20
1618.112605249588
 30
0.0
 11
1333.014674049285
 21
1618.112605249588
 31
0.0
  0
LINE
  5
6B0B
330
7739
100
AcDbEntity
  8
0
100
AcDbLine
 10
1369.999967274749
 20
1161.41351768056
 30
0.0
 11
1369.999967274749
 21
871.4135175913153
 31
0.0
  0
LINE
  5
6B0C
330
7739
100
AcDbEntity
  8
0
100
AcDbLine
 10
379.9999672747494
 20
871.4135175913162
 30
0.0
 11
1369.999967274749
 21
871.4135175913153
 31
0.0
  0
LINE
  5
6B0E
330
7739
100
AcDbEntity
  8
0
100
AcDbLine
 10
1369.999967274749
 20
1161.41351768056
 30
0.0
 11
379.9999672747496
 21
1161.413517680558
 31
0.0
  0
LINE
  5
6B11
330
7739
100
AcDbEntity
  8
0
100
AcDbLine
 10
379.9999672747496
 20
1161.41351768056
 30
0.0
 11
379.9999672747494
 21
871.4135175913153
 31
0.0
  0
LINE
  5
6CB1
330
7739
100
AcDbEntity
  8
0
100
AcDbLine
 10
80.0
 20
2808.0
 30
0.0
 11
1880.0
 21
2808.0
 31
0.0
  0
LINE
  5
6CB3
330
7739
100
AcDbEntity
  8
0
100
AcDbLine
 10
80.0
 20
2808.0
 30
0.0
 11
80.0
 21
-0.0000000000000089
 31
0.0
  0
LINE
  5
6D82
330
7739
100
AcDbEntity
  8
0
100
AcDbLine
 10
1880.0
 20
2808.0
 30
0.0
 11
1880.0
 21
-0.000000000000453
 31
0.0
  0
LINE
  5
6D8E
330
7739
100
AcDbEntity
  8
0
100
AcDbLine
 10
80.0
 20
0.0
 30
0.0
 11
1880.0
 21
0.0
 31
0.0
  0
LINE
  5
6D8F
330
7739
100
AcDbEntity
  8
0
100
AcDbLine
 10
80.0
 20
0.0
 30
0.0
 11
1880.0
 21
0.0
 31
0.0
  0
LINE
  5
6E0E
330
7739
100
AcDbEntity
  8
0
100
AcDbLine
 10
552.1642820871075
 20
1191.41359580266
 30
0.0
 11
181.9999554235244
 21
1191.41359580266
 31
0.0
  0
LINE
  5
6E0F
330
7739
100
AcDbEntity
  8
0
100
AcDbLine
 10
551.6778453463428
 20
841.4135297689801
 30
0.0
 11
181.9999554235243
 21
841.4135297689801
 31
0.0
  0
LINE
  5
6E10
330
7739
100
AcDbEntity
  8
0
100
AcDbLine
 10
199.9999554235244
 20
1171.413595802661
 30
0.0
 11
199.9999554235243
 21
861.4135297689799
 31
0.0
  0
LINE
  5
6E14
330
7739
100
AcDbEntity
  8
0
100
AcDbLine
 10
574.9999672747495
 20
1214.349373734184
 30
0.0
 11
574.9999672747495
 21
1299.217327590807
 31
0.0
  0
LINE
  5
6E15
330
7739
100
AcDbEntity
  8
0
100
AcDbLine
 10
1174.999967274749
 20
1214.349307789723
 30
0.0
 11
1174.999967274749
 21
1299.217327590807
 31
0.0
  0
LINE
  5
6E16
330
7739
100
AcDbEntity
  8
0
100
AcDbLine
 10
594.9999672747495
 20
1281.217327590807
 30
0.0
 11
1154.999967274749
 21
1281.217327590807
 31
0.0
  0
CIRCLE
  5
6E1C
330
7739
100
AcDbEntity
  8
0
100
AcDbCircle
 10
1367.999976297549
 20
2398.000041563901
 30
0.0
 40
12.0000000000005
  0
CIRCLE
  5
6E21
330
7739
100
AcDbEntity
  8
0
100
AcDbCircle
 10
1367.999976297549
 20
2052.000033923225
 30
0.0
 40
12.0000000000005
  0
LINE
  5
6E23
330
7739
100
AcDbEntity
  8
0
100
AcDbLine
 10
574.999955423524
 20
2409.999964492707
 30
0.0
 11
583.676828061237
 21
2428.799714201645
 31
0.0
  0
LINE
  5
6E24
330
7739
100
AcDbEntity
  8
0
100
AcDbLine
 10
574.999955423524
 20
2409.999964492707
 30
0.0
 11
591.9142224076539
 21
2421.94258900658
 31
0.0
  0
LINE
  5
6E25
330
7739
100
AcDbEntity
  8
0
100
AcDbLine
 10
587.7955252344452
 20
2425.371151604112
 30
0.0
 11
574.999955423524
 21
2409.999964492707
 31
0.0
  0
CIRCLE
  5
6E26
330
7739
100
AcDbEntity
  8
0
100
AcDbCircle
 10
382.0000000000002
 20
2398.000041563901
 30
0.0
 40
12.0000000000005
  0
CIRCLE
  5
6E28
330
7739
100
AcDbEntity
  8
0
100
AcDbCircle
 10
382.0
 20
2052.000033923225
 30
0.0
 40
12.0000000000005
  0
LINE
  5
6E2A
330
7739
100
AcDbEntity
  8
0
100
AcDbLine
 10
372.9999791759802
 20
2430.0
 30
0.0
 11
128.393143618867
 21
2430.0
 31
0.0
  0
LINE
  5
6E2B
330
7739
100
AcDbEntity
  8
0
100
AcDbLine
 10
372.4999791759791
 20
2020.000075487127
 30
0.0
 11
128.393143618867
 21
2020.000075487127
 31
0.0
  0
LINE
  5
6E2C
330
7739
100
AcDbEntity
  8
0
100
AcDbLine
 10
146.3931436188671
 20
2410.0
 30
0.0
 11
146.393143618867
 21
2040.000075487128
 31
0.0
  0
LINE
  5
6E30
330
7739
100
AcDbEntity
  8
0
100
AcDbLine
 10
350.0000000000002
 20
2407.000000000009
 30
0.0
 11
350.0000000000002
 21
2653.076268616904
 31
0.0
  0
LINE
  5
6E31
330
7739
100
AcDbEntity
  8
0
100
AcDbLine
 10
1399.999976297549
 20
2407.000000000009
 30
0.0
 11
1399.999976297549
 21
2653.076268616904
 31
0.0
  0
LINE
  5
6E32
330
7739
100
AcDbEntity
  8
0
100
AcDbLine
 10
370.0000000000002
 20
2635.076268616904
 30
0.0
 11
1379.999976297549
 21
2635.076268616904
 31
0.0
  0
TEXT
  5
6E36
330
7739
100
AcDbEntity
  8
0
100
AcDbText
 10
656.6628390594321
 20
723.2122644384562
 30
0.0
 40
25.0
  1
4-∅20
100
AcDbText
  0
LINE
  5
6E37
330
7739
100
AcDbEntity
  8
0
100
AcDbLine
 10
349.9999672747494
 20
811.413517591316
 30
0.0
 11
1399.999967274749
 21
811.413517591316
 31
0.0
  0
LINE
  5
6E38
330
7739
100
AcDbEntity
  8
0
100
AcDbLine
 10
1399.999967274749
 20
811.413517591316
 30
0.0
 11
1399.999967274749
 21
1221.41351768056
 31
0.0
  0
LINE
  5
6E39
330
7739
100
AcDbEntity
  8
0
100
AcDbLine
 10
1399.999967274749
 20
1221.41351768056
 30
0.0
 11
349.9999672747495
 21
1221.41351768056
 31
0.0
  0
LINE
  5
6E3A
330
7739
100
AcDbEntity
  8
0
100
AcDbLine
 10
349.9999672747495
 20
1221.41351768056
 30
0.0
 11
349.9999672747494
 21
811.413517591316
 31
0.0
  0
LINE
  5
6E3B
330
7739
100
AcDbEntity
  8
0
100
AcDbLine
 10
744.9999881487747
 20
1701.11260524959
 30
0.0
 11
984.9999881487752
 21
1701.11260524959
 31
0.0
  0
LINE
  5
6E3C
330
7739
100
AcDbEntity
  8
0
100
AcDbLine
 10
984.9999881487752
 20
1701.11260524959
 30
0.0
 11
984.9999881487752
 21
1721.11260524959
 31
0.0
  0
LINE
  5
6E3D
330
7739
100
AcDbEntity
  8
0
100
AcDbLine
 10
984.9999881487752
 20
1721.11260524959
 30
0.0
 11
744.9999881487747
 21
1721.11260524959
 31
0.0
  0
LINE
  5
6E3E
330
7739
100
AcDbEntity
  8
0
100
AcDbLine
 10
744.9999881487747
 20
1721.11260524959
 30
0.0
 11
744.9999881487747
 21
1701.11260524959
 31
0.0
  0
LINE
  5
6E3F
330
7739
100
AcDbEntity
  8
0
100
AcDbLine
 10
249.9999554235244
 20
1726.112605249589
 30
0.0
 11
131.9999554235242
 21
1726.112605249589
 31
0.0
  0
LINE
  5
6E40
330
7739
100
AcDbEntity
  8
0
100
AcDbLine
 10
249.9999554235246
 20
1588.112605249588
 30
0.0
 11
131.9999554235242
 21
1588.112605249588
 31
0.0
  0
LINE
  5
6E41
330
7739
100
AcDbEntity
  8
0
100
AcDbLine
 10
149.9999554235242
 20
1706.112605249589
 30
0.0
 11
149.9999554235242
 21
1608.112605249588
 31
0.0
  0
LINE
  5
6E45
330
7739
100
AcDbEntity
  8
0
100
AcDbLine
 10
349.0000000000002
 20
1726.112605249589
 30
0.0
 11
181.9999554235244
 21
1726.112605249589
 31
0.0
  0
LINE
  5
6E46
330
7739
100
AcDbEntity
  8
0
100
AcDbLine
 10
352.0000000000002
 20
1588.112605249588
 30
0.0
 11
181.9999554235244
 21
1588.112605249588
 31
0.0
  0
LINE
  5
6E4B
330
7739
100
AcDbEntity
  8
0
100
AcDbLine
 10
349.0000000000002
 20
1696.112605249589
 30
0.0
 11
231.9999554235244
 21
1696.112605249589
 31
0.0
  0
LINE
  5
6E4C
330
7739
100
AcDbEntity
  8
0
100
AcDbLine
 10
248.9999554235244
 20
1726.112605249589
 30
0.0
 11
231.9999554235244
 21
1726.112605249589
 31
0.0
  0
LINE
  5
6E4D
330
7739
100
AcDbEntity
  8
0
100
AcDbLine
 10
249.9999554235244
 20
1676.112605249589
 30
0.0
 11
249.9999554235244
 21
1656.112605249589
 31
0.0
  0
LINE
  5
6E4E
330
7739
100
AcDbEntity
  8
0
100
AcDbLine
 10
249.9999554235244
 20
1746.112605249589
 30
0.0
 11
249.9999554235244
 21
1803.612605249589
 31
0.0
  0
LINE
  5
6E4F
330
7739
100
AcDbEntity
  8
0
100
AcDbLine
 10
249.9999554235244
 20
1696.112605249589
 30
0.0
 11
249.9999554235244
 21
1726.112605249589
 31
0.0
  0
LINE
  5
6E53
330
7739
100
AcDbEntity
  8
0
100
AcDbLine
 10
349.0000000000002
 20
1618.112605249588
 30
0.0
 11
231.9999554235244
 21
1618.112605249588
 31
0.0
  0
LINE
  5
6E54
330
7739
100
AcDbEntity
  8
0
100
AcDbLine
 10
248.9999554235243
 20
1588.112605249588
 30
0.0
 11
231.9999554235244
 21
1588.112605249588
 31
0.0
  0
LINE
  5
6E55
330
7739
100
AcDbEntity
  8
0
100
AcDbLine
 10
249.9999554235244
 20
1638.112605249588
 30
0.0
 11
249.9999554235244
 21
1653.112605249588
 31
0.0
  0
LINE
  5
6E56
330
7739
100
AcDbEntity
  8
0
100
AcDbLine
 10
249.9999554235244
 20
1568.112605249588
 30
0.0
 11
249.9999554235244
 21
1548.112605249588
 31
0.0
  0
LINE
  5
6E58
330
7739
100
AcDbEntity
  8
0
100
AcDbLine
 10
249.9999554235244
 20
1618.112605249588
 30
0.0
 11
249.9999554235244
 21
1588.112605249588
 31
0.0
  0
LINE
  5
6E5B
330
7739
100
AcDbEntity
  8
0
100
AcDbLine
 10
388.9282032302755
 20
2064.000033923225
 30
0.0
 11
395.856406460551
 21
2052.000033923225
 31
0.0
  0
LINE
  5
6E5C
330
7739
100
AcDbEntity
  8
0
100
AcDbLine
 10
395.856406460551
 20
2052.000033923225
 30
0.0
 11
388.9282032302755
 21
2040.000033923226
 31
0.0
  0
LINE
  5
6E5D
330
7739
100
AcDbEntity
  8
0
100
AcDbLine
 10
388.9282032302755
 20
2040.000033923226
 30
0.0
 11
375.0717967697245
 21
2040.000033923226
 31
0.0
  0
LINE
  5
6E5E
330
7739
100
AcDbEntity
  8
0
100
AcDbLine
 10
375.0717967697245
 20
2040.000033923226
 30
0.0
 11
368.143593539449
 21
2052.000033923225
 31
0.0
  0
LINE
  5
6E5F
330
7739
100
AcDbEntity
  8
0
100
AcDbLine
 10
368.143593539449
 20
2052.000033923225
 30
0.0
 11
375.0717967697245
 21
2064.000033923225
 31
0.0
  0
LINE
  5
6E60
330
7739
100
AcDbEntity
  8
0
100
AcDbLine
 10
375.0717967697245
 20
2064.000033923225
 30
0.0
 11
388.9282032302755
 21
2064.000033923225
 31
0.0
  0
LINE
  5
6E61
330
7739
100
AcDbEntity
  8
0
100
AcDbLine
 10
1361.071773067273
 20
2386.000041563901
 30
0.0
 11
1354.143569836998
 21
2398.000041563901
 31
0.0
  0
LINE
  5
6E62
330
7739
100
AcDbEntity
  8
0
100
AcDbLine
 10
1354.143569836998
 20
2398.000041563901
 30
0.0
 11
1361.071773067273
 21
2410.000041563901
 31
0.0
  0
LINE
  5
6E63
330
7739
100
AcDbEntity
  8
0
100
AcDbLine
 10
1361.071773067273
 20
2410.000041563901
 30
0.0
 11
1374.928179527825
 21
2410.000041563901
 31
0.0
  0
LINE
  5
6E64
330
7739
100
AcDbEntity
  8
0
100
AcDbLine
 10
1374.928179527825
 20
2410.000041563901
 30
0.0
 11
1381.8563827581
 21
2398.000041563901
 31
0.0
  0
LINE
  5
6E65
330
7739
100
AcDbEntity
  8
0
100
AcDbLine
 10
1381.8563827581
 20
2398.000041563901
 30
0.0
 11
1374.928179527825
 21
2386.000041563901
 31
0.0
  0
LINE
  5
6E66
330
7739
100
AcDbEntity
  8
0
100
AcDbLine
 10
1374.928179527825
 20
2386.000041563901
 30
0.0
 11
1361.071773067273
 21
2386.000041563901
 31
0.0
  0
TEXT
  5
6E67
330
7739
100
AcDbEntity
  8
0
100
AcDbText
 10
187.4999554235241
 20
985.1635627858202
 30
0.0
 40
25.0
  1
350
 50
90.0
100
AcDbText
  0
LINE
  5
6E68
330
7739
100
AcDbEntity
  8
0
100
AcDbLine
 10
199.9999554235243
 20
841.4135297689801
 30
0.0
 11
194.6409715749022
 21
861.4135297689799
 31
0.0
  0
LINE
  5
6E69
330
7739
100
AcDbEntity
  8
0
100
AcDbLine
 10
199.9999554235243
 20
841.4135297689801
 30
0.0
 11
205.3589392721464
 21
861.4135297689799
 31
0.0
  0
LINE
  5
6E6A
330
7739
100
AcDbEntity
  8
0
100
AcDbLine
 10
199.9999554235243
 20
861.4135297689799
 30
0.0
 11
199.9999554235243
 21
841.4135297689801
 31
0.0
  0
LINE
  5
6E6B
330
7739
100
AcDbEntity
  8
0
100
AcDbLine
 10
199.9999554235244
 20
1191.41359580266
 30
0.0
 11
205.3589392721465
 21
1171.413595802661
 31
0.0
  0
LINE
  5
6E6C
330
7739
100
AcDbEntity
  8
0
100
AcDbLine
 10
199.9999554235244
 20
1191.41359580266
 30
0.0
 11
194.6409715749023
 21
1171.413595802661
 31
0.0
  0
LINE
  5
6E6D
330
7739
100
AcDbEntity
  8
0
100
AcDbLine
 10
199.9999554235244
 20
1171.413595802661
 30
0.0
 11
199.9999554235244
 21
1191.41359580266
 31
0.0
  0
TEXT
  5
6E6E
330
7739
100
AcDbEntity
  8
0
100
AcDbText
 10
845.8333006080827
 20
1293.717327590807
 30
0.0
 40
25.0
  1
600
100
AcDbText
  0
LINE
  5
6E6F
330
7739
100
AcDbEntity
  8
0
100
AcDbLine
 10
1174.999967274749
 20
1281.217327590807
 30
0.0
 11
1154.999967274749
 21
1275.858343742185
 31
0.0
  0
LINE
  5
6E70
330
7739
100
AcDbEntity
  8
0
100
AcDbLine
 10
1174.999967274749
 20
1281.217327590807
 30
0.0
 11
1154.999967274749
 21
1286.576311439429
 31
0.0
  0
LINE
  5
6E71
330
7739
100
AcDbEntity
  8
0
100
AcDbLine
 10
1154.999967274749
 20
1281.217327590807
 30
0.0
 11
1174.999967274749
 21
1281.217327590807
 31
0.0
  0
LINE
  5
6E72
330
7739
100
AcDbEntity
  8
0
100
AcDbLine
 10
574.9999672747495
 20
1281.217327590807
 30
0.0
 11
594.9999672747495
 21
1286.576311439429
 31
0.0
  0
LINE
  5
6E73
330
7739
100
AcDbEntity
  8
0
100
AcDbLine
 10
574.9999672747495
 20
1281.217327590807
 30
0.0
 11
594.9999672747495
 21
1275.858343742185
 31
0.0
  0
LINE
  5
6E74
330
7739
100
AcDbEntity
  8
0
100
AcDbLine
 10
594.9999672747495
 20
1281.217327590807
 30
0.0
 11
574.9999672747495
 21
1281.217327590807
 31
0.0
  0
LINE
  5
6E75
330
7739
100
AcDbEntity
  8
0
100
AcDbLine
 10
583.3495333420635
 20
823.2397919451985
 30
0.0
 11
631.7160435616152
 21
717.9648268637907
 31
0.0
1001
ACAD
1000
DSTYLE
1002
{
1070
   147
1040
0.0
1070
    77
1070
     0
1002
}
  0
LINE
  5
6E76
330
7739
100
AcDbEntity
  8
0
100
AcDbLine
 10
574.9999672747495
 20
841.4135297689801
 30
0.0
 11
588.2191717154004
 21
825.4770514300854
 31
0.0
  0
LINE
  5
6E77
330
7739
100
AcDbEntity
  8
0
100
AcDbLine
 10
574.9999672747495
 20
841.4135297689801
 30
0.0
 11
578.4798949687265
 21
821.0025324603117
 31
0.0
  0
LINE
  5
6E78
330
7739
100
AcDbEntity
  8
0
100
AcDbLine
 10
583.3495333420635
 20
823.2397919451985
 30
0.0
 11
574.9999672747495
 21
841.4135297689801
 31
0.0
  0
LINE
  5
6E79
330
7739
100
AcDbEntity
  8
0
100
AcDbLine
 10
1361.071773067274
 20
2064.000033923225
 30
0.0
 11
1354.143569836999
 21
2052.000033923225
 31
0.0
  0
LINE
  5
6E7A
330
7739
100
AcDbEntity
  8
0
100
AcDbLine
 10
1354.143569836999
 20
2052.000033923225
 30
0.0
 11
1361.071773067274
 21
2040.000033923226
 31
0.0
  0
LINE
  5
6E7B
330
7739
100
AcDbEntity
  8
0
100
AcDbLine
 10
1361.071773067274
 20
2040.000033923226
 30
0.0
 11
1374.928179527825
 21
2040.000033923226
 31
0.0
  0
LINE
  5
6E7C
330
7739
100
AcDbEntity
  8
0
100
AcDbLine
 10
1374.928179527825
 20
2040.000033923226
 30
0.0
 11
1381.8563827581
 21
2052.000033923225
 31
0.0
  0
LINE
  5
6E7D
330
7739
100
AcDbEntity
  8
0
100
AcDbLine
 10
1381.8563827581
 20
2052.000033923225
 30
0.0
 11
1374.928179527825
 21
2064.000033923225
 31
0.0
  0
LINE
  5
6E7E
330
7739
100
AcDbEntity
  8
0
100
AcDbLine
 10
1374.928179527825
 20
2064.000033923225
 30
0.0
 11
1361.071773067274
 21
2064.000033923225
 31
0.0
  0
LINE
  5
6E7F
330
7739
100
AcDbEntity
  8
0
100
AcDbLine
 10
388.9282032302757
 20
2386.000041563901
 30
0.0
 11
395.8564064605512
 21
2398.000041563901
 31
0.0
  0
LINE
  5
6E80
330
7739
100
AcDbEntity
  8
0
100
AcDbLine
 10
395.8564064605512
 20
2398.000041563901
 30
0.0
 11
388.9282032302757
 21
2410.000041563901
 31
0.0
  0
LINE
  5
6E81
330
7739
100
AcDbEntity
  8
0
100
AcDbLine
 10
388.9282032302757
 20
2410.000041563901
 30
0.0
 11
375.0717967697247
 21
2410.000041563901
 31
0.0
  0
LINE
  5
6E82
330
7739
100
AcDbEntity
  8
0
100
AcDbLine
 10
375.0717967697247
 20
2410.000041563901
 30
0.0
 11
368.1435935394492
 21
2398.000041563901
 31
0.0
  0
LINE
  5
6E83
330
7739
100
AcDbEntity
  8
0
100
AcDbLine
 10
368.1435935394492
 20
2398.000041563901
 30
0.0
 11
375.0717967697247
 21
2386.000041563901
 31
0.0
  0
LINE
  5
6E84
330
7739
100
AcDbEntity
  8
0
100
AcDbLine
 10
375.0717967697247
 20
2386.000041563901
 30
0.0
 11
388.9282032302757
 21
2386.000041563901
 31
0.0
  0
TEXT
  5
6E85
330
7739
100
AcDbEntity
  8
0
100
AcDbText
 10
133.8931436188667
 20
2197.91670441023
 30
0.0
 40
25.0
  1
410
 50
90.0
100
AcDbText
  0
LINE
  5
6E86
330
7739
100
AcDbEntity
  8
0
100
AcDbLine
 10
146.393143618867
 20
2020.000075487127
 30
0.0
 11
141.0341597702449
 21
2040.000075487128
 31
0.0
  0
LINE
  5
6E87
330
7739
100
AcDbEntity
  8
0
100
AcDbLine
 10
146.393143618867
 20
2020.000075487127
 30
0.0
 11
151.752127467489
 21
2040.000075487128
 31
0.0
  0
LINE
  5
6E88
330
7739
100
AcDbEntity
  8
0
100
AcDbLine
 10
146.393143618867
 20
2040.000075487128
 30
0.0
 11
146.393143618867
 21
2020.000075487127
 31
0.0
  0
LINE
  5
6E89
330
7739
100
AcDbEntity
  8
0
100
AcDbLine
 10
146.3931436188671
 20
2430.0
 30
0.0
 11
151.7521274674891
 21
2410.0
 31
0.0
  0
LINE
  5
6E8A
330
7739
100
AcDbEntity
  8
0
100
AcDbLine
 10
146.3931436188671
 20
2430.0
 30
0.0
 11
141.034159770245
 21
2410.0
 31
0.0
  0
LINE
  5
6E8B
330
7739
100
AcDbEntity
  8
0
100
AcDbLine
 10
146.3931436188671
 20
2410.0
 30
0.0
 11
146.3931436188671
 21
2430.0
 31
0.0
  0
TEXT
  5
6E8C
330
7739
100
AcDbEntity
  8
0
100
AcDbText
 10
837.4999881487747
 20
2647.576268616904
 30
0.0
 40
25.0
  1
1050
100
AcDbText
  0
LINE
  5
6E8D
330
7739
100
AcDbEntity
  8
0
100
AcDbLine
 10
1399.999976297549
 20
2635.076268616904
 30
0.0
 11
1379.999976297549
 21
2629.717284768283
 31
0.0
  0
LINE
  5
6E8E
330
7739
100
AcDbEntity
  8
0
100
AcDbLine
 10
1399.999976297549
 20
2635.076268616904
 30
0.0
 11
1379.999976297549
 21
2640.435252465526
 31
0.0
  0
LINE
  5
6E8F
330
7739
100
AcDbEntity
  8
0
100
AcDbLine
 10
1379.999976297549
 20
2635.076268616904
 30
0.0
 11
1399.999976297549
 21
2635.076268616904
 31
0.0
  0
LINE
  5
6E90
330
7739
100
AcDbEntity
  8
0
100
AcDbLine
 10
350.0000000000002
 20
2635.076268616904
 30
0.0
 11
370.0000000000002
 21
2640.435252465526
 31
0.0
  0
LINE
  5
6E91
330
7739
100
AcDbEntity
  8
0
100
AcDbLine
 10
350.0000000000002
 20
2635.076268616904
 30
0.0
 11
370.0000000000002
 21
2629.717284768282
 31
0.0
  0
LINE
  5
6E92
330
7739
100
AcDbEntity
  8
0
100
AcDbLine
 10
370.0000000000002
 20
2635.076268616904
 30
0.0
 11
350.0000000000002
 21
2635.076268616904
 31
0.0
  0
LINE
  5
6E93
330
7739
100
AcDbEntity
  8
0
100
AcDbLine
 10
149.9999554235242
 20
1588.112605249588
 30
0.0
 11
144.6409715749021
 21
1608.112605249588
 31
0.0
  0
LINE
  5
6E94
330
7739
100
AcDbEntity
  8
0
100
AcDbLine
 10
149.9999554235242
 20
1588.112605249588
 30
0.0
 11
155.3589392721463
 21
1608.112605249588
 31
0.0
  0
LINE
  5
6E95
330
7739
100
AcDbEntity
  8
0
100
AcDbLine
 10
149.9999554235242
 20
1608.112605249588
 30
0.0
 11
149.9999554235242
 21
1588.112605249588
 31
0.0
  0
LINE
  5
6E96
330
7739
100
AcDbEntity
  8
0
100
AcDbLine
 10
149.9999554235242
 20
1726.112605249589
 30
0.0
 11
155.3589392721463
 21
1706.112605249589
 31
0.0
  0
LINE
  5
6E97
330
7739
100
AcDbEntity
  8
0
100
AcDbLine
 10
149.9999554235242
 20
1726.112605249589
 30
0.0
 11
144.6409715749022
 21
1706.112605249589
 31
0.0
  0
LINE
  5
6E98
330
7739
100
AcDbEntity
  8
0
100
AcDbLine
 10
149.9999554235242
 20
1706.112605249589
 30
0.0
 11
149.9999554235242
 21
1726.112605249589
 31
0.0
  0
TEXT
  5
6E99
330
7739
100
AcDbEntity
  8
0
100
AcDbText
 10
131.999955423524
 20
1560.445938582922
 30
0.0
 40
25.0
  1
据付時約138
 50
90.0
100
AcDbText
  0
TEXT
  5
6EA1
330
7739
100
AcDbEntity
  8
0
100
AcDbText
 10
237.4999554235241
 20
1766.112605249589
 30
0.0
 40
25.0
  1
30
 50
90.0
100
AcDbText
  0
LINE
  5
6EA2
330
7739
100
AcDbEntity
  8
0
100
AcDbLine
 10
249.9999554235246
 20
1746.112605249589
 30
0.0
 11
249.9999554235246
 21
1726.112605249589
 31
0.0
  0
LINE
  5
6EA4
330
7739
100
AcDbEntity
  8
0
100
AcDbLine
 10
249.9999554235246
 20
1676.112605249589
 30
0.0
 11
249.9999554235246
 21
1696.112605249589
 31
0.0
  0
LINE
  5
6EA6
330
7739
100
AcDbEntity
  8
0
100
AcDbLine
 10
249.9999554235246
 20
1568.112605249588
 30
0.0
 11
249.9999554235246
 21
1588.112605249588
 31
0.0
  0
LINE
  5
6EA8
330
7739
100
AcDbEntity
  8
0
100
AcDbLine
 10
249.9999554235246
 20
1638.112605249588
 30
0.0
 11
249.9999554235246
 21
1618.112605249588
 31
0.0
  0
TEXT
  5
6EAA
330
7739
100
AcDbEntity
  8
0
100
AcDbText
 10
237.8359159768388
 20
1533.697121351884
 30
0.0
 40
25.0
  1
30
 50
90.0
100
AcDbText
  0
ARC
  5
6EAB
330
7739
100
AcDbEntity
  8
0
100
AcDbCircle
 10
249.9999554235246
 20
1726.112605249589
 30
0.0
 40
2.5
100
AcDbArc
 50
90.0
 51
270.0
  0
ARC
  5
6EAC
330
7739
100
AcDbEntity
  8
0
100
AcDbCircle
 10
249.9999554235246
 20
1726.112605249589
 30
0.0
 40
2.5
100
AcDbArc
 50
270.0
 51
90.0
  0
ARC
  5
6EAD
330
7739
100
AcDbEntity
  8
0
100
AcDbCircle
 10
249.9999554235246
 20
1696.112605249589
 30
0.0
 40
2.5
100
AcDbArc
 50
270.0
 51
90.0
  0
ARC
  5
6EAE
330
7739
100
AcDbEntity
  8
0
100
AcDbCircle
 10
249.9999554235246
 20
1696.112605249589
 30
0.0
 40
2.5
100
AcDbArc
 50
90.0
 51
270.0
  0
ARC
  5
6EAF
330
7739
100
AcDbEntity
  8
0
100
AcDbCircle
 10
249.9999554235246
 20
1588.112605249588
 30
0.0
 40
2.5
100
AcDbArc
 50
270.0
 51
90.0
  0
ARC
  5
6EB0
330
7739
100
AcDbEntity
  8
0
100
AcDbCircle
 10
249.9999554235246
 20
1588.112605249588
 30
0.0
 40
2.5
100
AcDbArc
 50
90.0
 51
270.0
  0
ARC
  5
6EB1
330
7739
100
AcDbEntity
  8
0
100
AcDbCircle
 10
249.9999554235246
 20
1618.112605249588
 30
0.0
 40
2.5
100
AcDbArc
 50
90.0
 51
270.0
  0
ARC
  5
6EB2
330
7739
100
AcDbEntity
  8
0
100
AcDbCircle
 10
249.9999554235246
 20
1618.112605249588
 30
0.0
 40
2.5
100
AcDbArc
 50
270.0
 51
90.0
  0
LINE
  5
764A
330
7739
100
AcDbEntity
  8
0
100
AcDbLine
 10
573.9999672747496
 20
841.413529768981
 30
0.0
 11
181.9999554235245
 21
841.4135297689814
 31
0.0
  0
LINE
  5
764B
330
7739
100
AcDbEntity
  8
0
100
AcDbLine
 10
348.9999672747495
 20
811.4136078910814
 30
0.0
 11
181.9999554235245
 21
811.4136078910814
 31
0.0
  0
LINE
  5
764C
330
7739
100
AcDbEntity
  8
0
100
AcDbLine
 10
199.9999554235246
 20
861.4135297689811
 30
0.0
 11
199.9999554235246
 21
881.4135297689816
 31
0.0
  0
LINE
  5
764D
330
7739
100
AcDbEntity
  8
0
100
AcDbLine
 10
199.9999554235245
 20
791.4136078910813
 30
0.0
 11
199.9999554235245
 21
733.9136078910812
 31
0.0
  0
LINE
  5
764E
330
7739
100
AcDbEntity
  8
0
100
AcDbLine
 10
199.9999554235245
 20
841.4135297689814
 30
0.0
 11
199.9999554235245
 21
811.4136078910814
 31
0.0
  0
INSERT
  5
764F
330
7739
100
AcDbEntity
  8
0
100
AcDbBlockReference
  2
YAZ1
 10
199.9999554235245
 20
841.4135297689814
 30
0.0
 41
20.0
 42
20.0
 43
20.0
 50
270.0
  0
INSERT
  5
7650
330
7739
100
AcDbEntity
  8
0
100
AcDbBlockReference
  2
YAZ1
 10
199.9999554235245
 20
811.4136078910814
 30
0.0
 41
20.0
 42
20.0
 43
20.0
 50
90.0
  0
INSERT
  5
7651
330
7739
100
AcDbEntity
  8
0
100
AcDbBlockReference
  2
*U2
 10
0.0
 20
-111.2508667019519
 30
0.0
  0
LINE
  5
7654
330
7739
100
AcDbEntity
  8
0
100
AcDbLine
 10
574.9999672747495
 20
1192.413529858199
 30
0.0
 11
574.9999672747495
 21
1299.217327590807
 31
0.0
  0
LINE
  5
7655
330
7739
100
AcDbEntity
  8
0
100
AcDbLine
 10
349.9999672747492
 20
1222.41351768056
 30
0.0
 11
349.9999672747492
 21
1299.217327590807
 31
0.0
  0
LINE
  5
7656
330
7739
100
AcDbEntity
  8
0
100
AcDbLine
 10
554.9999672747495
 20
1281.217327590807
 30
0.0
 11
369.9999672747492
 21
1281.217327590807
 31
0.0
  0
INSERT
  5
7657
330
7739
100
AcDbEntity
  8
0
100
AcDbBlockReference
  2
YAZ1
 10
574.9999672747495
 20
1281.217327590807
 30
0.0
 41
20.0
 42
20.0
 43
20.0
  0
INSERT
  5
7658
330
7739
100
AcDbEntity
  8
0
100
AcDbBlockReference
  2
YAZ1
 10
349.9999672747492
 20
1281.217327590807
 30
0.0
 41
20.0
 42
20.0
 43
20.0
 50
180.0
  0
INSERT
  5
7659
330
7739
100
AcDbEntity
  8
0
100
AcDbBlockReference
  2
*U3
 10
0.0
 20
-111.2508667019519
 30
0.0
  0
LINE
  5
765A
330
7739
100
AcDbEntity
  8
0
100
AcDbLine
 10
1174.999967274749
 20
1192.413529858199
 30
0.0
 11
1174.999967274749
 21
1299.217327590807
 31
0.0
  0
LINE
  5
765B
330
7739
100
AcDbEntity
  8
0
100
AcDbLine
 10
1399.999967274749
 20
1222.41351768056
 30
0.0
 11
1399.999967274749
 21
1299.217327590807
 31
0.0
  0
LINE
  5
765C
330
7739
100
AcDbEntity
  8
0
100
AcDbLine
 10
1194.999967274749
 20
1281.217327590807
 30
0.0
 11
1379.999967274749
 21
1281.217327590807
 31
0.0
  0
INSERT
  5
765D
330
7739
100
AcDbEntity
  8
0
100
AcDbBlockReference
  2
YAZ1
 10
1174.999967274749
 20
1281.217327590807
 30
0.0
 41
20.0
 42
20.0
 43
20.0
 50
180.0
  0
INSERT
  5
765E
330
7739
100
AcDbEntity
  8
0
100
AcDbBlockReference
  2
YAZ1
 10
1399.999967274749
 20
1281.217327590807
 30
0.0
 41
20.0
 42
20.0
 43
20.0
  0
INSERT
  5
765F
330
7739
100
AcDbEntity
  8
0
100
AcDbBlockReference
  2
*U4
 10
0.0
 20
-111.2508667019519
 30
0.0
  0
LINE
  5
7660
330
7739
100
AcDbEntity
  8
0
100
AcDbLine
 10
573.9999672747496
 20
1191.41359580266
 30
0.0
 11
181.9999554235245
 21
1191.41359580266
 31
0.0
  0
LINE
  5
7661
330
7739
100
AcDbEntity
  8
0
100
AcDbLine
 10
348.9999672747495
 20
1221.41351768056
 30
0.0
 11
181.9999554235246
 21
1221.41351768056
 31
0.0
  0
LINE
  5
7662
330
7739
100
AcDbEntity
  8
0
100
AcDbLine
 10
199.9999554235246
 20
1171.41359580266
 30
0.0
 11
199.9999554235246
 21
1151.41359580266
 31
0.0
  0
LINE
  5
7663
330
7739
100
AcDbEntity
  8
0
100
AcDbLine
 10
199.9999554235246
 20
1241.41351768056
 30
0.0
 11
199.9999554235246
 21
1298.91351768056
 31
0.0
  0
LINE
  5
7664
330
7739
100
AcDbEntity
  8
0
100
AcDbLine
 10
199.9999554235246
 20
1191.41359580266
 30
0.0
 11
199.9999554235246
 21
1221.41351768056
 31
0.0
  0
INSERT
  5
7665
330
7739
100
AcDbEntity
  8
0
100
AcDbBlockReference
  2
YAZ1
 10
199.9999554235246
 20
1191.41359580266
 30
0.0
 41
20.0
 42
20.0
 43
20.0
 50
90.0
  0
INSERT
  5
7666
330
7739
100
AcDbEntity
  8
0
100
AcDbBlockReference
  2
YAZ1
 10
199.9999554235246
 20
1221.41351768056
 30
0.0
 41
20.0
 42
20.0
 43
20.0
 50
270.0
  0
INSERT
  5
7667
330
7739
100
AcDbEntity
  8
0
100
AcDbBlockReference
  2
*U5
 10
0.0
 20
-111.2508667019519
 30
0.0
  0
MTEXT
  5
7BA3
330
7739
100
AcDbEntity
  8
0
100
AcDbMText
 10
356.6718001847767
 20
1512.089777284842
 30
0.0
 40
30.0
 41
1369.2
 46
0.0
 71
     1
 72
     1
  1
※搭載機器や施工状況等によって、据え付け高さは若干異なる可能性があります。
 73
     1
 44
1.0
  0
LINE
  5
7F3A
330
7739
100
AcDbEntity
  8
0
100
AcDbLine
 10
1402.91674306434
 20
2147.449502075765
 30
0.0
 11
1473.786143941354
 21
2178.430757924676
 31
0.0
  0
TEXT
  5
7F3C
330
7739
100
AcDbEntity
  8
0
100
AcDbText
 10
1485.403784336775
 20
2209.417081174119
 30
0.0
 40
24.0
  1
「配管側」ラベル
 50
89.99999656979346
100
AcDbText
  0
LINE
  5
7F3D
330
7739
100
AcDbEntity
  8
0
100
AcDbLine
 10
1473.786143941354
 20
2178.430757924675
 30
0.0
 11
1473.786143941354
 21
2203.099420034712
 31
0.0
  0
LINE
  5
7F3E
330
7739
100
AcDbEntity
  8
0
100
AcDbLine
 10
1374.999955423523
 20
2207.908480286149
 30
0.0
 11
1374.999955423523
 21
2107.908480286149
 31
0.0
  0
LINE
  5
7F3F
330
7739
100
AcDbEntity
  8
0
100
AcDbLine
 10
1394.999955423523
 20
2207.908480286149
 30
0.0
 11
1394.999955423523
 21
2107.908480286149
 31
0.0
  0
LINE
  5
7F40
330
7739
100
AcDbEntity
  8
0
100
AcDbLine
 10
1394.999955423523
 20
2207.908480286149
 30
0.0
 11
1374.999955423523
 21
2207.908480286149
 31
0.0
  0
LINE
  5
7F41
330
7739
100
AcDbEntity
  8
0
100
AcDbLine
 10
1394.999955423523
 20
2107.908480286149
 30
0.0
 11
1374.999955423523
 21
2107.908480286149
 31
0.0
  0
LINE
  5
7F42
330
7739
100
AcDbEntity
  8
0
100
AcDbLine
 10
1384.591308051555
 20
2139.438357863344
 30
0.0
 11
1400.770163442173
 21
2152.359787588389
 31
0.0
  0
LINE
  5
7F43
330
7739
100
AcDbEntity
  8
0
100
AcDbLine
 10
1384.591308051555
 20
2139.438357863344
 30
0.0
 11
1405.063322686507
 21
2142.539216563141
 31
0.0
  0
LINE
  5
7F44
330
7739
100
AcDbEntity
  8
0
100
AcDbLine
 10
1402.91674306434
 20
2147.449502075765
 30
0.0
 11
1384.591308051555
 21
2139.438357863344
 31
0.0
  0
ENDSEC
  0
SECTION
  2
OBJECTS
  0
DICTIONARY
  5
76D6
330
0
100
AcDbDictionary
281
     1
  3
ACAD_CIP_PREVIOUS_PRODUCT_INFO
350
77A7
  3
ACAD_COLOR
350
772C
  3
ACAD_DETAILVIEWSTYLE
350
7733
  3
ACAD_FIELDLIST
350
77F0
  3
ACAD_GROUP
350
76D7
  3
ACAD_LAYOUT
350
772B
  3
ACAD_MATERIAL
350
76DA
  3
ACAD_MLEADERSTYLE
350
772F
  3
ACAD_MLINESTYLE
350
7728
  3
ACAD_PLOTSETTINGS
350
772A
  3
ACAD_PLOTSTYLENAME
350
76D8
  3
ACAD_SCALELIST
350
770C
  3
ACAD_SECTIONVIEWSTYLE
350
7731
  3
ACAD_TABLESTYLE
350
772D
  3
ACAD_VISUALSTYLE
350
76F3
  3
ACDB_RECOMPOSE_DATA
350
7F47
  3
AcDbVariableDictionary
350
7BE4
  3
AcmDictionary
350
77CD
  3
AMG
350
77A8
  3
AMGSNAPSETTINGS
350
7801
  0
DICTIONARY
  5
7B99
330
76CC
100
AcDbDictionary
280
     1
281
     1
  3
ACAD_LAYERSTATES
360
7B9A
  0
DICTIONARY
  5
7BDE
330
771E
100
AcDbDictionary
280
     1
281
     1
  3
ADSK_XREC_LAYER_RECONCILED
360
7BDF
  0
DICTIONARY
  5
7BE0
330
7754
100
AcDbDictionary
280
     1
281
     1
  3
ADSK_XREC_LAYER_RECONCILED
360
7BE1
  0
DICTIONARY
  5
7ADD
330
7739
100
AcDbDictionary
280
     1
281
     1
  3
ACAD_SORTENTS
360
7ADE
  0
XRECORD
  5
77A7
102
{ACAD_REACTORS
330
76D6
102
}
330
76D6
100
AcDbXrecord
280
     1
300
AMECH_PP
300
2021
300
87400AMECH_PP_2021_0F
  0
DICTIONARY
  5
772C
102
{ACAD_REACTORS
330
76D6
102
}
330
76D6
100
AcDbDictionary
281
     1
  0
DICTIONARY
  5
7733
102
{ACAD_REACTORS
330
76D6
102
}
330
76D6
100
AcDbDictionary
281
     1
  3
Imperial24
350
7734
  3
Metric50
350
7E90
  0
FIELDLIST
  5
77F0
102
{ACAD_REACTORS
330
76D6
102
}
330
76D6
100
AcDbIdSet
 90
       14
330
7E2A
330
7E2B
330
7E2C
330
7E2D
330
7E31
330
7E32
330
7E33
330
7E34
330
7E84
330
7E85
330
7E86
330
7E8A
330
7E8B
330
7E8C
100
AcDbFieldList
  0
DICTIONARY
  5
76D7
102
{ACAD_REACTORS
330
76D6
102
}
330
76D6
100
AcDbDictionary
281
     1
  0
DICTIONARY
  5
772B
102
{ACAD_REACTORS
330
76D6
102
}
330
76D6
100
AcDbDictionary
281
     1
  3
Model
350
773C
  3
レイアウト1
350
7738
  0
DICTIONARY
  5
76DA
102
{ACAD_REACTORS
330
76D6
102
}
330
76D6
100
AcDbDictionary
281
     1
  3
ByBlock
350
76E3
  3
ByLayer
350
76DB
  3
Global
350
76EB
  0
DICTIONARY
  5
772F
102
{ACAD_REACTORS
330
76D6
102
}
330
76D6
100
AcDbDictionary
281
     1
  3
Standard
350
7730
  0
DICTIONARY
  5
7728
102
{ACAD_REACTORS
330
76D6
102
}
330
76D6
100
AcDbDictionary
281
     1
  3
Standard
350
7729
  0
DICTIONARY
  5
772A
102
{ACAD_REACTORS
330
76D6
102
}
330
76D6
100
AcDbDictionary
281
     1
  0
ACDBDICTIONARYWDFLT
  5
76D8
102
{ACAD_REACTORS
330
76D6
102
}
330
76D6
100
AcDbDictionary
281
     1
  3
Normal
350
76D9
100
AcDbDictionaryWithDefault
340
76D9
  0
DICTIONARY
  5
770C
102
{ACAD_REACTORS
330
76D6
102
}
330
76D6
100
AcDbDictionary
281
     1
  3
A0
350
770D
  3
A1
350
770E
  3
A2
350
770F
  3
A3
350
7710
  3
A4
350
7711
  3
A5
350
7712
  3
A6
350
7713
  3
A7
350
7714
  3
A8
350
7715
  3
A9
350
7716
  3
B0
350
7717
  3
B1
350
7718
  3
B2
350
7719
  3
B3
350
771A
  3
B4
350
771B
  3
B5
350
771C
  3
B6
350
771D
  0
DICTIONARY
  5
7731
102
{ACAD_REACTORS
330
76D6
102
}
330
76D6
100
AcDbDictionary
281
     1
  3
Imperial24
350
7732
  3
Metric50
350
7E8D
  0
DICTIONARY
  5
772D
102
{ACAD_REACTORS
330
76D6
102
}
330
76D6
100
AcDbDictionary
281
     1
  3
Standard
350
772E
  0
DICTIONARY
  5
76F3
102
{ACAD_REACTORS
330
76D6
102
}
330
76D6
100
AcDbDictionary
281
     1
  3
2dWireframe
350
76F9
  3
Basic
350
76F8
  3
Brighten
350
76FF
  3
ColorChange
350
7703
  3
Conceptual
350
76FC
  3
Dim
350
76FE
  3
EdgeColorOff
350
770B
  3
Facepattern
350
7702
  3
Flat
350
76F4
  3
FlatWithEdges
350
76F5
  3
Gouraud
350
76F6
  3
GouraudWithEdges
350
76F7
  3
Hidden
350
76FB
  3
JitterOff
350
7709
  3
Linepattern
350
7701
  3
OverhangOff
350
770A
  3
Realistic
350
76FD
  3
Shaded
350
7708
  3
Shaded with edges
350
7707
  3
Shades of Gray
350
7704
  3
Sketchy
350
7705
  3
Thicken
350
7700
  3
Wireframe
350
76FA
  3
X-Ray
350
7706
  0
XRECORD
  5
7F47
102
{ACAD_REACTORS
330
76D6
102
}
330
76D6
100
AcDbXrecord
280
     1
 90
        1
330
772E
  0
DICTIONARY
  5
7BE4
102
{ACAD_REACTORS
330
76D6
102
}
330
76D6
100
AcDbDictionary
281
     1
  3
CANNOSCALE
350
7BEA
  3
CMLEADERSTYLE
350
7BE6
  3
CTABLESTYLE
350
7BE5
  3
CVIEWDETAILSTYLE
350
7BE7
  3
CVIEWSECTIONSTYLE
350
7BE8
  3
LAYEREVAL
350
7BEC
  3
LAYERNOTIFY
350
7BED
  3
LIGHTINGUNITS
350
7BEB
  3
MSLTSCALE
350
7BE9
  3
XCLIPFRAME
350
7F45
  0
DICTIONARY
  5
77CD
102
{ACAD_REACTORS
330
76D6
102
}
330
76D6
100
AcDbDictionary
281
     1
  3
AcmStdDictionary
350
77D4
  0
DICTIONARY
  5
77A8
102
{ACAD_REACTORS
330
76D6
102
}
330
76D6
100
AcDbDictionary
281
     1
  0
DICTIONARY
  5
7801
102
{ACAD_REACTORS
330
76D6
102
}
330
76D6
100
AcDbDictionary
281
     1
  0
DICTIONARY
  5
7B9A
102
{ACAD_REACTORS
330
7B99
102
}
330
7B99
100
AcDbDictionary
281
     1
  0
XRECORD
  5
7BDF
102
{ACAD_REACTORS
330
7BDE
102
}
330
7BDE
100
AcDbXrecord
280
     1
290
     1
  0
XRECORD
  5
7BE1
102
{ACAD_REACTORS
330
7BE0
102
}
330
7BE0
100
AcDbXrecord
280
     1
290
     1
  0
SORTENTSTABLE
  5
7ADE
102
{ACAD_REACTORS
330
7ADD
102
}
330
7ADD
100
AcDbSortentsTable
330
7739
331
86E
  5
2D03
331
86F
  5
2D04
331
87D
  5
2D05
331
8FF
  5
2D06
331
2D03
  5
2D08
331
2D04
  5
2D09
331
2D05
  5
2D0A
331
2D06
  5
2D0B
331
2D08
  5
2D0C
331
2D09
  5
2D0D
331
2D0A
  5
2D0E
331
2D0B
  5
2D0F
331
2D0C
  5
2D10
331
2D0D
  5
2D11
331
2D0E
  5
2D12
331
2D0F
  5
2D13
331
2D10
  5
2D14
331
2D11
  5
2D15
331
2D12
  5
2D16
331
2D13
  5
2D17
331
2D14
  5
2D18
331
2D15
  5
2D19
331
2D16
  5
2D1A
331
2D17
  5
2D1F
331
2D18
  5
2D20
331
2D19
  5
2D21
331
2D1A
  5
2D22
331
2D1F
  5
2D23
331
2D20
  5
2D24
331
2D21
  5
2D25
331
2D22
  5
2D26
331
2D23
  5
2D27
331
2D24
  5
2D28
331
2D25
  5
2D29
331
2D26
  5
2D2A
331
2D27
  5
2D2B
331
2D28
  5
2D2C
331
2D29
  5
2D2D
331
2D2A
  5
2D2E
331
2D2B
  5
2D2F
331
2D2C
  5
2D30
331
2D2D
  5
2D31
331
2D2E
  5
2D32
331
2D2F
  5
2D33
331
2D30
  5
2D34
331
2D31
  5
2D35
331
2D32
  5
2D36
331
2D33
  5
2D37
331
2D34
  5
2D38
331
2D35
  5
2D39
331
2D36
  5
2D3A
331
2D37
  5
2D3B
331
2D38
  5
2D3C
331
2D39
  5
2D3D
331
2D3A
  5
2D3E
331
2D3B
  5
2D3F
331
2D3C
  5
2D40
331
2D3D
  5
2D41
331
2D3E
  5
2D42
331
2D3F
  5
2D43
331
2D40
  5
2D44
331
2D41
  5
2D45
331
2D42
  5
2D46
331
2D43
  5
2D47
331
2D44
  5
2D48
331
2D45
  5
2D49
331
2D46
  5
2D4A
331
2D47
  5
2D4B
331
2D48
  5
2D4C
331
2D49
  5
2D4D
331
2D4A
  5
2D4E
331
2D4B
  5
2D4F
331
2D4C
  5
2D50
331
2D4D
  5
2D51
331
2D4E
  5
2D55
331
2D4F
  5
2D56
331
2D50
  5
2D57
331
2D51
  5
2D58
331
2D55
  5
2D59
331
2D56
  5
2D5A
331
2D57
  5
2D5B
331
2D58
  5
2D5C
331
2D59
  5
2D5D
331
2D5A
  5
2D5E
331
2D5B
  5
2D60
331
2D5C
  5
2D61
331
2D5D
  5
2D62
331
2D5E
  5
2D63
331
2D60
  5
2D64
331
2D61
  5
2D65
331
2D62
  5
2D66
331
2D63
  5
2D67
331
2D64
  5
2D68
331
2D65
  5
2D69
331
2D66
  5
2D6A
331
2D67
  5
2D6B
331
2D68
  5
2D6C
331
2D69
  5
2D6D
331
2D6A
  5
2D6F
331
2D6B
  5
2DB9
331
2D6C
  5
2DBA
331
2D6D
  5
2DBB
331
2D6F
  5
2DBC
331
2DB9
  5
2DBD
331
2DBA
  5
2DBE
331
2DBB
  5
2DBF
331
2DBC
  5
2DC0
331
2DBD
  5
2DC1
331
2DBE
  5
2DC2
331
2DBF
  5
2DC3
331
2DC0
  5
2DC4
331
2DC1
  5
2DC5
331
2DC2
  5
2DC6
331
2DC3
  5
2DC7
331
2DC4
  5
2DC8
331
2DC5
  5
2DC9
331
2DC6
  5
2DCA
331
2DC7
  5
2DCB
331
2DC8
  5
2DCC
331
2DC9
  5
2DCD
331
2DCA
  5
2DCE
331
2DCB
  5
2DCF
331
2DCC
  5
2DD0
331
2DCD
  5
2DD1
331
2DCE
  5
2DD3
331
2DCF
  5
2DD5
331
2DD0
  5
2DD6
331
2DD1
  5
2DD7
331
2DD3
  5
2DD8
331
2DD5
  5
2DD9
331
2DD6
  5
2DDA
331
2DD7
  5
2DDB
331
2DD8
  5
2DDC
331
2DD9
  5
2DDD
331
2DDA
  5
2DDE
331
2DDB
  5
2DDF
331
2DDC
  5
2DE0
331
2DDD
  5
2DE1
331
2DDE
  5
2DE2
331
2DDF
  5
2DE3
331
2DE0
  5
2DE4
331
2DE1
  5
2DE5
331
2DE2
  5
2DE6
331
2DE3
  5
2DE7
331
2DE4
  5
2DE8
331
2DE5
  5
2DE9
331
2DE6
  5
2DEA
331
2DE7
  5
2DEB
331
2DE8
  5
2DEC
331
2DE9
  5
2DED
331
2DEA
  5
2DEE
331
2DEB
  5
2DEF
331
2DEC
  5
2DF0
331
2DED
  5
2DF1
331
2DEE
  5
2DF2
331
2DEF
  5
2DF3
331
2DF0
  5
2DF4
331
2DF1
  5
2DF5
331
2DF2
  5
2DF6
331
2DF3
  5
2DF7
331
2DF4
  5
2DF8
331
2DF5
  5
2DF9
331
2DF6
  5
2DFA
331
2DF7
  5
2DFB
331
2DF8
  5
2DFC
331
2DF9
  5
2DFD
331
2DFA
  5
2DFE
331
2DFB
  5
2DFF
331
2DFC
  5
2E00
331
2DFD
  5
2E01
331
2DFE
  5
2E02
331
2DFF
  5
2E03
331
2E00
  5
2E04
331
2E01
  5
2E05
331
2E02
  5
2E06
331
2E03
  5
2E07
331
2E04
  5
2E08
331
2E05
  5
2E09
331
2E06
  5
2E0A
331
2E07
  5
2E0B
331
2E08
  5
2E0C
331
2E09
  5
2E0D
331
2E0A
  5
2E0E
331
2E0B
  5
2E0F
331
2E0C
  5
2E10
331
2E0D
  5
2E11
331
2E0E
  5
2E12
331
2E0F
  5
2E13
331
2E10
  5
2E14
331
2E11
  5
2E15
331
2E12
  5
2E16
331
2E13
  5
2E1F
331
2E14
  5
2E20
331
2E15
  5
2E23
331
2E16
  5
2E24
331
2E1F
  5
2E27
331
2E20
  5
2E28
331
2E23
  5
2E29
331
2E24
  5
2E2A
331
2E27
  5
2E2E
331
2E28
  5
2E2F
331
2E29
  5
2E30
331
2E2A
  5
2E32
331
2E2E
  5
2E33
331
2E2F
  5
2E34
331
2E30
  5
3278
331
2E32
  5
327F
331
2E33
  5
3280
331
2E34
  5
3281
331
327F
  5
3284
331
3280
  5
3285
331
3281
  5
3286
331
3282
  5
3287
331
3284
  5
3288
331
3285
  5
3289
331
3286
  5
328B
331
3287
  5
328C
331
3288
  5
328D
331
3289
  5
328E
331
328B
  5
328F
331
328C
  5
3290
331
328D
  5
3291
331
328E
  5
3292
331
328F
  5
3294
331
3290
  5
3295
331
3291
  5
3296
331
3292
  5
3297
331
3294
  5
3298
331
3295
  5
3299
331
3296
  5
329A
331
3297
  5
329B
331
3298
  5
329D
331
3299
  5
329E
331
329A
  5
32A3
331
329B
  5
32A5
331
329D
  5
32A7
331
329E
  5
32A8
331
32A3
  5
32AB
331
32A5
  5
32AE
331
32A7
  5
32B0
331
32A8
  5
32B1
331
32AB
  5
32B3
331
32AE
  5
32B6
331
32B0
  5
32B7
331
32B1
  5
32B8
331
32B3
  5
32B9
331
32B6
  5
32BA
331
32B7
  5
32BC
331
32B8
  5
32BD
331
32B9
  5
32BE
331
32BA
  5
32BF
331
32BC
  5
32C0
331
32BD
  5
32C1
331
32BE
  5
32C4
331
32BF
  5
32C5
331
32C0
  5
32C6
331
32C1
  5
32C7
331
32C4
  5
32C8
331
32C5
  5
32C9
331
32C6
  5
32CA
331
32C7
  5
32CB
331
32C8
  5
32CD
331
32C9
  5
32CE
331
32CA
  5
32CF
331
32CB
  5
32D0
331
32CD
  5
32D1
331
32CE
  5
354C
331
32CF
  5
354D
331
354C
  5
3550
331
354D
  5
3551
331
354E
  5
3552
331
354F
  5
3553
331
3550
  5
3554
331
3551
  5
3555
331
3552
  5
3556
331
3553
  5
3557
331
3554
  5
3558
331
3555
  5
3559
331
3556
  5
355A
331
3557
  5
355B
331
3558
  5
355D
331
3559
  5
355E
331
355A
  5
355F
331
355B
  5
3560
331
355D
  5
3561
331
355E
  5
3563
331
355F
  5
3564
331
3560
  5
3565
331
3561
  5
3566
331
3563
  5
3567
331
3564
  5
3568
331
3565
  5
3569
331
3566
  5
356A
331
3567
  5
356B
331
3568
  5
356C
331
3569
  5
356D
331
356A
  5
356E
331
356B
  5
356F
331
356C
  5
3570
331
356D
  5
3571
331
356E
  5
3572
331
356F
  5
3573
331
3570
  5
3574
331
3571
  5
3575
331
3572
  5
3576
331
3573
  5
3577
331
3574
  5
3578
331
3575
  5
3579
331
3576
  5
357A
331
3577
  5
357B
331
3578
  5
357C
331
3579
  5
357D
331
357A
  5
357E
331
357B
  5
357F
331
357C
  5
3580
331
357D
  5
3581
331
357E
  5
3582
331
357F
  5
3583
331
3580
  5
3584
331
3581
  5
3585
331
3582
  5
3586
331
3583
  5
3587
331
3584
  5
3588
331
3585
  5
3589
331
3586
  5
358A
331
3587
  5
358B
331
3588
  5
358C
331
3589
  5
358D
331
358A
  5
358E
331
358B
  5
358F
331
358C
  5
3590
331
358D
  5
3591
331
358E
  5
3592
331
358F
  5
3593
331
3590
  5
3594
331
3591
  5
3595
331
3592
  5
3596
331
3593
  5
3597
331
3594
  5
3598
331
3595
  5
3599
331
3596
  5
359A
331
3597
  5
359B
331
3598
  5
359C
331
3599
  5
359D
331
359A
  5
359E
331
359B
  5
359F
331
359C
  5
35A0
331
359D
  5
35A1
331
359E
  5
35A2
331
359F
  5
35A3
331
35A0
  5
35A4
331
35A1
  5
35A5
331
35A2
  5
35A6
331
35A3
  5
35A7
331
35A4
  5
35A8
331
35A5
  5
35A9
331
35A6
  5
35AA
331
35A7
  5
35AB
331
35A8
  5
35AC
331
35A9
  5
35AD
331
35AA
  5
35AE
331
35AB
  5
35AF
331
35AC
  5
35B0
331
35AD
  5
35B1
331
35AE
  5
35B2
331
35AF
  5
35B3
331
35B0
  5
35B4
331
35B1
  5
35B5
331
35B2
  5
35B6
331
35B3
  5
35B7
331
35B4
  5
35B8
331
35B5
  5
35B9
331
35B6
  5
35BA
331
35B7
  5
35BB
331
35B8
  5
35BC
331
35B9
  5
35BD
331
35BA
  5
35BE
331
35BB
  5
35BF
331
35BC
  5
35C0
331
35BD
  5
35C1
331
35BE
  5
35C2
331
35BF
  5
35C3
331
35C0
  5
35C4
331
35C1
  5
35C5
331
35C2
  5
35C6
331
35C3
  5
35C7
331
35C4
  5
35C8
331
35C5
  5
35C9
331
35C6
  5
35CA
331
35C7
  5
35CB
331
35C8
  5
35CC
331
35C9
  5
35CD
331
35CA
  5
35CE
331
35CB
  5
35CF
331
35CC
  5
35D0
331
35CD
  5
35D1
331
35CE
  5
35D2
331
35CF
  5
35D3
331
35D0
  5
35D4
331
35D1
  5
35D5
331
35D2
  5
35D6
331
35D3
  5
35D7
331
35D4
  5
35D8
331
35D5
  5
35D9
331
35D6
  5
35DA
331
35D7
  5
35DB
331
35D8
  5
35DC
331
35D9
  5
35DD
331
35DA
  5
35DE
331
35DB
  5
35DF
331
35DC
  5
35E0
331
35DD
  5
35E1
331
35DE
  5
35E2
331
35DF
  5
35E3
331
35E0
  5
35E4
331
35E1
  5
35E5
331
35E2
  5
35E6
331
35E3
  5
35E7
331
35E4
  5
35E8
331
35E5
  5
35E9
331
35E6
  5
35EA
331
35E7
  5
35EB
331
35E8
  5
35EC
331
35E9
  5
35ED
331
35EA
  5
35EE
331
35EB
  5
35EF
331
35EC
  5
35F0
331
35ED
  5
35F1
331
35EE
  5
35F2
331
35EF
  5
35F3
331
35F0
  5
35F4
331
35F1
  5
35F5
331
35F2
  5
35F6
331
35F3
  5
35F7
331
35F4
  5
35F8
331
35F5
  5
35F9
331
35F6
  5
35FA
331
35F7
  5
35FB
331
35F8
  5
35FC
331
35F9
  5
35FD
331
35FA
  5
35FE
331
35FB
  5
35FF
331
35FC
  5
3600
331
35FD
  5
3601
331
35FE
  5
3602
331
35FF
  5
3603
331
3600
  5
3604
331
3601
  5
3605
331
3602
  5
3606
331
3603
  5
3607
331
3604
  5
3608
331
3605
  5
3609
331
3606
  5
360A
331
3607
  5
360B
331
3608
  5
360C
331
3609
  5
360D
331
360A
  5
360F
331
360B
  5
3610
331
360C
  5
36AB
331
360D
  5
36AC
331
360F
  5
36AD
331
3610
  5
36AE
331
36AB
  5
6976
331
36AC
  5
6977
331
36AD
  5
6978
331
36AE
  5
6979
331
69C5
  5
69C9
331
69C6
  5
69CA
331
69C7
  5
69CB
331
69C8
  5
69CC
331
69C9
  5
69CD
331
69CA
  5
69CE
331
69CB
  5
69CF
331
69CC
  5
69D0
331
69CD
  5
69D1
331
69CE
  5
69D2
331
69CF
  5
69D3
331
69D0
  5
69D4
331
69D1
  5
69D5
331
69D3
  5
69D7
331
69D4
  5
69D8
331
69D5
  5
69D9
331
69D6
  5
69DA
331
69D7
  5
69DB
331
69D8
  5
69DC
331
69D9
  5
69DD
331
69DA
  5
69DE
331
69DB
  5
69DF
331
69DC
  5
69E0
331
69DD
  5
69E1
331
69DE
  5
69E2
331
69DF
  5
69E3
331
69E0
  5
69E4
331
69E1
  5
69E5
331
69E2
  5
69E6
331
69E3
  5
69E7
331
69E4
  5
69E8
331
69E5
  5
69E9
331
69E7
  5
69EB
331
69E8
  5
69EC
331
69E9
  5
69ED
331
69EA
  5
69EE
331
69EB
  5
69EF
331
69EC
  5
69F0
331
69ED
  5
69F1
331
69EE
  5
69F2
331
69EF
  5
69F3
331
69F0
  5
69F4
331
69F1
  5
69F5
331
69F2
  5
69F6
331
69F3
  5
69F7
331
69F4
  5
69F8
331
69F5
  5
69F9
331
69F6
  5
69FA
331
69F7
  5
69FB
331
69F8
  5
69FC
331
69F9
  5
69FD
331
69FB
  5
69FF
331
69FC
  5
6A00
331
69FD
  5
6A01
331
69FE
  5
6A02
331
69FF
  5
6A03
331
6A00
  5
6A04
331
6A01
  5
6A05
331
6A02
  5
6A06
331
6A03
  5
6A07
331
6A04
  5
6A08
331
6A05
  5
6A09
331
6A06
  5
6A0A
331
6A07
  5
6A0B
331
6A08
  5
6A0C
331
6A09
  5
6A0D
331
6A0A
  5
6A0E
331
6A0B
  5
6A0F
331
6A0C
  5
6A10
331
6A0D
  5
6A11
331
6A0F
  5
6A13
331
6A10
  5
6A14
331
6A11
  5
6A15
331
6A12
  5
6A18
331
6A13
  5
6B0B
331
6A14
  5
6B0C
331
6A15
  5
6B0E
331
6A18
  5
6B11
331
6B0B
  5
6CB1
331
6B0C
  5
6CB3
331
6B0E
  5
6D82
331
6B11
  5
6D8E
331
6CB1
  5
6D8F
331
6CB3
  5
6E0E
331
6D82
  5
6E0F
331
6D8E
  5
6E10
331
6D8F
  5
6E14
331
6E0E
  5
6E15
331
6E0F
  5
6E16
331
6E10
  5
6E1C
331
6E14
  5
6E1E
331
6E15
  5
6E1F
331
6E16
  5
6E20
331
6E1C
  5
6E21
331
6E21
  5
6E26
331
6E23
  5
6E28
331
6E24
  5
6E2A
331
6E25
  5
6E2B
331
6E26
  5
6E2C
331
6E28
  5
6E30
331
6E2A
  5
6E31
331
6E2B
  5
6E32
331
6E2C
  5
6E36
331
6E30
  5
6E37
331
6E31
  5
6E38
331
6E32
  5
6E39
331
6E36
  5
6E3A
331
6E37
  5
6E3B
331
6E38
  5
6E3C
331
6E39
  5
6E3D
331
6E3A
  5
6E3E
331
6E3B
  5
6E3F
331
6E3C
  5
6E40
331
6E3D
  5
6E41
331
6E3E
  5
6E45
331
6E3F
  5
6E46
331
6E40
  5
6E47
331
6E41
  5
6E4B
331
6E45
  5
6E4D
331
6E46
  5
6E4E
331
6E4B
  5
6E4F
331
6E4C
  5
6E53
331
6E4D
  5
6E54
331
6E4E
  5
6E55
331
6E4F
  5
6E56
331
6E53
  5
6E58
331
6E54
  5
6E5B
331
6E55
  5
6E5C
331
6E56
  5
6E5D
331
6E58
  5
6E5E
331
6E5B
  5
6E5F
331
6E5C
  5
6E60
331
6E5D
  5
6E61
331
6E5E
  5
6E62
331
6E5F
  5
6E63
331
6E60
  5
6E64
331
6E61
  5
6E65
331
6E62
  5
6E66
331
6E63
  5
6E67
331
6E64
  5
6E68
331
6E65
  5
6E69
331
6E66
  5
6E6A
331
6E67
  5
6E6B
331
6E68
  5
6E6C
331
6E69
  5
6E6D
331
6E6A
  5
6E6E
331
6E6B
  5
6E6F
331
6E6C
  5
6E70
331
6E6D
  5
6E71
331
6E6E
  5
6E72
331
6E6F
  5
6E73
331
6E70
  5
6E74
331
6E71
  5
6E75
331
6E72
  5
6E76
331
6E73
  5
6E77
331
6E74
  5
6E78
331
6E75
  5
6E79
331
6E76
  5
6E7A
331
6E77
  5
6E7B
331
6E78
  5
6E7C
331
6E79
  5
6E7D
331
6E7A
  5
6E7E
331
6E7B
  5
6E7F
331
6E7C
  5
6E80
331
6E7D
  5
6E81
331
6E7E
  5
6E82
331
6E7F
  5
6E83
331
6E80
  5
6E84
331
6E81
  5
6E85
331
6E82
  5
6E86
331
6E83
  5
6E87
331
6E84
  5
6E88
331
6E85
  5
6E89
331
6E86
  5
6E8A
331
6E87
  5
6E8B
331
6E88
  5
6E8C
331
6E89
  5
6E8D
331
6E8A
  5
6E8E
331
6E8B
  5
6E8F
331
6E8C
  5
6E90
331
6E8D
  5
6E91
331
6E8E
  5
6E92
331
6E8F
  5
6E93
331
6E90
  5
6E94
331
6E91
  5
6E95
331
6E92
  5
6E96
331
6E93
  5
6E97
331
6E94
  5
6E98
331
6E95
  5
6E99
331
6E96
  5
6E9A
331
6E97
  5
6E9B
331
6E98
  5
6EA4
331
6E99
  5
6EA6
331
6EA1
  5
6EA8
331
6EA2
  5
6EAA
331
6EA4
  5
6EAB
331
6EA6
  5
6EAC
331
6EA8
  5
6EAD
331
6EAA
  5
6EAE
331
6EAB
  5
6EAF
331
6EAC
  5
6EB0
331
6EAD
  5
6EB1
331
6EAE
  5
6EB2
331
6EAF
  5
764A
331
6EB0
  5
764B
331
6EB1
  5
764C
331
6EB2
  5
764D
331
764A
  5
764E
331
764B
  5
764F
331
764C
  5
7650
331
764D
  5
7651
331
764E
  5
7654
331
764F
  5
7655
331
7650
  5
7656
331
7651
  5
7657
331
7654
  5
7658
331
7655
  5
7659
331
7656
  5
765A
331
7657
  5
765B
331
7658
  5
765C
331
7659
  5
765D
331
765A
  5
765E
331
765B
  5
765F
331
765C
  5
7660
331
765D
  5
7661
331
765E
  5
7662
331
765F
  5
7663
331
7660
  5
7664
331
7661
  5
7665
331
7662
  5
7666
331
7663
  5
7667
331
7664
  5
7808
331
7665
  5
7809
331
7666
  5
780A
331
7667
  5
780B
331
7F3C
  5
7F3F
331
7F3D
  5
7F40
331
7F3E
  5
7F41
331
7F3F
  5
7F42
331
7F40
  5
7F43
331
7F41
  5
7F44
331
7F42
  5
7F3C
331
7F43
  5
7F3D
331
7F44
  5
7F3E
  0
ACDBDETAILVIEWSTYLE
  5
7734
102
{ACAD_XDICTIONARY
360
7F7A
102
}
102
{ACAD_REACTORS
330
7733
330
7E25
102
}
330
7733
100
AcDbModelDocViewStyle
 70
     0
  3
Imperial24
290
     0
100
AcDbDetailViewStyle
 70
     0
 71
     0
 90
        3
 71
     1
340
771F
 62
   256
 40
0.24
340
0
 62
   256
 40
0.24
300

 40
0.36
280
     3
 71
     2
340
7726
 90
       25
 62
   256
 71
     3
340
771F
 62
   256
 40
0.24
 90
        1
 40
0.75
 90
        1
300
%<\AcVar ViewType \f "%tc1">% %<\AcVar ViewDetailId>%\PSCALE %<\AcVar ViewScale \f "%sn">%
 71
     4
340
7726
 90
       25
 62
   256
340
7726
 90
       25
 62
   256
280
     0
  0
ACDBDETAILVIEWSTYLE
  5
7E90
102
{ACAD_XDICTIONARY
360
7F7E
102
}
102
{ACAD_REACTORS
330
7733
330
7EE2
102
}
330
7733
100
AcDbModelDocViewStyle
 70
     0
  3
Metric50
290
     0
100
AcDbDetailViewStyle
 70
     0
 71
     0
 90
        3
 71
     1
340
771F
 62
   256
 40
5.0
340
0
 62
   256
 40
5.0
300

 40
0.0
280
     1
 71
     2
340
7726
 90
       25
 62
   256
 71
     3
340
771F
 62
   256
 40
5.0
 90
        0
 40
15.0
 90
        1
300
%<\AcVar ViewDetailId>% (%<\AcVar ViewScale \f "%sn">%)
 71
     4
340
7726
 90
       25
 62
   256
340
7726
 90
       25
 62
   256
280
     0
  0
LAYOUT
  5
773C
102
{ACAD_REACTORS
330
772B
102
}
330
772B
100
AcDbPlotSettings
  1

  2
産機2F_DocuPrint 4050
  4

  6

 40
0.0
 41
0.0
 42
0.0
 43
0.0
 44
0.0
 45
0.0
 46
0.0
 47
0.0
 48
0.0
 49
0.0
140
0.0
141
0.0
142
1.0
143
1.0
 70
  1712
 72
     0
 73
     0
 74
     0
  7

 75
     0
147
1.0
 76
     0
 77
     2
 78
   300
148
0.0
149
0.0
100
AcDbLayout
  1
Model
 70
     1
 71
     0
 10
0.0
 20
0.0
 11
12.0
 21
9.0
 12
0.0
 22
0.0
 32
0.0
 14
0.0
 24
0.0
 34
0.0
 15
0.0
 25
0.0
 35
0.0
146
0.0
 13
0.0
 23
0.0
 33
0.0
 16
1.0
 26
0.0
 36
0.0
 17
0.0
 27
1.0
 37
0.0
 76
     0
330
7739
331
773D
  0
LAYOUT
  5
7738
102
{ACAD_REACTORS
330
772B
102
}
330
772B
100
AcDbPlotSettings
  1

  2
産機2F_DocuPrint 4050
  4

  6

 40
0.0
 41
0.0
 42
0.0
 43
0.0
 44
0.0
 45
0.0
 46
0.0
 47
0.0
 48
0.0
 49
0.0
140
0.0
141
0.0
142
1.0
143
1.0
 70
   688
 72
     0
 73
     0
 74
     5
  7

 75
    16
147
1.0
 76
     0
 77
     2
 78
   300
148
0.0
149
0.0
100
AcDbLayout
  1
レイアウト1
 70
     0
 71
     1
 10
0.0
 20
0.0
 11
12.0
 21
9.0
 12
0.0
 22
0.0
 32
0.0
 14
1.000000000000000E+20
 24
1.000000000000000E+20
 34
1.000000000000000E+20
 15
-1.000000000000000E+20
 25
-1.000000000000000E+20
 35
-1.000000000000000E+20
146
0.0
 13
0.0
 23
0.0
 33
0.0
 16
1.0
 26
0.0
 36
0.0
 17
0.0
 27
1.0
 37
0.0
 76
     0
330
7735
  0
MATERIAL
  5
76E3
102
{ACAD_XDICTIONARY
360
76E4
102
}
102
{ACAD_REACTORS
330
76DA
102
}
330
76DA
100
AcDbMaterial
  1
ByBlock
 72
     0
 43
0.0208333333333333
 43
0.0
 43
0.0
 43
0.0
 43
0.0
 43
0.0208333333333333
 43
0.0
 43
0.0
 43
0.0
 43
0.0
 43
1.0
 43
0.0
 43
0.0
 43
0.0
 43
0.0
 43
1.0
 77
     0
 47
0.0208333333333333
 47
0.0
 47
0.0
 47
0.0
 47
0.0
 47
0.0208333333333333
 47
0.0
 47
0.0
 47
0.0
 47
0.0
 47
1.0
 47
0.0
 47
0.0
 47
0.0
 47
0.0
 47
1.0
171
     0
 49
0.0208333333333333
 49
0.0
 49
0.0
 49
0.0
 49
0.0
 49
0.0208333333333333
 49
0.0
 49
0.0
 49
0.0
 49
0.0
 49
1.0
 49
0.0
 49
0.0
 49
0.0
 49
0.0
 49
1.0
175
     0
142
0.0208333333333333
142
0.0
142
0.0
142
0.0
142
0.0
142
0.0208333333333333
142
0.0
142
0.0
142
0.0
142
0.0
142
1.0
142
0.0
142
0.0
142
0.0
142
0.0
142
1.0
179
     0
144
0.0208333333333333
144
0.0
144
0.0
144
0.0
144
0.0
144
0.0208333333333333
144
0.0
144
0.0
144
0.0
144
0.0
144
1.0
144
0.0
144
0.0
144
0.0
144
0.0
144
1.0
147
0.0208333333333333
147
0.0
147
0.0
147
0.0
147
0.0
147
0.0208333333333333
147
0.0
147
0.0
147
0.0
147
0.0
147
1.0
147
0.0
147
0.0
147
0.0
147
0.0
147
1.0
  0
MATERIAL
  5
76DB
102
{ACAD_XDICTIONARY
360
76DC
102
}
102
{ACAD_REACTORS
330
76DA
102
}
330
76DA
100
AcDbMaterial
  1
ByLayer
 72
     0
 43
0.0208333333333333
 43
0.0
 43
0.0
 43
0.0
 43
0.0
 43
0.0208333333333333
 43
0.0
 43
0.0
 43
0.0
 43
0.0
 43
1.0
 43
0.0
 43
0.0
 43
0.0
 43
0.0
 43
1.0
 77
     0
 47
0.0208333333333333
 47
0.0
 47
0.0
 47
0.0
 47
0.0
 47
0.0208333333333333
 47
0.0
 47
0.0
 47
0.0
 47
0.0
 47
1.0
 47
0.0
 47
0.0
 47
0.0
 47
0.0
 47
1.0
171
     0
 49
0.0208333333333333
 49
0.0
 49
0.0
 49
0.0
 49
0.0
 49
0.0208333333333333
 49
0.0
 49
0.0
 49
0.0
 49
0.0
 49
1.0
 49
0.0
 49
0.0
 49
0.0
 49
0.0
 49
1.0
175
     0
142
0.0208333333333333
142
0.0
142
0.0
142
0.0
142
0.0
142
0.0208333333333333
142
0.0
142
0.0
142
0.0
142
0.0
142
1.0
142
0.0
142
0.0
142
0.0
142
0.0
142
1.0
179
     0
144
0.0208333333333333
144
0.0
144
0.0
144
0.0
144
0.0
144
0.0208333333333333
144
0.0
144
0.0
144
0.0
144
0.0
144
1.0
144
0.0
144
0.0
144
0.0
144
0.0
144
1.0
147
0.0208333333333333
147
0.0
147
0.0
147
0.0
147
0.0
147
0.0208333333333333
147
0.0
147
0.0
147
0.0
147
0.0
147
1.0
147
0.0
147
0.0
147
0.0
147
0.0
147
1.0
  0
MATERIAL
  5
76EB
102
{ACAD_XDICTIONARY
360
76EC
102
}
102
{ACAD_REACTORS
330
76DA
102
}
330
76DA
100
AcDbMaterial
  1
Global
 72
     0
 43
0.0208333333333333
 43
0.0
 43
0.0
 43
0.0
 43
0.0
 43
0.0208333333333333
 43
0.0
 43
0.0
 43
0.0
 43
0.0
 43
1.0
 43
0.0
 43
0.0
 43
0.0
 43
0.0
 43
1.0
 77
     0
 47
0.0208333333333333
 47
0.0
 47
0.0
 47
0.0
 47
0.0
 47
0.0208333333333333
 47
0.0
 47
0.0
 47
0.0
 47
0.0
 47
1.0
 47
0.0
 47
0.0
 47
0.0
 47
0.0
 47
1.0
171
     0
 49
0.0208333333333333
 49
0.0
 49
0.0
 49
0.0
 49
0.0
 49
0.0208333333333333
 49
0.0
 49
0.0
 49
0.0
 49
0.0
 49
1.0
 49
0.0
 49
0.0
 49
0.0
 49
0.0
 49
1.0
175
     0
142
0.0208333333333333
142
0.0
142
0.0
142
0.0
142
0.0
142
0.0208333333333333
142
0.0
142
0.0
142
0.0
142
0.0
142
1.0
142
0.0
142
0.0
142
0.0
142
0.0
142
1.0
179
     0
144
0.0208333333333333
144
0.0
144
0.0
144
0.0
144
0.0
144
0.0208333333333333
144
0.0
144
0.0
144
0.0
144
0.0
144
1.0
144
0.0
144
0.0
144
0.0
144
0.0
144
1.0
147
0.0208333333333333
147
0.0
147
0.0
147
0.0
147
0.0
147
0.0208333333333333
147
0.0
147
0.0
147
0.0
147
0.0
147
1.0
147
0.0
147
0.0
147
0.0
147
0.0
147
1.0
  0
MLEADERSTYLE
  5
7730
102
{ACAD_REACTORS
330
772F
102
}
330
772F
100
AcDbMLeaderStyle
170
     2
171
     1
172
     0
 90
        2
 40
0.0
 41
0.0
173
     1
 91
-1056964608
340
7724
 92
       -2
290
     1
 42
0.09
291
     1
 43
0.36
  3
Standard
 44
0.18
300

342
771F
174
     1
178
     6
175
     1
176
     0
 93
-1056964608
 45
0.18
292
     0
297
     0
 46
0.18
 94
-1056964608
 47
1.0
 49
1.0
140
1.0
293
     1
141
0.0
294
     1
177
     0
142
1.0
295
     0
296
     0
143
0.125
1001
ACAD_MLEADERVER
1070
     2
  0
MLINESTYLE
  5
7729
102
{ACAD_REACTORS
330
7728
102
}
330
7728
100
AcDbMlineStyle
  2
STANDARD
 70
     0
  3

 62
   256
 51
90.0
 52
90.0
 71
     2
 49
0.5
 62
   256
  6
BYLAYER
 49
-0.5
 62
   256
  6
BYLAYER
  0
ACDBPLACEHOLDER
  5
76D9
102
{ACAD_REACTORS
330
76D8
102
}
330
76D8
  0
SCALE
  5
770D
102
{ACAD_REACTORS
330
770C
102
}
330
770C
100
AcDbScale
 70
     0
300
1:1
140
1.0
141
1.0
290
     1
  0
SCALE
  5
770E
102
{ACAD_REACTORS
330
770C
102
}
330
770C
100
AcDbScale
 70
     0
300
1/128" = 1'-0"
140
0.0078125
141
12.0
290
     0
  0
SCALE
  5
770F
102
{ACAD_REACTORS
330
770C
102
}
330
770C
100
AcDbScale
 70
     0
300
1/64" = 1'-0"
140
0.015625
141
12.0
290
     0
  0
SCALE
  5
7710
102
{ACAD_REACTORS
330
770C
102
}
330
770C
100
AcDbScale
 70
     0
300
1/32" = 1'-0"
140
0.03125
141
12.0
290
     0
  0
SCALE
  5
7711
102
{ACAD_REACTORS
330
770C
102
}
330
770C
100
AcDbScale
 70
     0
300
1/16" = 1'-0"
140
0.0625
141
12.0
290
     0
  0
SCALE
  5
7712
102
{ACAD_REACTORS
330
770C
102
}
330
770C
100
AcDbScale
 70
     0
300
3/32" = 1'-0"
140
0.09375
141
12.0
290
     0
  0
SCALE
  5
7713
102
{ACAD_REACTORS
330
770C
102
}
330
770C
100
AcDbScale
 70
     0
300
1/8" = 1'-0"
140
0.125
141
12.0
290
     0
  0
SCALE
  5
7714
102
{ACAD_REACTORS
330
770C
102
}
330
770C
100
AcDbScale
 70
     0
300
3/16" = 1'-0"
140
0.1875
141
12.0
290
     0
  0
SCALE
  5
7715
102
{ACAD_REACTORS
330
770C
102
}
330
770C
100
AcDbScale
 70
     0
300
1/4" = 1'-0"
140
0.25
141
12.0
290
     0
  0
SCALE
  5
7716
102
{ACAD_REACTORS
330
770C
102
}
330
770C
100
AcDbScale
 70
     0
300
3/8" = 1'-0"
140
0.375
141
12.0
290
     0
  0
SCALE
  5
7717
102
{ACAD_REACTORS
330
770C
102
}
330
770C
100
AcDbScale
 70
     0
300
1/2" = 1'-0"
140
0.5
141
12.0
290
     0
  0
SCALE
  5
7718
102
{ACAD_REACTORS
330
770C
102
}
330
770C
100
AcDbScale
 70
     0
300
3/4" = 1'-0"
140
0.75
141
12.0
290
     0
  0
SCALE
  5
7719
102
{ACAD_REACTORS
330
770C
102
}
330
770C
100
AcDbScale
 70
     0
300
1" = 1'-0"
140
1.0
141
12.0
290
     0
  0
SCALE
  5
771A
102
{ACAD_REACTORS
330
770C
102
}
330
770C
100
AcDbScale
 70
     0
300
1-1/2" = 1'-0"
140
1.5
141
12.0
290
     0
  0
SCALE
  5
771B
102
{ACAD_REACTORS
330
770C
102
}
330
770C
100
AcDbScale
 70
     0
300
3" = 1'-0"
140
3.0
141
12.0
290
     0
  0
SCALE
  5
771C
102
{ACAD_REACTORS
330
770C
102
}
330
770C
100
AcDbScale
 70
     0
300
6" = 1'-0"
140
6.0
141
12.0
290
     0
  0
SCALE
  5
771D
102
{ACAD_REACTORS
330
770C
102
}
330
770C
100
AcDbScale
 70
     0
300
1'-0" = 1'-0"
140
12.0
141
12.0
290
     0
  0
ACDBSECTIONVIEWSTYLE
  5
7732
102
{ACAD_XDICTIONARY
360
7F78
102
}
102
{ACAD_REACTORS
330
7731
330
7E24
102
}
330
7731
100
AcDbModelDocViewStyle
 70
     0
  3
Imperial24
290
     0
100
AcDbSectionViewStyle
 70
     0
 71
     0
 90
       78
 71
     1
340
771F
 62
   256
 40
0.24
340
0
340
0
 62
   256
 40
0.24
300
I, O, Q, S, X, Z
 40
0.48
 90
        3
 40
0.18
 90
        1
 71
     2
340
7726
 90
       25
 62
   256
340
7726
 90
       50
 62
   256
 40
0.24
 40
0.0
 40
0.24
 71
     3
340
771F
 62
   256
 40
0.24
 90
        1
 40
0.75
 90
        1
300
%<\AcVar ViewType \f "%tc1">% %<\AcVar ViewSectionStartId>%-%<\AcVar ViewSectionEndId>%\PSCALE %<\AcVar ViewScale \f "%sn">%
 71
     4
 62
   256
 62
   257
300
ANSI31
 40
1.0
 90
        0
290
     0
290
     0
 90
        6
 40
0.0
 40
1.570796326794896
 40
0.2617993877991494
 40
1.308996938995747
 40
-0.2617993877991494
 40
1.832595714594044
  0
ACDBSECTIONVIEWSTYLE
  5
7E8D
102
{ACAD_XDICTIONARY
360
7F7C
102
}
102
{ACAD_REACTORS
330
7731
330
7EE4
102
}
330
7731
100
AcDbModelDocViewStyle
 70
     0
  3
Metric50
290
     0
100
AcDbSectionViewStyle
 70
     0
 71
     0
 90
      102
 71
     1
340
771F
 62
   256
 40
5.0
340
0
340
0
 62
   256
 40
5.0
300
I, O, Q, S, X, Z
 40
10.0
 90
        0
 40
2.5
 90
        0
 71
     2
340
7726
 90
       25
 62
   256
340
7726
 90
       50
 62
   256
 40
5.0
 40
2.5
 40
5.0
 71
     3
340
771F
 62
   256
 40
5.0
 90
        0
 40
15.0
 90
        1
300
%<\AcVar ViewSectionStartId>%-%<\AcVar ViewSectionEndId>% (%<\AcVar ViewScale \f "%sn">%)
 71
     4
 62
   256
 62
   257
300
ANSI31
 40
1.0
 90
        0
290
     0
290
     0
 90
        6
 40
0.0
 40
1.570796326794896
 40
0.2617993877991494
 40
1.308996938995747
 40
-0.2617993877991494
 40
1.832595714594046
  0
TABLESTYLE
  5
772E
102
{ACAD_XDICTIONARY
360
7BEF
102
}
102
{ACAD_REACTORS
330
772D
102
}
330
772D
100
AcDbTableStyle
  3
Standard
 70
     0
 71
     0
 40
0.06
 41
0.06
280
     0
281
     0
  7
STANDARD
140
0.18
170
     2
 62
     0
 63
     7
283
     0
 90
      512
 91
        0
  1

274
    -2
284
     1
 64
     0
275
    -2
285
     1
 65
     0
276
    -2
286
     1
 66
     0
277
    -2
287
     1
 67
     0
278
    -2
288
     1
 68
     0
279
    -2
289
     1
 69
     0
  7
STANDARD
140
0.25
170
     5
 62
     0
 63
     7
283
     0
 90
      512
 91
        0
  1

274
    -2
284
     1
 64
     0
275
    -2
285
     1
 65
     0
276
    -2
286
     1
 66
     0
277
    -2
287
     1
 67
     0
278
    -2
288
     1
 68
     0
279
    -2
289
     1
 69
     0
  7
STANDARD
140
0.18
170
     5
 62
     0
 63
     7
283
     0
 90
      512
 91
        0
  1

274
    -2
284
     1
 64
     0
275
    -2
285
     1
 65
     0
276
    -2
286
     1
 66
     0
277
    -2
287
     1
 67
     0
278
    -2
288
     1
 68
     0
279
    -2
289
     1
 69
     0
  0
VISUALSTYLE
  5
76F9
102
{ACAD_XDICTIONARY
360
7F52
102
}
102
{ACAD_REACTORS
330
76F3
102
}
330
76F3
100
AcDbVisualStyle
  2

 70
     4
 71
     0
 72
     2
 73
     0
 90
        0
 40
-0.6
 41
-30.0
 62
     5
 63
     7
421
 16777215
 74
     1
 91
        4
 64
     7
 65
   257
 75
     1
175
     1
 42
1.0
 92
        0
 66
   257
 43
1.0
 76
     1
 77
     6
 78
     2
 67
     7
 79
     5
170
     0
171
     0
290
     0
174
     0
 93
        1
 44
0.0
173
     0
291
     0
 45
0.0
1001
ACAD
1000
AcDbSavedByObjectVersion
1070
     0
  0
VISUALSTYLE
  5
76F8
102
{ACAD_XDICTIONARY
360
7F50
102
}
102
{ACAD_REACTORS
330
76F3
102
}
330
76F3
100
AcDbVisualStyle
  2

 70
     7
 71
     1
 72
     0
 73
     1
 90
        0
 40
-0.6
 41
-30.0
 62
     5
 63
     7
421
 16777215
 74
     0
 91
        4
 64
     7
 65
   257
 75
     1
175
     1
 42
1.0
 92
        8
 66
     7
 43
1.0
 76
     1
 77
     6
 78
     2
 67
     7
 79
     5
170
     0
171
     0
290
     0
174
     0
 93
        1
 44
0.0
173
     0
291
     1
 45
0.0
1001
ACAD
1000
AcDbSavedByObjectVersion
1070
     0
  0
VISUALSTYLE
  5
76FF
102
{ACAD_XDICTIONARY
360
7F5E
102
}
102
{ACAD_REACTORS
330
76F3
102
}
330
76F3
100
AcDbVisualStyle
  2

 70
    12
 71
     2
 72
     2
 73
     0
 90
        0
 40
-0.6
 41
-30.0
 62
     5
 63
     7
421
 16777215
 74
     1
 91
        4
 64
     7
 65
   257
 75
     1
175
     1
 42
1.0
 92
        8
 66
     7
 43
1.0
 76
     1
 77
     6
 78
     2
 67
     7
 79
     5
170
     0
171
     0
290
     0
174
     0
 93
        1
 44
50.0
173
     0
291
     1
 45
0.0
1001
ACAD
1000
AcDbSavedByObjectVersion
1070
     0
  0
VISUALSTYLE
  5
7703
102
{ACAD_XDICTIONARY
360
7F66
102
}
102
{ACAD_REACTORS
330
76F3
102
}
330
76F3
100
AcDbVisualStyle
  2

 70
    16
 71
     2
 72
     2
 73
     3
 90
        0
 40
-0.6
 41
-30.0
 62
     5
 63
     8
421
  8421504
 74
     1
 91
        4
 64
     7
 65
   257
 75
     1
175
     1
 42
1.0
 92
        8
 66
     8
424
  8421504
 43
1.0
 76
     1
 77
     6
 78
     2
 67
     7
 79
     5
170
     0
171
     0
290
     0
174
     0
 93
        1
 44
0.0
173
     0
291
     1
 45
0.0
1001
ACAD
1000
AcDbSavedByObjectVersion
1070
     0
  0
VISUALSTYLE
  5
76FC
102
{ACAD_XDICTIONARY
360
7F58
102
}
102
{ACAD_REACTORS
330
76F3
102
}
330
76F3
100
AcDbVisualStyle
  2

 70
     9
 71
     3
 72
     2
 73
     0
 90
        0
 40
-0.6
 41
-30.0
 62
     5
 63
     7
421
 16777215
 74
     2
 91
        2
 64
     7
 65
   257
 75
     1
175
     1
 42
179.0
 92
        8
 66
     7
 43
1.0
 76
     1
 77
     6
 78
     2
 67
     7
 79
     3
170
     0
171
     0
290
     0
174
     0
 93
        1
 44
0.0
173
     0
291
     0
 45
0.0
1001
ACAD
1000
AcDbSavedByObjectVersion
1070
     0
  0
VISUALSTYLE
  5
76FE
102
{ACAD_XDICTIONARY
360
7F5C
102
}
102
{ACAD_REACTORS
330
76F3
102
}
330
76F3
100
AcDbVisualStyle
  2

 70
    11
 71
     2
 72
     2
 73
     0
 90
        0
 40
-0.6
 41
-30.0
 62
     5
 63
     7
421
 16777215
 74
     1
 91
        4
 64
     7
 65
   257
 75
     1
175
     1
 42
1.0
 92
        8
 66
     7
 43
1.0
 76
     1
 77
     6
 78
     2
 67
     7
 79
     5
170
     0
171
     0
290
     0
174
     0
 93
        1
 44
-50.0
173
     0
291
     1
 45
0.0
1001
ACAD
1000
AcDbSavedByObjectVersion
1070
     0
  0
VISUALSTYLE
  5
770B
102
{ACAD_XDICTIONARY
360
7F76
102
}
102
{ACAD_REACTORS
330
76F3
102
}
330
76F3
100
AcDbVisualStyle
  2

 70
    22
 71
     2
 72
     2
 73
     0
 90
        0
 40
-0.6
 41
-30.0
 62
     5
 63
     7
421
 16777215
 74
     1
 91
        4
 64
     7
 65
   257
 75
     1
175
     1
 42
1.0
 92
        8
 66
     7
 43
1.0
 76
     1
 77
     6
 78
     2
 67
     7
 79
     5
170
     0
171
     0
290
     0
174
     0
 93
        1
 44
0.0
173
     0
291
     1
 45
0.0
1001
ACAD
1000
AcDbSavedByObjectVersion
1070
     0
  0
VISUALSTYLE
  5
7702
102
{ACAD_XDICTIONARY
360
7F64
102
}
102
{ACAD_REACTORS
330
76F3
102
}
330
76F3
100
AcDbVisualStyle
  2

 70
    15
 71
     2
 72
     2
 73
     0
 90
        0
 40
-0.6
 41
-30.0
 62
     5
 63
     7
421
 16777215
 74
     1
 91
        4
 64
     7
 65
   257
 75
     1
175
     1
 42
1.0
 92
        8
 66
     7
 43
1.0
 76
     1
 77
     6
 78
     2
 67
     7
 79
     5
170
     0
171
     0
290
     0
174
     0
 93
        1
 44
0.0
173
     0
291
     1
 45
0.0
1001
ACAD
1000
AcDbSavedByObjectVersion
1070
     0
  0
VISUALSTYLE
  5
76F4
102
{ACAD_XDICTIONARY
360
7F48
102
}
102
{ACAD_REACTORS
330
76F3
102
}
330
76F3
100
AcDbVisualStyle
  2

 70
     0
 71
     2
 72
     1
 73
     1
 90
        2
 40
-0.6
 41
30.0
 62
     5
 63
     7
421
 16777215
 74
     0
 91
        0
 64
     7
 65
   257
 75
     1
175
     1
 42
1.0
 92
        8
 66
     7
 43
1.0
 76
     1
 77
     6
 78
     2
 67
     7
 79
     5
170
     0
171
     0
290
     0
174
     0
 93
       13
 44
0.0
173
     0
291
     1
 45
0.0
1001
ACAD
1000
AcDbSavedByObjectVersion
1070
     0
  0
VISUALSTYLE
  5
76F5
102
{ACAD_XDICTIONARY
360
7F4A
102
}
102
{ACAD_REACTORS
330
76F3
102
}
330
76F3
100
AcDbVisualStyle
  2

 70
     1
 71
     2
 72
     1
 73
     1
 90
        2
 40
-0.6
 41
30.0
 62
     5
 63
     7
421
 16777215
 74
     1
 91
        0
 64
     7
 65
   257
 75
     1
175
     1
 42
1.0
 92
        0
 66
   257
 43
1.0
 76
     1
 77
     6
 78
     2
 67
     7
 79
     5
170
     0
171
     0
290
     0
174
     0
 93
       13
 44
0.0
173
     0
291
     1
 45
0.0
1001
ACAD
1000
AcDbSavedByObjectVersion
1070
     0
  0
VISUALSTYLE
  5
76F6
102
{ACAD_XDICTIONARY
360
7F4C
102
}
102
{ACAD_REACTORS
330
76F3
102
}
330
76F3
100
AcDbVisualStyle
  2

 70
     2
 71
     2
 72
     2
 73
     1
 90
        2
 40
-0.6
 41
30.0
 62
     5
 63
     7
421
 16777215
 74
     0
 91
        0
 64
     7
 65
   257
 75
     1
175
     1
 42
1.0
 92
        0
 66
     7
 43
1.0
 76
     1
 77
     6
 78
     2
 67
     7
 79
     5
170
     0
171
     0
290
     0
174
     0
 93
       13
 44
0.0
173
     0
291
     1
 45
0.0
1001
ACAD
1000
AcDbSavedByObjectVersion
1070
     0
  0
VISUALSTYLE
  5
76F7
102
{ACAD_XDICTIONARY
360
7F4E
102
}
102
{ACAD_REACTORS
330
76F3
102
}
330
76F3
100
AcDbVisualStyle
  2

 70
     3
 71
     2
 72
     2
 73
     1
 90
        2
 40
-0.6
 41
30.0
 62
     5
 63
     7
421
 16777215
 74
     1
 91
        0
 64
     7
 65
   257
 75
     1
175
     1
 42
1.0
 92
        0
 66
   257
 43
1.0
 76
     1
 77
     6
 78
     2
 67
     7
 79
     5
170
     0
171
     0
290
     0
174
     0
 93
       13
 44
0.0
173
     0
291
     1
 45
0.0
1001
ACAD
1000
AcDbSavedByObjectVersion
1070
     0
  0
VISUALSTYLE
  5
76FB
102
{ACAD_XDICTIONARY
360
7F56
102
}
102
{ACAD_REACTORS
330
76F3
102
}
330
76F3
100
AcDbVisualStyle
  2

 70
     6
 71
     1
 72
     2
 73
     2
 90
        0
 40
-0.6
 41
-30.0
 62
     5
 63
     7
421
 16777215
 74
     2
 91
        2
 64
     7
 65
   257
 75
     2
175
     1
 42
40.0
 92
        0
 66
   257
 43
1.0
 76
     1
 77
     6
 78
     2
 67
     7
 79
     3
170
     0
171
     0
290
     0
174
     0
 93
        1
 44
0.0
173
     0
291
     0
 45
0.0
1001
ACAD
1000
AcDbSavedByObjectVersion
1070
     0
  0
VISUALSTYLE
  5
7709
102
{ACAD_XDICTIONARY
360
7F72
102
}
102
{ACAD_REACTORS
330
76F3
102
}
330
76F3
100
AcDbVisualStyle
  2

 70
    20
 71
     2
 72
     2
 73
     0
 90
        0
 40
-0.6
 41
-30.0
 62
     5
 63
     7
421
 16777215
 74
     1
 91
        4
 64
     7
 65
   257
 75
     1
175
     1
 42
1.0
 92
       10
 66
     7
 43
1.0
 76
     1
 77
     6
 78
     2
 67
     7
 79
     5
170
     0
171
     0
290
     0
174
     0
 93
        1
 44
0.0
173
     0
291
     1
 45
0.0
1001
ACAD
1000
AcDbSavedByObjectVersion
1070
     0
  0
VISUALSTYLE
  5
7701
102
{ACAD_XDICTIONARY
360
7F62
102
}
102
{ACAD_REACTORS
330
76F3
102
}
330
76F3
100
AcDbVisualStyle
  2

 70
    14
 71
     2
 72
     2
 73
     0
 90
        0
 40
-0.6
 41
-30.0
 62
     5
 63
     7
421
 16777215
 74
     1
 91
        4
 64
     7
 65
   257
 75
     7
175
     7
 42
1.0
 92
        8
 66
     7
 43
1.0
 76
     1
 77
     6
 78
     2
 67
     7
 79
     5
170
     0
171
     0
290
     0
174
     0
 93
        1
 44
0.0
173
     0
291
     1
 45
0.0
1001
ACAD
1000
AcDbSavedByObjectVersion
1070
     0
  0
VISUALSTYLE
  5
770A
102
{ACAD_XDICTIONARY
360
7F74
102
}
102
{ACAD_REACTORS
330
76F3
102
}
330
76F3
100
AcDbVisualStyle
  2

 70
    21
 71
     2
 72
     2
 73
     0
 90
        0
 40
-0.6
 41
-30.0
 62
     5
 63
     7
421
 16777215
 74
     1
 91
        4
 64
     7
 65
   257
 75
     1
175
     1
 42
1.0
 92
        9
 66
     7
 43
1.0
 76
     1
 77
     6
 78
     2
 67
     7
 79
     5
170
     0
171
     0
290
     0
174
     0
 93
        1
 44
0.0
173
     0
291
     1
 45
0.0
1001
ACAD
1000
AcDbSavedByObjectVersion
1070
     0
  0
VISUALSTYLE
  5
76FD
102
{ACAD_XDICTIONARY
360
7F5A
102
}
102
{ACAD_REACTORS
330
76F3
102
}
330
76F3
100
AcDbVisualStyle
  2

 70
     8
 71
     2
 72
     3
 73
     0
 90
        2
 40
-0.6
 41
30.0
 62
     5
 63
     7
421
 16777215
 74
     0
 91
        0
 64
     7
 65
   257
 75
     1
175
     1
 42
1.0
 92
        8
 66
   257
 43
1.0
 76
     1
 77
     6
 78
     2
 67
     7
 79
     3
170
     0
171
     0
290
     0
174
     0
 93
       13
 44
0.0
173
     0
291
     0
 45
0.0
1001
ACAD
1000
AcDbSavedByObjectVersion
1070
     0
  0
VISUALSTYLE
  5
7708
102
{ACAD_XDICTIONARY
360
7F70
102
}
102
{ACAD_REACTORS
330
76F3
102
}
330
76F3
100
AcDbVisualStyle
  2

 70
    27
 71
     2
 72
     2
 73
     1
 90
        2
 40
-0.6
 41
30.0
 62
     5
 63
     7
421
 16777215
 74
     0
 91
        4
 64
     7
 65
   257
 75
     1
175
     1
 42
1.0
 92
        8
 66
   257
 43
1.0
 76
     1
 77
     6
 78
     2
 67
     8
425
  7895160
 79
     3
170
     0
171
     0
290
     0
174
     0
 93
        5
 44
0.0
173
     0
291
     0
 45
0.0
1001
ACAD
1000
AcDbSavedByObjectVersion
1070
     0
  0
VISUALSTYLE
  5
7707
102
{ACAD_XDICTIONARY
360
7F6E
102
}
102
{ACAD_REACTORS
330
76F3
102
}
330
76F3
100
AcDbVisualStyle
  2

 70
    26
 71
     2
 72
     2
 73
     1
 90
        2
 40
-0.6
 41
30.0
 62
     5
 63
     7
421
 16777215
 74
     1
 91
        2
 64
     7
 65
   257
 75
     2
175
     1
 42
1.0
 92
        8
 66
   257
 43
1.0
 76
     1
 77
     6
 78
     2
 67
     7
 79
     3
170
     0
171
     0
290
     0
174
     0
 93
        5
 44
0.0
173
     0
291
     0
 45
0.0
1001
ACAD
1000
AcDbSavedByObjectVersion
1070
     0
  0
VISUALSTYLE
  5
7704
102
{ACAD_XDICTIONARY
360
7F68
102
}
102
{ACAD_REACTORS
330
76F3
102
}
330
76F3
100
AcDbVisualStyle
  2

 70
    23
 71
     2
 72
     2
 73
     3
 90
        0
 40
-0.6
 41
-30.0
 62
     5
 63
     7
421
 16777215
 74
     2
 91
        2
 64
     7
 65
     7
 75
     1
175
     1
 42
40.0
 92
        8
 66
     7
 43
1.0
 76
     1
 77
     6
 78
     2
 67
     7
 79
     3
170
     0
171
     0
290
     0
174
     0
 93
        1
 44
0.0
173
     0
291
     0
 45
0.0
1001
ACAD
1000
AcDbSavedByObjectVersion
1070
     0
  0
VISUALSTYLE
  5
7705
102
{ACAD_XDICTIONARY
360
7F6A
102
}
102
{ACAD_REACTORS
330
76F3
102
}
330
76F3
100
AcDbVisualStyle
  2

 70
    24
 71
     1
 72
     2
 73
     2
 90
        0
 40
-0.6
 41
-30.0
 62
     5
 63
     7
421
 16777215
 74
     2
 91
        2
 64
     7
 65
     7
 75
     1
175
     1
 42
40.0
 92
       11
 66
     7
 43
1.0
 76
     1
 77
     6
 78
     2
 67
     7
 79
     6
170
     0
171
     0
290
     0
174
     0
 93
        1
 44
0.0
173
     0
291
     0
 45
0.0
1001
ACAD
1000
AcDbSavedByObjectVersion
1070
     0
  0
VISUALSTYLE
  5
7700
102
{ACAD_XDICTIONARY
360
7F60
102
}
102
{ACAD_REACTORS
330
76F3
102
}
330
76F3
100
AcDbVisualStyle
  2

 70
    13
 71
     2
 72
     2
 73
     0
 90
        0
 40
-0.6
 41
-30.0
 62
     5
 63
     7
421
 16777215
 74
     1
 91
        4
 64
     7
 65
   257
 75
     1
175
     1
 42
1.0
 92
       12
 66
     7
 43
1.0
 76
     1
 77
     6
 78
     2
 67
     7
 79
     5
170
     0
171
     0
290
     0
174
     0
 93
        1
 44
0.0
173
     0
291
     1
 45
0.0
1001
ACAD
1000
AcDbSavedByObjectVersion
1070
     0
  0
VISUALSTYLE
  5
76FA
102
{ACAD_XDICTIONARY
360
7F54
102
}
102
{ACAD_REACTORS
330
76F3
102
}
330
76F3
100
AcDbVisualStyle
  2

 70
     5
 71
     0
 72
     2
 73
     0
 90
        0
 40
-0.6
 41
-30.0
 62
     5
 63
     7
421
 16777215
 74
     1
 91
        4
 64
     7
 65
   257
 75
     1
175
     1
 42
1.0
 92
        0
 66
   257
 43
1.0
 76
     1
 77
     6
 78
     2
 67
     7
 79
     3
170
     0
171
     0
290
     0
174
     0
 93
        1
 44
0.0
173
     0
291
     0
 45
0.0
1001
ACAD
1000
AcDbSavedByObjectVersion
1070
     0
  0
VISUALSTYLE
  5
7706
102
{ACAD_XDICTIONARY
360
7F6C
102
}
102
{ACAD_REACTORS
330
76F3
102
}
330
76F3
100
AcDbVisualStyle
  2

 70
    25
 71
     2
 72
     2
 73
     1
 90
        1
 40
0.5
 41
-30.0
 62
     5
 63
     7
421
 16777215
 74
     1
 91
        0
 64
     7
 65
   257
 75
     1
175
     1
 42
1.0
 92
        8
 66
     7
 43
1.0
 76
     1
 77
     6
 78
     2
 67
     7
 79
     3
170
     0
171
     0
290
     0
174
     0
 93
       13
 44
0.0
173
     0
291
     0
 45
0.0
1001
ACAD
1000
AcDbSavedByObjectVersion
1070
     0
  0
DICTIONARYVAR
  5
7BEA
102
{ACAD_REACTORS
330
7BE4
102
}
330
7BE4
100
DictionaryVariables
280
     0
  1
1:1
  0
DICTIONARYVAR
  5
7BE6
102
{ACAD_REACTORS
330
7BE4
102
}
330
7BE4
100
DictionaryVariables
280
     0
  1
STANDARD
  0
DICTIONARYVAR
  5
7BE5
102
{ACAD_REACTORS
330
7BE4
102
}
330
7BE4
100
DictionaryVariables
280
     0
  1
STANDARD
  0
DICTIONARYVAR
  5
7BE7
102
{ACAD_REACTORS
330
7BE4
102
}
330
7BE4
100
DictionaryVariables
280
     0
  1
Metric50
  0
DICTIONARYVAR
  5
7BE8
102
{ACAD_REACTORS
330
7BE4
102
}
330
7BE4
100
DictionaryVariables
280
     0
  1
Metric50
  0
DICTIONARYVAR
  5
7BEC
102
{ACAD_REACTORS
330
7BE4
102
}
330
7BE4
100
DictionaryVariables
280
     0
  1
1
  0
DICTIONARYVAR
  5
7BED
102
{ACAD_REACTORS
330
7BE4
102
}
330
7BE4
100
DictionaryVariables
280
     0
  1
15
  0
DICTIONARYVAR
  5
7BEB
102
{ACAD_REACTORS
330
7BE4
102
}
330
7BE4
100
DictionaryVariables
280
     0
  1
0
  0
DICTIONARYVAR
  5
7BE9
102
{ACAD_REACTORS
330
7BE4
102
}
330
7BE4
100
DictionaryVariables
280
     0
  1
0
  0
DICTIONARYVAR
  5
7F45
102
{ACAD_REACTORS
330
7BE4
102
}
330
7BE4
100
DictionaryVariables
280
     0
  1
2
  0
DICTIONARY
  5
77D4
102
{ACAD_REACTORS
330
77CD
102
}
330
77CD
100
AcDbDictionary
281
     1
  0
DICTIONARY
  5
7F7A
330
7734
100
AcDbDictionary
280
     1
281
     1
  3
ACAD_XREC_ROUNDTRIP
360
7F7B
  0
DICTIONARY
  5
7F7E
330
7E90
100
AcDbDictionary
280
     1
281
     1
  3
ACAD_XREC_ROUNDTRIP
360
7F7F
  0
DICTIONARY
  5
76E4
330
76E3
100
AcDbDictionary
280
     1
281
     1
  3
BUMPTILE
360
76E6
  3
DIFFUSETILE
360
76E5
  3
OPACITYTILE
360
76E9
  3
REFLECTIONTILE
360
76E8
  3
REFRACTIONTILE
360
76EA
  3
SPECULARTILE
360
76E7
  0
DICTIONARY
  5
76DC
330
76DB
100
AcDbDictionary
280
     1
281
     1
  3
BUMPTILE
360
76DE
  3
DIFFUSETILE
360
76DD
  3
OPACITYTILE
360
76E1
  3
REFLECTIONTILE
360
76E0
  3
REFRACTIONTILE
360
76E2
  3
SPECULARTILE
360
76DF
  0
DICTIONARY
  5
76EC
330
76EB
100
AcDbDictionary
280
     1
281
     1
  3
BUMPTILE
360
76EE
  3
DIFFUSETILE
360
76ED
  3
OPACITYTILE
360
76F1
  3
REFLECTIONTILE
360
76F0
  3
REFRACTIONTILE
360
76F2
  3
SPECULARTILE
360
76EF
  0
DICTIONARY
  5
7F78
330
7732
100
AcDbDictionary
280
     1
281
     1
  3
ACAD_XREC_ROUNDTRIP
360
7F79
  0
DICTIONARY
  5
7F7C
330
7E8D
100
AcDbDictionary
280
     1
281
     1
  3
ACAD_XREC_ROUNDTRIP
360
7F7D
  0
DICTIONARY
  5
7BEF
330
772E
100
AcDbDictionary
280
     1
281
     1
  3
ACAD_ROUNDTRIP_2008_TABLESTYLE_CELLSTYLEMAP
360
7F46
  0
DICTIONARY
  5
7F52
330
76F9
100
AcDbDictionary
280
     1
281
     1
  3
ACAD_XREC_ROUNDTRIP
360
7F53
  0
DICTIONARY
  5
7F50
330
76F8
100
AcDbDictionary
280
     1
281
     1
  3
ACAD_XREC_ROUNDTRIP
360
7F51
  0
DICTIONARY
  5
7F5E
330
76FF
100
AcDbDictionary
280
     1
281
     1
  3
ACAD_XREC_ROUNDTRIP
360
7F5F
  0
DICTIONARY
  5
7F66
330
7703
100
AcDbDictionary
280
     1
281
     1
  3
ACAD_XREC_ROUNDTRIP
360
7F67
  0
DICTIONARY
  5
7F58
330
76FC
100
AcDbDictionary
280
     1
281
     1
  3
ACAD_XREC_ROUNDTRIP
360
7F59
  0
DICTIONARY
  5
7F5C
330
76FE
100
AcDbDictionary
280
     1
281
     1
  3
ACAD_XREC_ROUNDTRIP
360
7F5D
  0
DICTIONARY
  5
7F76
330
770B
100
AcDbDictionary
280
     1
281
     1
  3
ACAD_XREC_ROUNDTRIP
360
7F77
  0
DICTIONARY
  5
7F64
330
7702
100
AcDbDictionary
280
     1
281
     1
  3
ACAD_XREC_ROUNDTRIP
360
7F65
  0
DICTIONARY
  5
7F48
330
76F4
100
AcDbDictionary
280
     1
281
     1
  3
ACAD_XREC_ROUNDTRIP
360
7F49
  0
DICTIONARY
  5
7F4A
330
76F5
100
AcDbDictionary
280
     1
281
     1
  3
ACAD_XREC_ROUNDTRIP
360
7F4B
  0
DICTIONARY
  5
7F4C
330
76F6
100
AcDbDictionary
280
     1
281
     1
  3
ACAD_XREC_ROUNDTRIP
360
7F4D
  0
DICTIONARY
  5
7F4E
330
76F7
100
AcDbDictionary
280
     1
281
     1
  3
ACAD_XREC_ROUNDTRIP
360
7F4F
  0
DICTIONARY
  5
7F56
330
76FB
100
AcDbDictionary
280
     1
281
     1
  3
ACAD_XREC_ROUNDTRIP
360
7F57
  0
DICTIONARY
  5
7F72
330
7709
100
AcDbDictionary
280
     1
281
     1
  3
ACAD_XREC_ROUNDTRIP
360
7F73
  0
DICTIONARY
  5
7F62
330
7701
100
AcDbDictionary
280
     1
281
     1
  3
ACAD_XREC_ROUNDTRIP
360
7F63
  0
DICTIONARY
  5
7F74
330
770A
100
AcDbDictionary
280
     1
281
     1
  3
ACAD_XREC_ROUNDTRIP
360
7F75
  0
DICTIONARY
  5
7F5A
330
76FD
100
AcDbDictionary
280
     1
281
     1
  3
ACAD_XREC_ROUNDTRIP
360
7F5B
  0
DICTIONARY
  5
7F70
330
7708
100
AcDbDictionary
280
     1
281
     1
  3
ACAD_XREC_ROUNDTRIP
360
7F71
  0
DICTIONARY
  5
7F6E
330
7707
100
AcDbDictionary
280
     1
281
     1
  3
ACAD_XREC_ROUNDTRIP
360
7F6F
  0
DICTIONARY
  5
7F68
330
7704
100
AcDbDictionary
280
     1
281
     1
  3
ACAD_XREC_ROUNDTRIP
360
7F69
  0
DICTIONARY
  5
7F6A
330
7705
100
AcDbDictionary
280
     1
281
     1
  3
ACAD_XREC_ROUNDTRIP
360
7F6B
  0
DICTIONARY
  5
7F60
330
7700
100
AcDbDictionary
280
     1
281
     1
  3
ACAD_XREC_ROUNDTRIP
360
7F61
  0
DICTIONARY
  5
7F54
330
76FA
100
AcDbDictionary
280
     1
281
     1
  3
ACAD_XREC_ROUNDTRIP
360
7F55
  0
DICTIONARY
  5
7F6C
330
7706
100
AcDbDictionary
280
     1
281
     1
  3
ACAD_XREC_ROUNDTRIP
360
7F6D
  0
XRECORD
  5
7F7B
102
{ACAD_REACTORS
330
7F7A
102
}
330
7F7A
100
AcDbXrecord
280
     1
102
DISPLAYNAME
  1
Imperial24
102
FLAGS
 90
        0
  0
XRECORD
  5
7F7F
102
{ACAD_REACTORS
330
7F7E
102
}
330
7F7E
100
AcDbXrecord
280
     1
102
DISPLAYNAME
  1
Metric50
102
FLAGS
 90
        0
  0
XRECORD
  5
76E6
102
{ACAD_REACTORS
330
76E4
102
}
330
76E4
100
AcDbXrecord
280
     1
270
     1
271
     1
  0
XRECORD
  5
76E5
102
{ACAD_REACTORS
330
76E4
102
}
330
76E4
100
AcDbXrecord
280
     1
270
     1
271
     1
  0
XRECORD
  5
76E9
102
{ACAD_REACTORS
330
76E4
102
}
330
76E4
100
AcDbXrecord
280
     1
270
     1
271
     1
  0
XRECORD
  5
76E8
102
{ACAD_REACTORS
330
76E4
102
}
330
76E4
100
AcDbXrecord
280
     1
270
     1
271
     1
  0
XRECORD
  5
76EA
102
{ACAD_REACTORS
330
76E4
102
}
330
76E4
100
AcDbXrecord
280
     1
270
     1
271
     1
  0
XRECORD
  5
76E7
102
{ACAD_REACTORS
330
76E4
102
}
330
76E4
100
AcDbXrecord
280
     1
270
     1
271
     1
  0
XRECORD
  5
76DE
102
{ACAD_REACTORS
330
76DC
102
}
330
76DC
100
AcDbXrecord
280
     1
270
     1
271
     1
  0
XRECORD
  5
76DD
102
{ACAD_REACTORS
330
76DC
102
}
330
76DC
100
AcDbXrecord
280
     1
270
     1
271
     1
  0
XRECORD
  5
76E1
102
{ACAD_REACTORS
330
76DC
102
}
330
76DC
100
AcDbXrecord
280
     1
270
     1
271
     1
  0
XRECORD
  5
76E0
102
{ACAD_REACTORS
330
76DC
102
}
330
76DC
100
AcDbXrecord
280
     1
270
     1
271
     1
  0
XRECORD
  5
76E2
102
{ACAD_REACTORS
330
76DC
102
}
330
76DC
100
AcDbXrecord
280
     1
270
     1
271
     1
  0
XRECORD
  5
76DF
102
{ACAD_REACTORS
330
76DC
102
}
330
76DC
100
AcDbXrecord
280
     1
270
     1
271
     1
  0
XRECORD
  5
76EE
102
{ACAD_REACTORS
330
76EC
102
}
330
76EC
100
AcDbXrecord
280
     1
270
     1
271
     1
  0
XRECORD
  5
76ED
102
{ACAD_REACTORS
330
76EC
102
}
330
76EC
100
AcDbXrecord
280
     1
270
     1
271
     1
  0
XRECORD
  5
76F1
102
{ACAD_REACTORS
330
76EC
102
}
330
76EC
100
AcDbXrecord
280
     1
270
     1
271
     1
  0
XRECORD
  5
76F0
102
{ACAD_REACTORS
330
76EC
102
}
330
76EC
100
AcDbXrecord
280
     1
270
     1
271
     1
  0
XRECORD
  5
76F2
102
{ACAD_REACTORS
330
76EC
102
}
330
76EC
100
AcDbXrecord
280
     1
270
     1
271
     1
  0
XRECORD
  5
76EF
102
{ACAD_REACTORS
330
76EC
102
}
330
76EC
100
AcDbXrecord
280
     1
270
     1
271
     1
  0
XRECORD
  5
7F79
102
{ACAD_REACTORS
330
7F78
102
}
330
7F78
100
AcDbXrecord
280
     1
102
DISPLAYNAME
  1
Imperial24
102
FLAGS
 90
        0
  0
XRECORD
  5
7F7D
102
{ACAD_REACTORS
330
7F7C
102
}
330
7F7C
100
AcDbXrecord
280
     1
102
DISPLAYNAME
  1
Metric50
102
FLAGS
 90
        0
  0
CELLSTYLEMAP
  5
7F46
102
{ACAD_REACTORS
330
7BEF
102
}
330
7BEF
100
AcDbCellStyleMap
 90
        3
300
CELLSTYLE
  1
TABLEFORMAT_BEGIN
 90
        5
170
     1
 91
        0
 92
    32768
 62
   257
 93
        1
300
CONTENTFORMAT
  1
CONTENTFORMAT_BEGIN
 90
        0
 91
        0
 92
      512
 93
        0
300

 40
0.0
140
1.0
 94
        5
 62
     0
340
771F
144
0.25
309
CONTENTFORMAT_END
171
     1
301
MARGIN
  1
CELLMARGIN_BEGIN
 40
0.06
 40
0.06
 40
0.06
 40
0.06
 40
0.18
 40
0.18
309
CELLMARGIN_END
 94
        6
 95
        1
302
GRIDFORMAT
  1
GRIDFORMAT_BEGIN
 90
        0
 91
        1
 62
     0
 92
       -2
340
0
 93
        0
 40
0.045
309
GRIDFORMAT_END
 95
        2
302
GRIDFORMAT
  1
GRIDFORMAT_BEGIN
 90
        0
 91
        1
 62
     0
 92
       -2
340
0
 93
        0
 40
0.045
309
GRIDFORMAT_END
 95
        4
302
GRIDFORMAT
  1
GRIDFORMAT_BEGIN
 90
        0
 91
        1
 62
     0
 92
       -2
340
0
 93
        0
 40
0.045
309
GRIDFORMAT_END
 95
        8
302
GRIDFORMAT
  1
GRIDFORMAT_BEGIN
 90
        0
 91
        1
 62
     0
 92
       -2
340
0
 93
        0
 40
0.045
309
GRIDFORMAT_END
 95
       16
302
GRIDFORMAT
  1
GRIDFORMAT_BEGIN
 90
        0
 91
        1
 62
     0
 92
       -2
340
0
 93
        0
 40
0.045
309
GRIDFORMAT_END
 95
       32
302
GRIDFORMAT
  1
GRIDFORMAT_BEGIN
 90
        0
 91
        1
 62
     0
 92
       -2
340
0
 93
        0
 40
0.045
309
GRIDFORMAT_END
309
TABLEFORMAT_END
  1
CELLSTYLE_BEGIN
 90
        1
 91
        1
300
_TITLE
309
CELLSTYLE_END
300
CELLSTYLE
  1
TABLEFORMAT_BEGIN
 90
        5
170
     1
 91
        0
 92
        0
 62
   257
 93
        1
300
CONTENTFORMAT
  1
CONTENTFORMAT_BEGIN
 90
        0
 91
        0
 92
      512
 93
        0
300

 40
0.0
140
1.0
 94
        5
 62
     0
340
771F
144
0.18
309
CONTENTFORMAT_END
171
     1
301
MARGIN
  1
CELLMARGIN_BEGIN
 40
0.06
 40
0.06
 40
0.06
 40
0.06
 40
0.18
 40
0.18
309
CELLMARGIN_END
 94
        6
 95
        1
302
GRIDFORMAT
  1
GRIDFORMAT_BEGIN
 90
        0
 91
        1
 62
     0
 92
       -2
340
0
 93
        0
 40
0.045
309
GRIDFORMAT_END
 95
        2
302
GRIDFORMAT
  1
GRIDFORMAT_BEGIN
 90
        0
 91
        1
 62
     0
 92
       -2
340
0
 93
        0
 40
0.045
309
GRIDFORMAT_END
 95
        4
302
GRIDFORMAT
  1
GRIDFORMAT_BEGIN
 90
        0
 91
        1
 62
     0
 92
       -2
340
0
 93
        0
 40
0.045
309
GRIDFORMAT_END
 95
        8
302
GRIDFORMAT
  1
GRIDFORMAT_BEGIN
 90
        0
 91
        1
 62
     0
 92
       -2
340
0
 93
        0
 40
0.045
309
GRIDFORMAT_END
 95
       16
302
GRIDFORMAT
  1
GRIDFORMAT_BEGIN
 90
        0
 91
        1
 62
     0
 92
       -2
340
0
 93
        0
 40
0.045
309
GRIDFORMAT_END
 95
       32
302
GRIDFORMAT
  1
GRIDFORMAT_BEGIN
 90
        0
 91
        1
 62
     0
 92
       -2
340
0
 93
        0
 40
0.045
309
GRIDFORMAT_END
309
TABLEFORMAT_END
  1
CELLSTYLE_BEGIN
 90
        2
 91
        1
300
_HEADER
309
CELLSTYLE_END
300
CELLSTYLE
  1
TABLEFORMAT_BEGIN
 90
        5
170
     1
 91
        0
 92
        0
 62
   257
 93
        1
300
CONTENTFORMAT
  1
CONTENTFORMAT_BEGIN
 90
        0
 91
        0
 92
      512
 93
        0
300

 40
0.0
140
1.0
 94
        2
 62
     0
340
771F
144
0.18
309
CONTENTFORMAT_END
171
     1
301
MARGIN
  1
CELLMARGIN_BEGIN
 40
0.06
 40
0.06
 40
0.06
 40
0.06
 40
0.18
 40
0.18
309
CELLMARGIN_END
 94
        6
 95
        1
302
GRIDFORMAT
  1
GRIDFORMAT_BEGIN
 90
        0
 91
        1
 62
     0
 92
       -2
340
0
 93
        0
 40
0.045
309
GRIDFORMAT_END
 95
        2
302
GRIDFORMAT
  1
GRIDFORMAT_BEGIN
 90
        0
 91
        1
 62
     0
 92
       -2
340
0
 93
        0
 40
0.045
309
GRIDFORMAT_END
 95
        4
302
GRIDFORMAT
  1
GRIDFORMAT_BEGIN
 90
        0
 91
        1
 62
     0
 92
       -2
340
0
 93
        0
 40
0.045
309
GRIDFORMAT_END
 95
        8
302
GRIDFORMAT
  1
GRIDFORMAT_BEGIN
 90
        0
 91
        1
 62
     0
 92
       -2
340
0
 93
        0
 40
0.045
309
GRIDFORMAT_END
 95
       16
302
GRIDFORMAT
  1
GRIDFORMAT_BEGIN
 90
        0
 91
        1
 62
     0
 92
       -2
340
0
 93
        0
 40
0.045
309
GRIDFORMAT_END
 95
       32
302
GRIDFORMAT
  1
GRIDFORMAT_BEGIN
 90
        0
 91
        1
 62
     0
 92
       -2
340
0
 93
        0
 40
0.045
309
GRIDFORMAT_END
309
TABLEFORMAT_END
  1
CELLSTYLE_BEGIN
 90
        3
 91
        2
300
_DATA
309
CELLSTYLE_END
  0
XRECORD
  5
7F53
102
{ACAD_REACTORS
330
7F52
102
}
330
7F52
100
AcDbXrecord
280
     1
102
RTVSPost2010Prop28
280
     1
102
RTVSPost2010PropOp28
 70
     1
102
RTVSPost2010Prop29
280
     1
102
RTVSPost2010PropOp29
 70
     1
102
RTVSPost2010Prop30
280
     0
102
RTVSPost2010PropOp30
 70
     1
102
RTVSPost2010Prop31
280
     0
102
RTVSPost2010PropOp31
 70
     1
102
RTVSPost2010Prop32
280
     0
102
RTVSPost2010PropOp32
 70
     1
102
RTVSPost2010Prop33
280
     0
102
RTVSPost2010PropOp33
 70
     1
102
RTVSPost2010Prop34
280
     0
102
RTVSPost2010PropOp34
 70
     1
102
RTVSPost2010Prop35
280
     0
102
RTVSPost2010PropOp35
 70
     1
102
RTVSPost2010Prop36
280
     0
102
RTVSPost2010PropOp36
 70
     1
102
RTVSPost2010Prop37
 90
       50
102
RTVSPost2010PropOp37
 70
     1
102
RTVSPost2010Prop38
140
0.0
102
RTVSPost2010PropOp38
 70
     1
102
RTVSPost2010Prop39
140
1.0
102
RTVSPost2010PropOp39
 70
     1
102
RTVSPost2010Prop40
 90
        0
102
RTVSPost2010PropOp40
 70
     1
102
RTVSPost2010Prop41ColorIndex
 90
       18
102
RTVSPost2010Prop41ColorRGB
 90
        0
102
RTVSPost2010PropOp41
 70
     1
102
RTVSPost2010Prop42
 90
       50
102
RTVSPost2010PropOp42
 70
     1
102
RTVSPost2010Prop43
 90
        3
102
RTVSPost2010PropOp43
 70
     1
102
RTVSPost2010Prop44ColorIndex
 90
        5
102
RTVSPost2010Prop44ColorRGB
 90
      255
102
RTVSPost2010PropOp44
 70
     1
102
RTVSPost2010Prop45
280
     0
102
RTVSPost2010PropOp45
 70
     1
102
RTVSPost2010Prop46
 90
       50
102
RTVSPost2010PropOp46
 70
     1
102
RTVSPost2010Prop47
 90
       50
102
RTVSPost2010PropOp47
 70
     1
102
RTVSPost2010Prop48
 90
       50
102
RTVSPost2010PropOp48
 70
     1
102
RTVSPost2010Prop49
280
     0
102
RTVSPost2010PropOp49
 70
     1
102
RTVSPost2010Prop50
 90
       50
102
RTVSPost2010PropOp50
 70
     1
102
RTVSPost2010Prop51ColorIndex
 90
      256
102
RTVSPost2010Prop51ColorRGB
 90
-16777216
102
RTVSPost2010PropOp51
 70
     0
102
RTVSPost2010Prop52
140
1.0
102
RTVSPost2010PropOp52
 70
     0
102
RTVSPost2010Prop53
 90
        2
102
RTVSPost2010PropOp53
 70
     1
102
RTVSPost2010Prop54
  1
strokes_ogs.tif
102
RTVSPost2010PropOp54
 70
     1
102
RTVSPost2010Prop55
280
     0
102
RTVSPost2010PropOp55
 70
     1
102
RTVSPost2010Prop56
140
1.0
102
RTVSPost2010PropOp56
 70
     1
102
RTVSPost2010Prop57
140
1.0
102
RTVSPost2010PropOp57
 70
     1
102
RTVSPropertyOp0
 70
     1
102
RTVSPropertyOp1
 70
     1
102
RTVSPropertyOp2
 70
     1
102
RTVSPropertyOp3
 70
     1
102
RTVSPropertyOp4
 70
     1
102
RTVSPropertyOp5
 70
     1
102
RTVSPropertyOp6
 70
     1
102
RTVSPropertyOp7
 70
     1
102
RTVSPropertyOp8
 70
     1
102
RTVSPropertyOp9
 70
     1
102
RTVSPropertyOp10
 70
     1
102
RTVSPropertyOp11
 70
     1
102
RTVSPropertyOp12
 70
     1
102
RTVSPropertyOp13
 70
     1
102
RTVSPropertyOp14
 70
     1
102
RTVSPropertyOp15
 70
     1
102
RTVSPropertyOp16
 70
     1
102
RTVSPropertyOp17
 70
     1
102
RTVSPropertyOp18
 70
     1
102
RTVSPropertyOp19
 70
     1
102
RTVSPropertyOp20
 70
     1
102
RTVSPropertyOp21
 70
     1
102
RTVSPropertyOp22
 70
     1
102
RTVSPropertyOp23
 70
     1
102
RTVSPropertyOp24
 70
     1
102
RTVSPropertyOp25
 70
     1
102
RTVSPropertyOp26
 70
     1
102
RTVSPropertyOp27
 70
     1
102
RTVSPropertyOp28
 70
     1
102
RTVSPropertyOp29
 70
     1
102
RTVSPropertyOp30
 70
     1
102
RTVSPropertyOp31
 70
     1
102
RTVSPropertyOp32
 70
     1
102
RTVSPropertyOp33
 70
     1
102
RTVSPropertyOp34
 70
     1
102
RTVSPropertyOp35
 70
     1
102
RTVSPropertyOp36
 70
     1
102
RTVSPropertyOp37
 70
     1
102
RTVSPropertyOp38
 70
     1
102
RTVSPropertyOp39
 70
     1
102
RTVSPropertyOp40
 70
     1
102
RTVSPropertyOp41
 70
     1
102
RTVSPropertyOp42
 70
     1
102
RTVSPropertyOp43
 70
     1
102
RTVSPropertyOp44
 70
     1
102
RTVSPropertyOp45
 70
     1
102
RTVSPropertyOp46
 70
     1
102
RTVSPropertyOp47
 70
     1
102
RTVSPropertyOp48
 70
     1
102
RTVSPropertyOp49
 70
     1
102
RTVSPropertyOp50
 70
     1
102
RTVSPropertyOp51
 70
     0
102
RTVSPropertyOp52
 70
     0
102
RTVSPropertyOp53
 70
     1
102
RTVSPropertyOp54
 70
     1
102
RTVSPropertyOp55
 70
     1
102
RTVSPropertyOp56
 70
     1
102
RTVSPropertyOp57
 70
     1
102
RTVSPropertyOp58
 70
     1
102
RTVSPropertyOp59
 70
     1
102
RTVSPropertyOp60
 70
     1
102
RTVSPropertyOp61
 70
     1
102
RTVSPropertyOp62
 70
     1
  0
XRECORD
  5
7F51
102
{ACAD_REACTORS
330
7F50
102
}
330
7F50
100
AcDbXrecord
280
     1
102
RTVSPost2010Prop28
280
     0
102
RTVSPost2010PropOp28
 70
     1
102
RTVSPost2010Prop29
280
     1
102
RTVSPost2010PropOp29
 70
     1
102
RTVSPost2010Prop30
280
     1
102
RTVSPost2010PropOp30
 70
     1
102
RTVSPost2010Prop31
280
     0
102
RTVSPost2010PropOp31
 70
     1
102
RTVSPost2010Prop32
280
     0
102
RTVSPost2010PropOp32
 70
     1
102
RTVSPost2010Prop33
280
     0
102
RTVSPost2010PropOp33
 70
     1
102
RTVSPost2010Prop34
280
     0
102
RTVSPost2010PropOp34
 70
     1
102
RTVSPost2010Prop35
280
     0
102
RTVSPost2010PropOp35
 70
     1
102
RTVSPost2010Prop36
280
     0
102
RTVSPost2010PropOp36
 70
     1
102
RTVSPost2010Prop37
 90
       50
102
RTVSPost2010PropOp37
 70
     1
102
RTVSPost2010Prop38
140
0.0
102
RTVSPost2010PropOp38
 70
     1
102
RTVSPost2010Prop39
140
1.0
102
RTVSPost2010PropOp39
 70
     1
102
RTVSPost2010Prop40
 90
        0
102
RTVSPost2010PropOp40
 70
     1
102
RTVSPost2010Prop41ColorIndex
 90
       18
102
RTVSPost2010Prop41ColorRGB
 90
        0
102
RTVSPost2010PropOp41
 70
     1
102
RTVSPost2010Prop42
 90
       50
102
RTVSPost2010PropOp42
 70
     1
102
RTVSPost2010Prop43
 90
        3
102
RTVSPost2010PropOp43
 70
     1
102
RTVSPost2010Prop44ColorIndex
 90
        5
102
RTVSPost2010Prop44ColorRGB
 90
      255
102
RTVSPost2010PropOp44
 70
     1
102
RTVSPost2010Prop45
280
     0
102
RTVSPost2010PropOp45
 70
     1
102
RTVSPost2010Prop46
 90
       50
102
RTVSPost2010PropOp46
 70
     1
102
RTVSPost2010Prop47
 90
       50
102
RTVSPost2010PropOp47
 70
     1
102
RTVSPost2010Prop48
 90
       50
102
RTVSPost2010PropOp48
 70
     1
102
RTVSPost2010Prop49
280
     0
102
RTVSPost2010PropOp49
 70
     1
102
RTVSPost2010Prop50
 90
       50
102
RTVSPost2010PropOp50
 70
     1
102
RTVSPost2010Prop51ColorIndex
 90
      256
102
RTVSPost2010Prop51ColorRGB
 90
-16777216
102
RTVSPost2010PropOp51
 70
     0
102
RTVSPost2010Prop52
140
1.0
102
RTVSPost2010PropOp52
 70
     0
102
RTVSPost2010Prop53
 90
        2
102
RTVSPost2010PropOp53
 70
     1
102
RTVSPost2010Prop54
  1
strokes_ogs.tif
102
RTVSPost2010PropOp54
 70
     1
102
RTVSPost2010Prop55
280
     0
102
RTVSPost2010PropOp55
 70
     1
102
RTVSPost2010Prop56
140
1.0
102
RTVSPost2010PropOp56
 70
     1
102
RTVSPost2010Prop57
140
1.0
102
RTVSPost2010PropOp57
 70
     1
102
RTVSPropertyOp0
 70
     1
102
RTVSPropertyOp1
 70
     1
102
RTVSPropertyOp2
 70
     1
102
RTVSPropertyOp3
 70
     1
102
RTVSPropertyOp4
 70
     1
102
RTVSPropertyOp5
 70
     1
102
RTVSPropertyOp6
 70
     1
102
RTVSPropertyOp7
 70
     1
102
RTVSPropertyOp8
 70
     1
102
RTVSPropertyOp9
 70
     1
102
RTVSPropertyOp10
 70
     1
102
RTVSPropertyOp11
 70
     1
102
RTVSPropertyOp12
 70
     1
102
RTVSPropertyOp13
 70
     1
102
RTVSPropertyOp14
 70
     1
102
RTVSPropertyOp15
 70
     1
102
RTVSPropertyOp16
 70
     1
102
RTVSPropertyOp17
 70
     1
102
RTVSPropertyOp18
 70
     1
102
RTVSPropertyOp19
 70
     1
102
RTVSPropertyOp20
 70
     1
102
RTVSPropertyOp21
 70
     1
102
RTVSPropertyOp22
 70
     1
102
RTVSPropertyOp23
 70
     1
102
RTVSPropertyOp24
 70
     1
102
RTVSPropertyOp25
 70
     1
102
RTVSPropertyOp26
 70
     1
102
RTVSPropertyOp27
 70
     1
102
RTVSPropertyOp28
 70
     1
102
RTVSPropertyOp29
 70
     1
102
RTVSPropertyOp30
 70
     1
102
RTVSPropertyOp31
 70
     1
102
RTVSPropertyOp32
 70
     1
102
RTVSPropertyOp33
 70
     1
102
RTVSPropertyOp34
 70
     1
102
RTVSPropertyOp35
 70
     1
102
RTVSPropertyOp36
 70
     1
102
RTVSPropertyOp37
 70
     1
102
RTVSPropertyOp38
 70
     1
102
RTVSPropertyOp39
 70
     1
102
RTVSPropertyOp40
 70
     1
102
RTVSPropertyOp41
 70
     1
102
RTVSPropertyOp42
 70
     1
102
RTVSPropertyOp43
 70
     1
102
RTVSPropertyOp44
 70
     1
102
RTVSPropertyOp45
 70
     1
102
RTVSPropertyOp46
 70
     1
102
RTVSPropertyOp47
 70
     1
102
RTVSPropertyOp48
 70
     1
102
RTVSPropertyOp49
 70
     1
102
RTVSPropertyOp50
 70
     1
102
RTVSPropertyOp51
 70
     0
102
RTVSPropertyOp52
 70
     0
102
RTVSPropertyOp53
 70
     1
102
RTVSPropertyOp54
 70
     1
102
RTVSPropertyOp55
 70
     1
102
RTVSPropertyOp56
 70
     1
102
RTVSPropertyOp57
 70
     1
102
RTVSPropertyOp58
 70
     1
102
RTVSPropertyOp59
 70
     1
102
RTVSPropertyOp60
 70
     1
102
RTVSPropertyOp61
 70
     1
102
RTVSPropertyOp62
 70
     1
  0
XRECORD
  5
7F5F
102
{ACAD_REACTORS
330
7F5E
102
}
330
7F5E
100
AcDbXrecord
280
     1
102
RTVSPost2010Prop28
280
     0
102
RTVSPost2010PropOp28
 70
     1
102
RTVSPost2010Prop29
280
     1
102
RTVSPost2010PropOp29
 70
     1
102
RTVSPost2010Prop30
280
     1
102
RTVSPost2010PropOp30
 70
     1
102
RTVSPost2010Prop31
280
     0
102
RTVSPost2010PropOp31
 70
     1
102
RTVSPost2010Prop32
280
     0
102
RTVSPost2010PropOp32
 70
     1
102
RTVSPost2010Prop33
280
     0
102
RTVSPost2010PropOp33
 70
     1
102
RTVSPost2010Prop34
280
     0
102
RTVSPost2010PropOp34
 70
     1
102
RTVSPost2010Prop35
280
     0
102
RTVSPost2010PropOp35
 70
     1
102
RTVSPost2010Prop36
280
     0
102
RTVSPost2010PropOp36
 70
     1
102
RTVSPost2010Prop37
 90
       50
102
RTVSPost2010PropOp37
 70
     1
102
RTVSPost2010Prop38
140
0.0
102
RTVSPost2010PropOp38
 70
     1
102
RTVSPost2010Prop39
140
1.0
102
RTVSPost2010PropOp39
 70
     1
102
RTVSPost2010Prop40
 90
        0
102
RTVSPost2010PropOp40
 70
     1
102
RTVSPost2010Prop41ColorIndex
 90
       18
102
RTVSPost2010Prop41ColorRGB
 90
        0
102
RTVSPost2010PropOp41
 70
     1
102
RTVSPost2010Prop42
 90
       50
102
RTVSPost2010PropOp42
 70
     1
102
RTVSPost2010Prop43
 90
        3
102
RTVSPost2010PropOp43
 70
     1
102
RTVSPost2010Prop44ColorIndex
 90
        5
102
RTVSPost2010Prop44ColorRGB
 90
      255
102
RTVSPost2010PropOp44
 70
     1
102
RTVSPost2010Prop45
280
     0
102
RTVSPost2010PropOp45
 70
     1
102
RTVSPost2010Prop46
 90
       50
102
RTVSPost2010PropOp46
 70
     1
102
RTVSPost2010Prop47
 90
       50
102
RTVSPost2010PropOp47
 70
     1
102
RTVSPost2010Prop48
 90
       50
102
RTVSPost2010PropOp48
 70
     1
102
RTVSPost2010Prop49
280
     0
102
RTVSPost2010PropOp49
 70
     1
102
RTVSPost2010Prop50
 90
       50
102
RTVSPost2010PropOp50
 70
     1
102
RTVSPost2010Prop51ColorIndex
 90
      256
102
RTVSPost2010Prop51ColorRGB
 90
-16777216
102
RTVSPost2010PropOp51
 70
     0
102
RTVSPost2010Prop52
140
1.0
102
RTVSPost2010PropOp52
 70
     0
102
RTVSPost2010Prop53
 90
        2
102
RTVSPost2010PropOp53
 70
     1
102
RTVSPost2010Prop54
  1
strokes_ogs.tif
102
RTVSPost2010PropOp54
 70
     1
102
RTVSPost2010Prop55
280
     0
102
RTVSPost2010PropOp55
 70
     1
102
RTVSPost2010Prop56
140
1.0
102
RTVSPost2010PropOp56
 70
     1
102
RTVSPost2010Prop57
140
1.0
102
RTVSPost2010PropOp57
 70
     1
102
RTVSPropertyOp0
 70
     1
102
RTVSPropertyOp1
 70
     1
102
RTVSPropertyOp2
 70
     1
102
RTVSPropertyOp3
 70
     1
102
RTVSPropertyOp4
 70
     1
102
RTVSPropertyOp5
 70
     1
102
RTVSPropertyOp6
 70
     1
102
RTVSPropertyOp7
 70
     1
102
RTVSPropertyOp8
 70
     1
102
RTVSPropertyOp9
 70
     1
102
RTVSPropertyOp10
 70
     1
102
RTVSPropertyOp11
 70
     1
102
RTVSPropertyOp12
 70
     1
102
RTVSPropertyOp13
 70
     1
102
RTVSPropertyOp14
 70
     1
102
RTVSPropertyOp15
 70
     1
102
RTVSPropertyOp16
 70
     1
102
RTVSPropertyOp17
 70
     1
102
RTVSPropertyOp18
 70
     1
102
RTVSPropertyOp19
 70
     1
102
RTVSPropertyOp20
 70
     1
102
RTVSPropertyOp21
 70
     1
102
RTVSPropertyOp22
 70
     1
102
RTVSPropertyOp23
 70
     1
102
RTVSPropertyOp24
 70
     1
102
RTVSPropertyOp25
 70
     1
102
RTVSPropertyOp26
 70
     1
102
RTVSPropertyOp27
 70
     1
102
RTVSPropertyOp28
 70
     1
102
RTVSPropertyOp29
 70
     1
102
RTVSPropertyOp30
 70
     1
102
RTVSPropertyOp31
 70
     1
102
RTVSPropertyOp32
 70
     1
102
RTVSPropertyOp33
 70
     1
102
RTVSPropertyOp34
 70
     1
102
RTVSPropertyOp35
 70
     1
102
RTVSPropertyOp36
 70
     1
102
RTVSPropertyOp37
 70
     1
102
RTVSPropertyOp38
 70
     1
102
RTVSPropertyOp39
 70
     1
102
RTVSPropertyOp40
 70
     1
102
RTVSPropertyOp41
 70
     1
102
RTVSPropertyOp42
 70
     1
102
RTVSPropertyOp43
 70
     1
102
RTVSPropertyOp44
 70
     1
102
RTVSPropertyOp45
 70
     1
102
RTVSPropertyOp46
 70
     1
102
RTVSPropertyOp47
 70
     1
102
RTVSPropertyOp48
 70
     1
102
RTVSPropertyOp49
 70
     1
102
RTVSPropertyOp50
 70
     1
102
RTVSPropertyOp51
 70
     0
102
RTVSPropertyOp52
 70
     0
102
RTVSPropertyOp53
 70
     1
102
RTVSPropertyOp54
 70
     1
102
RTVSPropertyOp55
 70
     1
102
RTVSPropertyOp56
 70
     1
102
RTVSPropertyOp57
 70
     1
102
RTVSPropertyOp58
 70
     1
102
RTVSPropertyOp59
 70
     1
102
RTVSPropertyOp60
 70
     1
102
RTVSPropertyOp61
 70
     1
102
RTVSPropertyOp62
 70
     1
  0
XRECORD
  5
7F67
102
{ACAD_REACTORS
330
7F66
102
}
330
7F66
100
AcDbXrecord
280
     1
102
RTVSPost2010Prop28
280
     0
102
RTVSPost2010PropOp28
 70
     1
102
RTVSPost2010Prop29
280
     1
102
RTVSPost2010PropOp29
 70
     1
102
RTVSPost2010Prop30
280
     1
102
RTVSPost2010PropOp30
 70
     1
102
RTVSPost2010Prop31
280
     0
102
RTVSPost2010PropOp31
 70
     1
102
RTVSPost2010Prop32
280
     0
102
RTVSPost2010PropOp32
 70
     1
102
RTVSPost2010Prop33
280
     0
102
RTVSPost2010PropOp33
 70
     1
102
RTVSPost2010Prop34
280
     0
102
RTVSPost2010PropOp34
 70
     1
102
RTVSPost2010Prop35
280
     0
102
RTVSPost2010PropOp35
 70
     1
102
RTVSPost2010Prop36
280
     0
102
RTVSPost2010PropOp36
 70
     1
102
RTVSPost2010Prop37
 90
       50
102
RTVSPost2010PropOp37
 70
     1
102
RTVSPost2010Prop38
140
0.0
102
RTVSPost2010PropOp38
 70
     1
102
RTVSPost2010Prop39
140
1.0
102
RTVSPost2010PropOp39
 70
     1
102
RTVSPost2010Prop40
 90
        0
102
RTVSPost2010PropOp40
 70
     1
102
RTVSPost2010Prop41ColorIndex
 90
       18
102
RTVSPost2010Prop41ColorRGB
 90
        0
102
RTVSPost2010PropOp41
 70
     1
102
RTVSPost2010Prop42
 90
       50
102
RTVSPost2010PropOp42
 70
     1
102
RTVSPost2010Prop43
 90
        3
102
RTVSPost2010PropOp43
 70
     1
102
RTVSPost2010Prop44ColorIndex
 90
        5
102
RTVSPost2010Prop44ColorRGB
 90
      255
102
RTVSPost2010PropOp44
 70
     1
102
RTVSPost2010Prop45
280
     0
102
RTVSPost2010PropOp45
 70
     1
102
RTVSPost2010Prop46
 90
       50
102
RTVSPost2010PropOp46
 70
     1
102
RTVSPost2010Prop47
 90
       50
102
RTVSPost2010PropOp47
 70
     1
102
RTVSPost2010Prop48
 90
       50
102
RTVSPost2010PropOp48
 70
     1
102
RTVSPost2010Prop49
280
     0
102
RTVSPost2010PropOp49
 70
     1
102
RTVSPost2010Prop50
 90
       50
102
RTVSPost2010PropOp50
 70
     1
102
RTVSPost2010Prop51ColorIndex
 90
      256
102
RTVSPost2010Prop51ColorRGB
 90
-16777216
102
RTVSPost2010PropOp51
 70
     0
102
RTVSPost2010Prop52
140
1.0
102
RTVSPost2010PropOp52
 70
     0
102
RTVSPost2010Prop53
 90
        2
102
RTVSPost2010PropOp53
 70
     1
102
RTVSPost2010Prop54
  1
strokes_ogs.tif
102
RTVSPost2010PropOp54
 70
     1
102
RTVSPost2010Prop55
280
     0
102
RTVSPost2010PropOp55
 70
     1
102
RTVSPost2010Prop56
140
1.0
102
RTVSPost2010PropOp56
 70
     1
102
RTVSPost2010Prop57
140
1.0
102
RTVSPost2010PropOp57
 70
     1
102
RTVSPropertyOp0
 70
     1
102
RTVSPropertyOp1
 70
     1
102
RTVSPropertyOp2
 70
     1
102
RTVSPropertyOp3
 70
     1
102
RTVSPropertyOp4
 70
     1
102
RTVSPropertyOp5
 70
     1
102
RTVSPropertyOp6
 70
     1
102
RTVSPropertyOp7
 70
     1
102
RTVSPropertyOp8
 70
     1
102
RTVSPropertyOp9
 70
     1
102
RTVSPropertyOp10
 70
     1
102
RTVSPropertyOp11
 70
     1
102
RTVSPropertyOp12
 70
     1
102
RTVSPropertyOp13
 70
     1
102
RTVSPropertyOp14
 70
     1
102
RTVSPropertyOp15
 70
     1
102
RTVSPropertyOp16
 70
     1
102
RTVSPropertyOp17
 70
     1
102
RTVSPropertyOp18
 70
     1
102
RTVSPropertyOp19
 70
     1
102
RTVSPropertyOp20
 70
     1
102
RTVSPropertyOp21
 70
     1
102
RTVSPropertyOp22
 70
     1
102
RTVSPropertyOp23
 70
     1
102
RTVSPropertyOp24
 70
     1
102
RTVSPropertyOp25
 70
     1
102
RTVSPropertyOp26
 70
     1
102
RTVSPropertyOp27
 70
     1
102
RTVSPropertyOp28
 70
     1
102
RTVSPropertyOp29
 70
     1
102
RTVSPropertyOp30
 70
     1
102
RTVSPropertyOp31
 70
     1
102
RTVSPropertyOp32
 70
     1
102
RTVSPropertyOp33
 70
     1
102
RTVSPropertyOp34
 70
     1
102
RTVSPropertyOp35
 70
     1
102
RTVSPropertyOp36
 70
     1
102
RTVSPropertyOp37
 70
     1
102
RTVSPropertyOp38
 70
     1
102
RTVSPropertyOp39
 70
     1
102
RTVSPropertyOp40
 70
     1
102
RTVSPropertyOp41
 70
     1
102
RTVSPropertyOp42
 70
     1
102
RTVSPropertyOp43
 70
     1
102
RTVSPropertyOp44
 70
     1
102
RTVSPropertyOp45
 70
     1
102
RTVSPropertyOp46
 70
     1
102
RTVSPropertyOp47
 70
     1
102
RTVSPropertyOp48
 70
     1
102
RTVSPropertyOp49
 70
     1
102
RTVSPropertyOp50
 70
     1
102
RTVSPropertyOp51
 70
     0
102
RTVSPropertyOp52
 70
     0
102
RTVSPropertyOp53
 70
     1
102
RTVSPropertyOp54
 70
     1
102
RTVSPropertyOp55
 70
     1
102
RTVSPropertyOp56
 70
     1
102
RTVSPropertyOp57
 70
     1
102
RTVSPropertyOp58
 70
     1
102
RTVSPropertyOp59
 70
     1
102
RTVSPropertyOp60
 70
     1
102
RTVSPropertyOp61
 70
     1
102
RTVSPropertyOp62
 70
     1
  0
XRECORD
  5
7F59
102
{ACAD_REACTORS
330
7F58
102
}
330
7F58
100
AcDbXrecord
280
     1
102
RTVSPost2010Prop28
280
     0
102
RTVSPost2010PropOp28
 70
     1
102
RTVSPost2010Prop29
280
     1
102
RTVSPost2010PropOp29
 70
     1
102
RTVSPost2010Prop30
280
     1
102
RTVSPost2010PropOp30
 70
     1
102
RTVSPost2010Prop31
280
     0
102
RTVSPost2010PropOp31
 70
     1
102
RTVSPost2010Prop32
280
     0
102
RTVSPost2010PropOp32
 70
     1
102
RTVSPost2010Prop33
280
     0
102
RTVSPost2010PropOp33
 70
     1
102
RTVSPost2010Prop34
280
     0
102
RTVSPost2010PropOp34
 70
     1
102
RTVSPost2010Prop35
280
     0
102
RTVSPost2010PropOp35
 70
     1
102
RTVSPost2010Prop36
280
     0
102
RTVSPost2010PropOp36
 70
     1
102
RTVSPost2010Prop37
 90
       50
102
RTVSPost2010PropOp37
 70
     1
102
RTVSPost2010Prop38
140
0.0
102
RTVSPost2010PropOp38
 70
     1
102
RTVSPost2010Prop39
140
1.0
102
RTVSPost2010PropOp39
 70
     1
102
RTVSPost2010Prop40
 90
        0
102
RTVSPost2010PropOp40
 70
     1
102
RTVSPost2010Prop41ColorIndex
 90
       18
102
RTVSPost2010Prop41ColorRGB
 90
        0
102
RTVSPost2010PropOp41
 70
     1
102
RTVSPost2010Prop42
 90
       50
102
RTVSPost2010PropOp42
 70
     1
102
RTVSPost2010Prop43
 90
        3
102
RTVSPost2010PropOp43
 70
     1
102
RTVSPost2010Prop44ColorIndex
 90
        5
102
RTVSPost2010Prop44ColorRGB
 90
      255
102
RTVSPost2010PropOp44
 70
     1
102
RTVSPost2010Prop45
280
     0
102
RTVSPost2010PropOp45
 70
     1
102
RTVSPost2010Prop46
 90
       50
102
RTVSPost2010PropOp46
 70
     1
102
RTVSPost2010Prop47
 90
       50
102
RTVSPost2010PropOp47
 70
     1
102
RTVSPost2010Prop48
 90
       50
102
RTVSPost2010PropOp48
 70
     1
102
RTVSPost2010Prop49
280
     0
102
RTVSPost2010PropOp49
 70
     1
102
RTVSPost2010Prop50
 90
       50
102
RTVSPost2010PropOp50
 70
     1
102
RTVSPost2010Prop51ColorIndex
 90
      256
102
RTVSPost2010Prop51ColorRGB
 90
-16777216
102
RTVSPost2010PropOp51
 70
     0
102
RTVSPost2010Prop52
140
1.0
102
RTVSPost2010PropOp52
 70
     0
102
RTVSPost2010Prop53
 90
        2
102
RTVSPost2010PropOp53
 70
     1
102
RTVSPost2010Prop54
  1
strokes_ogs.tif
102
RTVSPost2010PropOp54
 70
     1
102
RTVSPost2010Prop55
280
     0
102
RTVSPost2010PropOp55
 70
     1
102
RTVSPost2010Prop56
140
1.0
102
RTVSPost2010PropOp56
 70
     1
102
RTVSPost2010Prop57
140
1.0
102
RTVSPost2010PropOp57
 70
     1
102
RTVSPropertyOp0
 70
     1
102
RTVSPropertyOp1
 70
     1
102
RTVSPropertyOp2
 70
     1
102
RTVSPropertyOp3
 70
     1
102
RTVSPropertyOp4
 70
     1
102
RTVSPropertyOp5
 70
     1
102
RTVSPropertyOp6
 70
     1
102
RTVSPropertyOp7
 70
     1
102
RTVSPropertyOp8
 70
     1
102
RTVSPropertyOp9
 70
     1
102
RTVSPropertyOp10
 70
     1
102
RTVSPropertyOp11
 70
     1
102
RTVSPropertyOp12
 70
     1
102
RTVSPropertyOp13
 70
     1
102
RTVSPropertyOp14
 70
     1
102
RTVSPropertyOp15
 70
     1
102
RTVSPropertyOp16
 70
     1
102
RTVSPropertyOp17
 70
     1
102
RTVSPropertyOp18
 70
     1
102
RTVSPropertyOp19
 70
     1
102
RTVSPropertyOp20
 70
     1
102
RTVSPropertyOp21
 70
     1
102
RTVSPropertyOp22
 70
     1
102
RTVSPropertyOp23
 70
     1
102
RTVSPropertyOp24
 70
     1
102
RTVSPropertyOp25
 70
     1
102
RTVSPropertyOp26
 70
     1
102
RTVSPropertyOp27
 70
     1
102
RTVSPropertyOp28
 70
     1
102
RTVSPropertyOp29
 70
     1
102
RTVSPropertyOp30
 70
     1
102
RTVSPropertyOp31
 70
     1
102
RTVSPropertyOp32
 70
     1
102
RTVSPropertyOp33
 70
     1
102
RTVSPropertyOp34
 70
     1
102
RTVSPropertyOp35
 70
     1
102
RTVSPropertyOp36
 70
     1
102
RTVSPropertyOp37
 70
     1
102
RTVSPropertyOp38
 70
     1
102
RTVSPropertyOp39
 70
     1
102
RTVSPropertyOp40
 70
     1
102
RTVSPropertyOp41
 70
     1
102
RTVSPropertyOp42
 70
     1
102
RTVSPropertyOp43
 70
     1
102
RTVSPropertyOp44
 70
     1
102
RTVSPropertyOp45
 70
     1
102
RTVSPropertyOp46
 70
     1
102
RTVSPropertyOp47
 70
     1
102
RTVSPropertyOp48
 70
     1
102
RTVSPropertyOp49
 70
     1
102
RTVSPropertyOp50
 70
     1
102
RTVSPropertyOp51
 70
     0
102
RTVSPropertyOp52
 70
     0
102
RTVSPropertyOp53
 70
     1
102
RTVSPropertyOp54
 70
     1
102
RTVSPropertyOp55
 70
     1
102
RTVSPropertyOp56
 70
     1
102
RTVSPropertyOp57
 70
     1
102
RTVSPropertyOp58
 70
     1
102
RTVSPropertyOp59
 70
     1
102
RTVSPropertyOp60
 70
     1
102
RTVSPropertyOp61
 70
     1
102
RTVSPropertyOp62
 70
     1
  0
XRECORD
  5
7F5D
102
{ACAD_REACTORS
330
7F5C
102
}
330
7F5C
100
AcDbXrecord
280
     1
102
RTVSPost2010Prop28
280
     0
102
RTVSPost2010PropOp28
 70
     1
102
RTVSPost2010Prop29
280
     1
102
RTVSPost2010PropOp29
 70
     1
102
RTVSPost2010Prop30
280
     1
102
RTVSPost2010PropOp30
 70
     1
102
RTVSPost2010Prop31
280
     0
102
RTVSPost2010PropOp31
 70
     1
102
RTVSPost2010Prop32
280
     0
102
RTVSPost2010PropOp32
 70
     1
102
RTVSPost2010Prop33
280
     0
102
RTVSPost2010PropOp33
 70
     1
102
RTVSPost2010Prop34
280
     0
102
RTVSPost2010PropOp34
 70
     1
102
RTVSPost2010Prop35
280
     0
102
RTVSPost2010PropOp35
 70
     1
102
RTVSPost2010Prop36
280
     0
102
RTVSPost2010PropOp36
 70
     1
102
RTVSPost2010Prop37
 90
       50
102
RTVSPost2010PropOp37
 70
     1
102
RTVSPost2010Prop38
140
0.0
102
RTVSPost2010PropOp38
 70
     1
102
RTVSPost2010Prop39
140
1.0
102
RTVSPost2010PropOp39
 70
     1
102
RTVSPost2010Prop40
 90
        0
102
RTVSPost2010PropOp40
 70
     1
102
RTVSPost2010Prop41ColorIndex
 90
       18
102
RTVSPost2010Prop41ColorRGB
 90
        0
102
RTVSPost2010PropOp41
 70
     1
102
RTVSPost2010Prop42
 90
       50
102
RTVSPost2010PropOp42
 70
     1
102
RTVSPost2010Prop43
 90
        3
102
RTVSPost2010PropOp43
 70
     1
102
RTVSPost2010Prop44ColorIndex
 90
        5
102
RTVSPost2010Prop44ColorRGB
 90
      255
102
RTVSPost2010PropOp44
 70
     1
102
RTVSPost2010Prop45
280
     0
102
RTVSPost2010PropOp45
 70
     1
102
RTVSPost2010Prop46
 90
       50
102
RTVSPost2010PropOp46
 70
     1
102
RTVSPost2010Prop47
 90
       50
102
RTVSPost2010PropOp47
 70
     1
102
RTVSPost2010Prop48
 90
       50
102
RTVSPost2010PropOp48
 70
     1
102
RTVSPost2010Prop49
280
     0
102
RTVSPost2010PropOp49
 70
     1
102
RTVSPost2010Prop50
 90
       50
102
RTVSPost2010PropOp50
 70
     1
102
RTVSPost2010Prop51ColorIndex
 90
      256
102
RTVSPost2010Prop51ColorRGB
 90
-16777216
102
RTVSPost2010PropOp51
 70
     0
102
RTVSPost2010Prop52
140
1.0
102
RTVSPost2010PropOp52
 70
     0
102
RTVSPost2010Prop53
 90
        2
102
RTVSPost2010PropOp53
 70
     1
102
RTVSPost2010Prop54
  1
strokes_ogs.tif
102
RTVSPost2010PropOp54
 70
     1
102
RTVSPost2010Prop55
280
     0
102
RTVSPost2010PropOp55
 70
     1
102
RTVSPost2010Prop56
140
1.0
102
RTVSPost2010PropOp56
 70
     1
102
RTVSPost2010Prop57
140
1.0
102
RTVSPost2010PropOp57
 70
     1
102
RTVSPropertyOp0
 70
     1
102
RTVSPropertyOp1
 70
     1
102
RTVSPropertyOp2
 70
     1
102
RTVSPropertyOp3
 70
     1
102
RTVSPropertyOp4
 70
     1
102
RTVSPropertyOp5
 70
     1
102
RTVSPropertyOp6
 70
     1
102
RTVSPropertyOp7
 70
     1
102
RTVSPropertyOp8
 70
     1
102
RTVSPropertyOp9
 70
     1
102
RTVSPropertyOp10
 70
     1
102
RTVSPropertyOp11
 70
     1
102
RTVSPropertyOp12
 70
     1
102
RTVSPropertyOp13
 70
     1
102
RTVSPropertyOp14
 70
     1
102
RTVSPropertyOp15
 70
     1
102
RTVSPropertyOp16
 70
     1
102
RTVSPropertyOp17
 70
     1
102
RTVSPropertyOp18
 70
     1
102
RTVSPropertyOp19
 70
     1
102
RTVSPropertyOp20
 70
     1
102
RTVSPropertyOp21
 70
     1
102
RTVSPropertyOp22
 70
     1
102
RTVSPropertyOp23
 70
     1
102
RTVSPropertyOp24
 70
     1
102
RTVSPropertyOp25
 70
     1
102
RTVSPropertyOp26
 70
     1
102
RTVSPropertyOp27
 70
     1
102
RTVSPropertyOp28
 70
     1
102
RTVSPropertyOp29
 70
     1
102
RTVSPropertyOp30
 70
     1
102
RTVSPropertyOp31
 70
     1
102
RTVSPropertyOp32
 70
     1
102
RTVSPropertyOp33
 70
     1
102
RTVSPropertyOp34
 70
     1
102
RTVSPropertyOp35
 70
     1
102
RTVSPropertyOp36
 70
     1
102
RTVSPropertyOp37
 70
     1
102
RTVSPropertyOp38
 70
     1
102
RTVSPropertyOp39
 70
     1
102
RTVSPropertyOp40
 70
     1
102
RTVSPropertyOp41
 70
     1
102
RTVSPropertyOp42
 70
     1
102
RTVSPropertyOp43
 70
     1
102
RTVSPropertyOp44
 70
     1
102
RTVSPropertyOp45
 70
     1
102
RTVSPropertyOp46
 70
     1
102
RTVSPropertyOp47
 70
     1
102
RTVSPropertyOp48
 70
     1
102
RTVSPropertyOp49
 70
     1
102
RTVSPropertyOp50
 70
     1
102
RTVSPropertyOp51
 70
     0
102
RTVSPropertyOp52
 70
     0
102
RTVSPropertyOp53
 70
     1
102
RTVSPropertyOp54
 70
     1
102
RTVSPropertyOp55
 70
     1
102
RTVSPropertyOp56
 70
     1
102
RTVSPropertyOp57
 70
     1
102
RTVSPropertyOp58
 70
     1
102
RTVSPropertyOp59
 70
     1
102
RTVSPropertyOp60
 70
     1
102
RTVSPropertyOp61
 70
     1
102
RTVSPropertyOp62
 70
     1
  0
XRECORD
  5
7F77
102
{ACAD_REACTORS
330
7F76
102
}
330
7F76
100
AcDbXrecord
280
     1
102
RTVSPost2010Prop28
280
     0
102
RTVSPost2010PropOp28
 70
     1
102
RTVSPost2010Prop29
280
     1
102
RTVSPost2010PropOp29
 70
     1
102
RTVSPost2010Prop30
280
     1
102
RTVSPost2010PropOp30
 70
     1
102
RTVSPost2010Prop31
280
     0
102
RTVSPost2010PropOp31
 70
     1
102
RTVSPost2010Prop32
280
     0
102
RTVSPost2010PropOp32
 70
     1
102
RTVSPost2010Prop33
280
     0
102
RTVSPost2010PropOp33
 70
     1
102
RTVSPost2010Prop34
280
     0
102
RTVSPost2010PropOp34
 70
     1
102
RTVSPost2010Prop35
280
     0
102
RTVSPost2010PropOp35
 70
     1
102
RTVSPost2010Prop36
280
     0
102
RTVSPost2010PropOp36
 70
     1
102
RTVSPost2010Prop37
 90
       50
102
RTVSPost2010PropOp37
 70
     0
102
RTVSPost2010Prop38
140
0.0
102
RTVSPost2010PropOp38
 70
     0
102
RTVSPost2010Prop39
140
1.0
102
RTVSPost2010PropOp39
 70
     0
102
RTVSPost2010Prop40
 90
        0
102
RTVSPost2010PropOp40
 70
     0
102
RTVSPost2010Prop41ColorIndex
 90
       18
102
RTVSPost2010Prop41ColorRGB
 90
        0
102
RTVSPost2010PropOp41
 70
     0
102
RTVSPost2010Prop42
 90
       50
102
RTVSPost2010PropOp42
 70
     0
102
RTVSPost2010Prop43
 90
        3
102
RTVSPost2010PropOp43
 70
     0
102
RTVSPost2010Prop44ColorIndex
 90
        5
102
RTVSPost2010Prop44ColorRGB
 90
      255
102
RTVSPost2010PropOp44
 70
     0
102
RTVSPost2010Prop45
280
     0
102
RTVSPost2010PropOp45
 70
     1
102
RTVSPost2010Prop46
 90
       50
102
RTVSPost2010PropOp46
 70
     0
102
RTVSPost2010Prop47
 90
       50
102
RTVSPost2010PropOp47
 70
     0
102
RTVSPost2010Prop48
 90
       50
102
RTVSPost2010PropOp48
 70
     0
102
RTVSPost2010Prop49
280
     0
102
RTVSPost2010PropOp49
 70
     1
102
RTVSPost2010Prop50
 90
       50
102
RTVSPost2010PropOp50
 70
     0
102
RTVSPost2010Prop51ColorIndex
 90
      256
102
RTVSPost2010Prop51ColorRGB
 90
-16777216
102
RTVSPost2010PropOp51
 70
     0
102
RTVSPost2010Prop52
140
1.0
102
RTVSPost2010PropOp52
 70
     0
102
RTVSPost2010Prop53
 90
        2
102
RTVSPost2010PropOp53
 70
     0
102
RTVSPost2010Prop54
  1
strokes_ogs.tif
102
RTVSPost2010PropOp54
 70
     0
102
RTVSPost2010Prop55
280
     0
102
RTVSPost2010PropOp55
 70
     1
102
RTVSPost2010Prop56
140
1.0
102
RTVSPost2010PropOp56
 70
     0
102
RTVSPost2010Prop57
140
1.0
102
RTVSPost2010PropOp57
 70
     0
102
RTVSPropertyOp0
 70
     0
102
RTVSPropertyOp1
 70
     0
102
RTVSPropertyOp2
 70
     0
102
RTVSPropertyOp3
 70
     0
102
RTVSPropertyOp4
 70
     0
102
RTVSPropertyOp5
 70
     0
102
RTVSPropertyOp6
 70
     0
102
RTVSPropertyOp7
 70
     0
102
RTVSPropertyOp8
 70
     0
102
RTVSPropertyOp9
 70
     0
102
RTVSPropertyOp10
 70
     0
102
RTVSPropertyOp11
 70
     0
102
RTVSPropertyOp12
 70
     0
102
RTVSPropertyOp13
 70
     0
102
RTVSPropertyOp14
 70
     2
102
RTVSPropertyOp15
 70
     0
102
RTVSPropertyOp16
 70
     0
102
RTVSPropertyOp17
 70
     0
102
RTVSPropertyOp18
 70
     0
102
RTVSPropertyOp19
 70
     0
102
RTVSPropertyOp20
 70
     0
102
RTVSPropertyOp21
 70
     0
102
RTVSPropertyOp22
 70
     0
102
RTVSPropertyOp23
 70
     0
102
RTVSPropertyOp24
 70
     0
102
RTVSPropertyOp25
 70
     0
102
RTVSPropertyOp26
 70
     0
102
RTVSPropertyOp27
 70
     0
102
RTVSPropertyOp28
 70
     1
102
RTVSPropertyOp29
 70
     1
102
RTVSPropertyOp30
 70
     1
102
RTVSPropertyOp31
 70
     1
102
RTVSPropertyOp32
 70
     1
102
RTVSPropertyOp33
 70
     1
102
RTVSPropertyOp34
 70
     1
102
RTVSPropertyOp35
 70
     1
102
RTVSPropertyOp36
 70
     1
102
RTVSPropertyOp37
 70
     0
102
RTVSPropertyOp38
 70
     0
102
RTVSPropertyOp39
 70
     0
102
RTVSPropertyOp40
 70
     0
102
RTVSPropertyOp41
 70
     0
102
RTVSPropertyOp42
 70
     0
102
RTVSPropertyOp43
 70
     0
102
RTVSPropertyOp44
 70
     0
102
RTVSPropertyOp45
 70
     1
102
RTVSPropertyOp46
 70
     0
102
RTVSPropertyOp47
 70
     0
102
RTVSPropertyOp48
 70
     0
102
RTVSPropertyOp49
 70
     1
102
RTVSPropertyOp50
 70
     0
102
RTVSPropertyOp51
 70
     0
102
RTVSPropertyOp52
 70
     0
102
RTVSPropertyOp53
 70
     0
102
RTVSPropertyOp54
 70
     0
102
RTVSPropertyOp55
 70
     1
102
RTVSPropertyOp56
 70
     0
102
RTVSPropertyOp57
 70
     0
102
RTVSPropertyOp58
 70
     0
102
RTVSPropertyOp59
 70
     0
102
RTVSPropertyOp60
 70
     0
102
RTVSPropertyOp61
 70
     0
102
RTVSPropertyOp62
 70
     0
  0
XRECORD
  5
7F65
102
{ACAD_REACTORS
330
7F64
102
}
330
7F64
100
AcDbXrecord
280
     1
102
RTVSPost2010Prop28
280
     0
102
RTVSPost2010PropOp28
 70
     1
102
RTVSPost2010Prop29
280
     1
102
RTVSPost2010PropOp29
 70
     1
102
RTVSPost2010Prop30
280
     1
102
RTVSPost2010PropOp30
 70
     1
102
RTVSPost2010Prop31
280
     0
102
RTVSPost2010PropOp31
 70
     1
102
RTVSPost2010Prop32
280
     0
102
RTVSPost2010PropOp32
 70
     1
102
RTVSPost2010Prop33
280
     0
102
RTVSPost2010PropOp33
 70
     1
102
RTVSPost2010Prop34
280
     0
102
RTVSPost2010PropOp34
 70
     1
102
RTVSPost2010Prop35
280
     0
102
RTVSPost2010PropOp35
 70
     1
102
RTVSPost2010Prop36
280
     0
102
RTVSPost2010PropOp36
 70
     1
102
RTVSPost2010Prop37
 90
       50
102
RTVSPost2010PropOp37
 70
     1
102
RTVSPost2010Prop38
140
0.0
102
RTVSPost2010PropOp38
 70
     1
102
RTVSPost2010Prop39
140
1.0
102
RTVSPost2010PropOp39
 70
     1
102
RTVSPost2010Prop40
 90
        0
102
RTVSPost2010PropOp40
 70
     1
102
RTVSPost2010Prop41ColorIndex
 90
       18
102
RTVSPost2010Prop41ColorRGB
 90
        0
102
RTVSPost2010PropOp41
 70
     1
102
RTVSPost2010Prop42
 90
       50
102
RTVSPost2010PropOp42
 70
     1
102
RTVSPost2010Prop43
 90
        3
102
RTVSPost2010PropOp43
 70
     1
102
RTVSPost2010Prop44ColorIndex
 90
        5
102
RTVSPost2010Prop44ColorRGB
 90
      255
102
RTVSPost2010PropOp44
 70
     1
102
RTVSPost2010Prop45
280
     0
102
RTVSPost2010PropOp45
 70
     1
102
RTVSPost2010Prop46
 90
       50
102
RTVSPost2010PropOp46
 70
     1
102
RTVSPost2010Prop47
 90
       50
102
RTVSPost2010PropOp47
 70
     1
102
RTVSPost2010Prop48
 90
       50
102
RTVSPost2010PropOp48
 70
     1
102
RTVSPost2010Prop49
280
     0
102
RTVSPost2010PropOp49
 70
     1
102
RTVSPost2010Prop50
 90
       50
102
RTVSPost2010PropOp50
 70
     1
102
RTVSPost2010Prop51ColorIndex
 90
      256
102
RTVSPost2010Prop51ColorRGB
 90
-16777216
102
RTVSPost2010PropOp51
 70
     0
102
RTVSPost2010Prop52
140
1.0
102
RTVSPost2010PropOp52
 70
     0
102
RTVSPost2010Prop53
 90
        2
102
RTVSPost2010PropOp53
 70
     1
102
RTVSPost2010Prop54
  1
strokes_ogs.tif
102
RTVSPost2010PropOp54
 70
     1
102
RTVSPost2010Prop55
280
     0
102
RTVSPost2010PropOp55
 70
     1
102
RTVSPost2010Prop56
140
1.0
102
RTVSPost2010PropOp56
 70
     1
102
RTVSPost2010Prop57
140
1.0
102
RTVSPost2010PropOp57
 70
     1
102
RTVSPropertyOp0
 70
     1
102
RTVSPropertyOp1
 70
     1
102
RTVSPropertyOp2
 70
     1
102
RTVSPropertyOp3
 70
     1
102
RTVSPropertyOp4
 70
     1
102
RTVSPropertyOp5
 70
     1
102
RTVSPropertyOp6
 70
     1
102
RTVSPropertyOp7
 70
     1
102
RTVSPropertyOp8
 70
     1
102
RTVSPropertyOp9
 70
     1
102
RTVSPropertyOp10
 70
     1
102
RTVSPropertyOp11
 70
     1
102
RTVSPropertyOp12
 70
     1
102
RTVSPropertyOp13
 70
     1
102
RTVSPropertyOp14
 70
     1
102
RTVSPropertyOp15
 70
     1
102
RTVSPropertyOp16
 70
     1
102
RTVSPropertyOp17
 70
     1
102
RTVSPropertyOp18
 70
     1
102
RTVSPropertyOp19
 70
     1
102
RTVSPropertyOp20
 70
     1
102
RTVSPropertyOp21
 70
     1
102
RTVSPropertyOp22
 70
     1
102
RTVSPropertyOp23
 70
     1
102
RTVSPropertyOp24
 70
     1
102
RTVSPropertyOp25
 70
     1
102
RTVSPropertyOp26
 70
     1
102
RTVSPropertyOp27
 70
     1
102
RTVSPropertyOp28
 70
     1
102
RTVSPropertyOp29
 70
     1
102
RTVSPropertyOp30
 70
     1
102
RTVSPropertyOp31
 70
     1
102
RTVSPropertyOp32
 70
     1
102
RTVSPropertyOp33
 70
     1
102
RTVSPropertyOp34
 70
     1
102
RTVSPropertyOp35
 70
     1
102
RTVSPropertyOp36
 70
     1
102
RTVSPropertyOp37
 70
     1
102
RTVSPropertyOp38
 70
     1
102
RTVSPropertyOp39
 70
     1
102
RTVSPropertyOp40
 70
     1
102
RTVSPropertyOp41
 70
     1
102
RTVSPropertyOp42
 70
     1
102
RTVSPropertyOp43
 70
     1
102
RTVSPropertyOp44
 70
     1
102
RTVSPropertyOp45
 70
     1
102
RTVSPropertyOp46
 70
     1
102
RTVSPropertyOp47
 70
     1
102
RTVSPropertyOp48
 70
     1
102
RTVSPropertyOp49
 70
     1
102
RTVSPropertyOp50
 70
     1
102
RTVSPropertyOp51
 70
     0
102
RTVSPropertyOp52
 70
     0
102
RTVSPropertyOp53
 70
     1
102
RTVSPropertyOp54
 70
     1
102
RTVSPropertyOp55
 70
     1
102
RTVSPropertyOp56
 70
     1
102
RTVSPropertyOp57
 70
     1
102
RTVSPropertyOp58
 70
     1
102
RTVSPropertyOp59
 70
     1
102
RTVSPropertyOp60
 70
     1
102
RTVSPropertyOp61
 70
     1
102
RTVSPropertyOp62
 70
     1
  0
XRECORD
  5
7F49
102
{ACAD_REACTORS
330
7F48
102
}
330
7F48
100
AcDbXrecord
280
     1
102
RTVSPost2010Prop28
280
     0
102
RTVSPost2010PropOp28
 70
     1
102
RTVSPost2010Prop29
280
     1
102
RTVSPost2010PropOp29
 70
     1
102
RTVSPost2010Prop30
280
     1
102
RTVSPost2010PropOp30
 70
     1
102
RTVSPost2010Prop31
280
     0
102
RTVSPost2010PropOp31
 70
     1
102
RTVSPost2010Prop32
280
     0
102
RTVSPost2010PropOp32
 70
     1
102
RTVSPost2010Prop33
280
     0
102
RTVSPost2010PropOp33
 70
     1
102
RTVSPost2010Prop34
280
     0
102
RTVSPost2010PropOp34
 70
     1
102
RTVSPost2010Prop35
280
     0
102
RTVSPost2010PropOp35
 70
     1
102
RTVSPost2010Prop36
280
     0
102
RTVSPost2010PropOp36
 70
     1
102
RTVSPost2010Prop37
 90
       50
102
RTVSPost2010PropOp37
 70
     1
102
RTVSPost2010Prop38
140
0.0
102
RTVSPost2010PropOp38
 70
     1
102
RTVSPost2010Prop39
140
1.0
102
RTVSPost2010PropOp39
 70
     1
102
RTVSPost2010Prop40
 90
        0
102
RTVSPost2010PropOp40
 70
     1
102
RTVSPost2010Prop41ColorIndex
 90
       18
102
RTVSPost2010Prop41ColorRGB
 90
        0
102
RTVSPost2010PropOp41
 70
     1
102
RTVSPost2010Prop42
 90
       50
102
RTVSPost2010PropOp42
 70
     1
102
RTVSPost2010Prop43
 90
        3
102
RTVSPost2010PropOp43
 70
     1
102
RTVSPost2010Prop44ColorIndex
 90
        5
102
RTVSPost2010Prop44ColorRGB
 90
      255
102
RTVSPost2010PropOp44
 70
     1
102
RTVSPost2010Prop45
280
     0
102
RTVSPost2010PropOp45
 70
     1
102
RTVSPost2010Prop46
 90
       50
102
RTVSPost2010PropOp46
 70
     1
102
RTVSPost2010Prop47
 90
       50
102
RTVSPost2010PropOp47
 70
     1
102
RTVSPost2010Prop48
 90
       50
102
RTVSPost2010PropOp48
 70
     1
102
RTVSPost2010Prop49
280
     0
102
RTVSPost2010PropOp49
 70
     1
102
RTVSPost2010Prop50
 90
       50
102
RTVSPost2010PropOp50
 70
     1
102
RTVSPost2010Prop51ColorIndex
 90
      256
102
RTVSPost2010Prop51ColorRGB
 90
-16777216
102
RTVSPost2010PropOp51
 70
     0
102
RTVSPost2010Prop52
140
1.0
102
RTVSPost2010PropOp52
 70
     0
102
RTVSPost2010Prop53
 90
        2
102
RTVSPost2010PropOp53
 70
     1
102
RTVSPost2010Prop54
  1
strokes_ogs.tif
102
RTVSPost2010PropOp54
 70
     1
102
RTVSPost2010Prop55
280
     0
102
RTVSPost2010PropOp55
 70
     1
102
RTVSPost2010Prop56
140
1.0
102
RTVSPost2010PropOp56
 70
     1
102
RTVSPost2010Prop57
140
1.0
102
RTVSPost2010PropOp57
 70
     1
102
RTVSPropertyOp0
 70
     1
102
RTVSPropertyOp1
 70
     1
102
RTVSPropertyOp2
 70
     1
102
RTVSPropertyOp3
 70
     1
102
RTVSPropertyOp4
 70
     1
102
RTVSPropertyOp5
 70
     1
102
RTVSPropertyOp6
 70
     1
102
RTVSPropertyOp7
 70
     1
102
RTVSPropertyOp8
 70
     1
102
RTVSPropertyOp9
 70
     1
102
RTVSPropertyOp10
 70
     1
102
RTVSPropertyOp11
 70
     1
102
RTVSPropertyOp12
 70
     1
102
RTVSPropertyOp13
 70
     1
102
RTVSPropertyOp14
 70
     1
102
RTVSPropertyOp15
 70
     1
102
RTVSPropertyOp16
 70
     1
102
RTVSPropertyOp17
 70
     1
102
RTVSPropertyOp18
 70
     1
102
RTVSPropertyOp19
 70
     1
102
RTVSPropertyOp20
 70
     1
102
RTVSPropertyOp21
 70
     1
102
RTVSPropertyOp22
 70
     1
102
RTVSPropertyOp23
 70
     1
102
RTVSPropertyOp24
 70
     1
102
RTVSPropertyOp25
 70
     1
102
RTVSPropertyOp26
 70
     1
102
RTVSPropertyOp27
 70
     1
102
RTVSPropertyOp28
 70
     1
102
RTVSPropertyOp29
 70
     1
102
RTVSPropertyOp30
 70
     1
102
RTVSPropertyOp31
 70
     1
102
RTVSPropertyOp32
 70
     1
102
RTVSPropertyOp33
 70
     1
102
RTVSPropertyOp34
 70
     1
102
RTVSPropertyOp35
 70
     1
102
RTVSPropertyOp36
 70
     1
102
RTVSPropertyOp37
 70
     1
102
RTVSPropertyOp38
 70
     1
102
RTVSPropertyOp39
 70
     1
102
RTVSPropertyOp40
 70
     1
102
RTVSPropertyOp41
 70
     1
102
RTVSPropertyOp42
 70
     1
102
RTVSPropertyOp43
 70
     1
102
RTVSPropertyOp44
 70
     1
102
RTVSPropertyOp45
 70
     1
102
RTVSPropertyOp46
 70
     1
102
RTVSPropertyOp47
 70
     1
102
RTVSPropertyOp48
 70
     1
102
RTVSPropertyOp49
 70
     1
102
RTVSPropertyOp50
 70
     1
102
RTVSPropertyOp51
 70
     0
102
RTVSPropertyOp52
 70
     0
102
RTVSPropertyOp53
 70
     1
102
RTVSPropertyOp54
 70
     1
102
RTVSPropertyOp55
 70
     1
102
RTVSPropertyOp56
 70
     1
102
RTVSPropertyOp57
 70
     1
102
RTVSPropertyOp58
 70
     1
102
RTVSPropertyOp59
 70
     1
102
RTVSPropertyOp60
 70
     1
102
RTVSPropertyOp61
 70
     1
102
RTVSPropertyOp62
 70
     1
  0
XRECORD
  5
7F4B
102
{ACAD_REACTORS
330
7F4A
102
}
330
7F4A
100
AcDbXrecord
280
     1
102
RTVSPost2010Prop28
280
     0
102
RTVSPost2010PropOp28
 70
     1
102
RTVSPost2010Prop29
280
     1
102
RTVSPost2010PropOp29
 70
     1
102
RTVSPost2010Prop30
280
     1
102
RTVSPost2010PropOp30
 70
     1
102
RTVSPost2010Prop31
280
     0
102
RTVSPost2010PropOp31
 70
     1
102
RTVSPost2010Prop32
280
     0
102
RTVSPost2010PropOp32
 70
     1
102
RTVSPost2010Prop33
280
     0
102
RTVSPost2010PropOp33
 70
     1
102
RTVSPost2010Prop34
280
     0
102
RTVSPost2010PropOp34
 70
     1
102
RTVSPost2010Prop35
280
     0
102
RTVSPost2010PropOp35
 70
     1
102
RTVSPost2010Prop36
280
     0
102
RTVSPost2010PropOp36
 70
     1
102
RTVSPost2010Prop37
 90
       50
102
RTVSPost2010PropOp37
 70
     1
102
RTVSPost2010Prop38
140
0.0
102
RTVSPost2010PropOp38
 70
     1
102
RTVSPost2010Prop39
140
1.0
102
RTVSPost2010PropOp39
 70
     1
102
RTVSPost2010Prop40
 90
        0
102
RTVSPost2010PropOp40
 70
     1
102
RTVSPost2010Prop41ColorIndex
 90
       18
102
RTVSPost2010Prop41ColorRGB
 90
        0
102
RTVSPost2010PropOp41
 70
     1
102
RTVSPost2010Prop42
 90
       50
102
RTVSPost2010PropOp42
 70
     1
102
RTVSPost2010Prop43
 90
        3
102
RTVSPost2010PropOp43
 70
     1
102
RTVSPost2010Prop44ColorIndex
 90
        5
102
RTVSPost2010Prop44ColorRGB
 90
      255
102
RTVSPost2010PropOp44
 70
     1
102
RTVSPost2010Prop45
280
     0
102
RTVSPost2010PropOp45
 70
     1
102
RTVSPost2010Prop46
 90
       50
102
RTVSPost2010PropOp46
 70
     1
102
RTVSPost2010Prop47
 90
       50
102
RTVSPost2010PropOp47
 70
     1
102
RTVSPost2010Prop48
 90
       50
102
RTVSPost2010PropOp48
 70
     1
102
RTVSPost2010Prop49
280
     0
102
RTVSPost2010PropOp49
 70
     1
102
RTVSPost2010Prop50
 90
       50
102
RTVSPost2010PropOp50
 70
     1
102
RTVSPost2010Prop51ColorIndex
 90
      256
102
RTVSPost2010Prop51ColorRGB
 90
-16777216
102
RTVSPost2010PropOp51
 70
     0
102
RTVSPost2010Prop52
140
1.0
102
RTVSPost2010PropOp52
 70
     0
102
RTVSPost2010Prop53
 90
        2
102
RTVSPost2010PropOp53
 70
     1
102
RTVSPost2010Prop54
  1
strokes_ogs.tif
102
RTVSPost2010PropOp54
 70
     1
102
RTVSPost2010Prop55
280
     0
102
RTVSPost2010PropOp55
 70
     1
102
RTVSPost2010Prop56
140
1.0
102
RTVSPost2010PropOp56
 70
     1
102
RTVSPost2010Prop57
140
1.0
102
RTVSPost2010PropOp57
 70
     1
102
RTVSPropertyOp0
 70
     1
102
RTVSPropertyOp1
 70
     1
102
RTVSPropertyOp2
 70
     1
102
RTVSPropertyOp3
 70
     1
102
RTVSPropertyOp4
 70
     1
102
RTVSPropertyOp5
 70
     1
102
RTVSPropertyOp6
 70
     1
102
RTVSPropertyOp7
 70
     1
102
RTVSPropertyOp8
 70
     1
102
RTVSPropertyOp9
 70
     1
102
RTVSPropertyOp10
 70
     1
102
RTVSPropertyOp11
 70
     1
102
RTVSPropertyOp12
 70
     1
102
RTVSPropertyOp13
 70
     1
102
RTVSPropertyOp14
 70
     1
102
RTVSPropertyOp15
 70
     1
102
RTVSPropertyOp16
 70
     1
102
RTVSPropertyOp17
 70
     1
102
RTVSPropertyOp18
 70
     1
102
RTVSPropertyOp19
 70
     1
102
RTVSPropertyOp20
 70
     1
102
RTVSPropertyOp21
 70
     1
102
RTVSPropertyOp22
 70
     1
102
RTVSPropertyOp23
 70
     1
102
RTVSPropertyOp24
 70
     1
102
RTVSPropertyOp25
 70
     1
102
RTVSPropertyOp26
 70
     1
102
RTVSPropertyOp27
 70
     1
102
RTVSPropertyOp28
 70
     1
102
RTVSPropertyOp29
 70
     1
102
RTVSPropertyOp30
 70
     1
102
RTVSPropertyOp31
 70
     1
102
RTVSPropertyOp32
 70
     1
102
RTVSPropertyOp33
 70
     1
102
RTVSPropertyOp34
 70
     1
102
RTVSPropertyOp35
 70
     1
102
RTVSPropertyOp36
 70
     1
102
RTVSPropertyOp37
 70
     1
102
RTVSPropertyOp38
 70
     1
102
RTVSPropertyOp39
 70
     1
102
RTVSPropertyOp40
 70
     1
102
RTVSPropertyOp41
 70
     1
102
RTVSPropertyOp42
 70
     1
102
RTVSPropertyOp43
 70
     1
102
RTVSPropertyOp44
 70
     1
102
RTVSPropertyOp45
 70
     1
102
RTVSPropertyOp46
 70
     1
102
RTVSPropertyOp47
 70
     1
102
RTVSPropertyOp48
 70
     1
102
RTVSPropertyOp49
 70
     1
102
RTVSPropertyOp50
 70
     1
102
RTVSPropertyOp51
 70
     0
102
RTVSPropertyOp52
 70
     0
102
RTVSPropertyOp53
 70
     1
102
RTVSPropertyOp54
 70
     1
102
RTVSPropertyOp55
 70
     1
102
RTVSPropertyOp56
 70
     1
102
RTVSPropertyOp57
 70
     1
102
RTVSPropertyOp58
 70
     1
102
RTVSPropertyOp59
 70
     1
102
RTVSPropertyOp60
 70
     1
102
RTVSPropertyOp61
 70
     1
102
RTVSPropertyOp62
 70
     1
  0
XRECORD
  5
7F4D
102
{ACAD_REACTORS
330
7F4C
102
}
330
7F4C
100
AcDbXrecord
280
     1
102
RTVSPost2010Prop28
280
     0
102
RTVSPost2010PropOp28
 70
     1
102
RTVSPost2010Prop29
280
     1
102
RTVSPost2010PropOp29
 70
     1
102
RTVSPost2010Prop30
280
     1
102
RTVSPost2010PropOp30
 70
     1
102
RTVSPost2010Prop31
280
     0
102
RTVSPost2010PropOp31
 70
     1
102
RTVSPost2010Prop32
280
     0
102
RTVSPost2010PropOp32
 70
     1
102
RTVSPost2010Prop33
280
     0
102
RTVSPost2010PropOp33
 70
     1
102
RTVSPost2010Prop34
280
     0
102
RTVSPost2010PropOp34
 70
     1
102
RTVSPost2010Prop35
280
     0
102
RTVSPost2010PropOp35
 70
     1
102
RTVSPost2010Prop36
280
     0
102
RTVSPost2010PropOp36
 70
     1
102
RTVSPost2010Prop37
 90
       50
102
RTVSPost2010PropOp37
 70
     1
102
RTVSPost2010Prop38
140
0.0
102
RTVSPost2010PropOp38
 70
     1
102
RTVSPost2010Prop39
140
1.0
102
RTVSPost2010PropOp39
 70
     1
102
RTVSPost2010Prop40
 90
        0
102
RTVSPost2010PropOp40
 70
     1
102
RTVSPost2010Prop41ColorIndex
 90
       18
102
RTVSPost2010Prop41ColorRGB
 90
        0
102
RTVSPost2010PropOp41
 70
     1
102
RTVSPost2010Prop42
 90
       50
102
RTVSPost2010PropOp42
 70
     1
102
RTVSPost2010Prop43
 90
        3
102
RTVSPost2010PropOp43
 70
     1
102
RTVSPost2010Prop44ColorIndex
 90
        5
102
RTVSPost2010Prop44ColorRGB
 90
      255
102
RTVSPost2010PropOp44
 70
     1
102
RTVSPost2010Prop45
280
     0
102
RTVSPost2010PropOp45
 70
     1
102
RTVSPost2010Prop46
 90
       50
102
RTVSPost2010PropOp46
 70
     1
102
RTVSPost2010Prop47
 90
       50
102
RTVSPost2010PropOp47
 70
     1
102
RTVSPost2010Prop48
 90
       50
102
RTVSPost2010PropOp48
 70
     1
102
RTVSPost2010Prop49
280
     0
102
RTVSPost2010PropOp49
 70
     1
102
RTVSPost2010Prop50
 90
       50
102
RTVSPost2010PropOp50
 70
     1
102
RTVSPost2010Prop51ColorIndex
 90
      256
102
RTVSPost2010Prop51ColorRGB
 90
-16777216
102
RTVSPost2010PropOp51
 70
     0
102
RTVSPost2010Prop52
140
1.0
102
RTVSPost2010PropOp52
 70
     0
102
RTVSPost2010Prop53
 90
        2
102
RTVSPost2010PropOp53
 70
     1
102
RTVSPost2010Prop54
  1
strokes_ogs.tif
102
RTVSPost2010PropOp54
 70
     1
102
RTVSPost2010Prop55
280
     0
102
RTVSPost2010PropOp55
 70
     1
102
RTVSPost2010Prop56
140
1.0
102
RTVSPost2010PropOp56
 70
     1
102
RTVSPost2010Prop57
140
1.0
102
RTVSPost2010PropOp57
 70
     1
102
RTVSPropertyOp0
 70
     1
102
RTVSPropertyOp1
 70
     1
102
RTVSPropertyOp2
 70
     1
102
RTVSPropertyOp3
 70
     1
102
RTVSPropertyOp4
 70
     1
102
RTVSPropertyOp5
 70
     1
102
RTVSPropertyOp6
 70
     1
102
RTVSPropertyOp7
 70
     1
102
RTVSPropertyOp8
 70
     1
102
RTVSPropertyOp9
 70
     1
102
RTVSPropertyOp10
 70
     1
102
RTVSPropertyOp11
 70
     1
102
RTVSPropertyOp12
 70
     1
102
RTVSPropertyOp13
 70
     1
102
RTVSPropertyOp14
 70
     1
102
RTVSPropertyOp15
 70
     1
102
RTVSPropertyOp16
 70
     1
102
RTVSPropertyOp17
 70
     1
102
RTVSPropertyOp18
 70
     1
102
RTVSPropertyOp19
 70
     1
102
RTVSPropertyOp20
 70
     1
102
RTVSPropertyOp21
 70
     1
102
RTVSPropertyOp22
 70
     1
102
RTVSPropertyOp23
 70
     1
102
RTVSPropertyOp24
 70
     1
102
RTVSPropertyOp25
 70
     1
102
RTVSPropertyOp26
 70
     1
102
RTVSPropertyOp27
 70
     1
102
RTVSPropertyOp28
 70
     1
102
RTVSPropertyOp29
 70
     1
102
RTVSPropertyOp30
 70
     1
102
RTVSPropertyOp31
 70
     1
102
RTVSPropertyOp32
 70
     1
102
RTVSPropertyOp33
 70
     1
102
RTVSPropertyOp34
 70
     1
102
RTVSPropertyOp35
 70
     1
102
RTVSPropertyOp36
 70
     1
102
RTVSPropertyOp37
 70
     1
102
RTVSPropertyOp38
 70
     1
102
RTVSPropertyOp39
 70
     1
102
RTVSPropertyOp40
 70
     1
102
RTVSPropertyOp41
 70
     1
102
RTVSPropertyOp42
 70
     1
102
RTVSPropertyOp43
 70
     1
102
RTVSPropertyOp44
 70
     1
102
RTVSPropertyOp45
 70
     1
102
RTVSPropertyOp46
 70
     1
102
RTVSPropertyOp47
 70
     1
102
RTVSPropertyOp48
 70
     1
102
RTVSPropertyOp49
 70
     1
102
RTVSPropertyOp50
 70
     1
102
RTVSPropertyOp51
 70
     0
102
RTVSPropertyOp52
 70
     0
102
RTVSPropertyOp53
 70
     1
102
RTVSPropertyOp54
 70
     1
102
RTVSPropertyOp55
 70
     1
102
RTVSPropertyOp56
 70
     1
102
RTVSPropertyOp57
 70
     1
102
RTVSPropertyOp58
 70
     1
102
RTVSPropertyOp59
 70
     1
102
RTVSPropertyOp60
 70
     1
102
RTVSPropertyOp61
 70
     1
102
RTVSPropertyOp62
 70
     1
  0
XRECORD
  5
7F4F
102
{ACAD_REACTORS
330
7F4E
102
}
330
7F4E
100
AcDbXrecord
280
     1
102
RTVSPost2010Prop28
280
     0
102
RTVSPost2010PropOp28
 70
     1
102
RTVSPost2010Prop29
280
     1
102
RTVSPost2010PropOp29
 70
     1
102
RTVSPost2010Prop30
280
     1
102
RTVSPost2010PropOp30
 70
     1
102
RTVSPost2010Prop31
280
     0
102
RTVSPost2010PropOp31
 70
     1
102
RTVSPost2010Prop32
280
     0
102
RTVSPost2010PropOp32
 70
     1
102
RTVSPost2010Prop33
280
     0
102
RTVSPost2010PropOp33
 70
     1
102
RTVSPost2010Prop34
280
     0
102
RTVSPost2010PropOp34
 70
     1
102
RTVSPost2010Prop35
280
     0
102
RTVSPost2010PropOp35
 70
     1
102
RTVSPost2010Prop36
280
     0
102
RTVSPost2010PropOp36
 70
     1
102
RTVSPost2010Prop37
 90
       50
102
RTVSPost2010PropOp37
 70
     1
102
RTVSPost2010Prop38
140
0.0
102
RTVSPost2010PropOp38
 70
     1
102
RTVSPost2010Prop39
140
1.0
102
RTVSPost2010PropOp39
 70
     1
102
RTVSPost2010Prop40
 90
        0
102
RTVSPost2010PropOp40
 70
     1
102
RTVSPost2010Prop41ColorIndex
 90
       18
102
RTVSPost2010Prop41ColorRGB
 90
        0
102
RTVSPost2010PropOp41
 70
     1
102
RTVSPost2010Prop42
 90
       50
102
RTVSPost2010PropOp42
 70
     1
102
RTVSPost2010Prop43
 90
        3
102
RTVSPost2010PropOp43
 70
     1
102
RTVSPost2010Prop44ColorIndex
 90
        5
102
RTVSPost2010Prop44ColorRGB
 90
      255
102
RTVSPost2010PropOp44
 70
     1
102
RTVSPost2010Prop45
280
     0
102
RTVSPost2010PropOp45
 70
     1
102
RTVSPost2010Prop46
 90
       50
102
RTVSPost2010PropOp46
 70
     1
102
RTVSPost2010Prop47
 90
       50
102
RTVSPost2010PropOp47
 70
     1
102
RTVSPost2010Prop48
 90
       50
102
RTVSPost2010PropOp48
 70
     1
102
RTVSPost2010Prop49
280
     0
102
RTVSPost2010PropOp49
 70
     1
102
RTVSPost2010Prop50
 90
       50
102
RTVSPost2010PropOp50
 70
     1
102
RTVSPost2010Prop51ColorIndex
 90
      256
102
RTVSPost2010Prop51ColorRGB
 90
-16777216
102
RTVSPost2010PropOp51
 70
     0
102
RTVSPost2010Prop52
140
1.0
102
RTVSPost2010PropOp52
 70
     0
102
RTVSPost2010Prop53
 90
        2
102
RTVSPost2010PropOp53
 70
     1
102
RTVSPost2010Prop54
  1
strokes_ogs.tif
102
RTVSPost2010PropOp54
 70
     1
102
RTVSPost2010Prop55
280
     0
102
RTVSPost2010PropOp55
 70
     1
102
RTVSPost2010Prop56
140
1.0
102
RTVSPost2010PropOp56
 70
     1
102
RTVSPost2010Prop57
140
1.0
102
RTVSPost2010PropOp57
 70
     1
102
RTVSPropertyOp0
 70
     1
102
RTVSPropertyOp1
 70
     1
102
RTVSPropertyOp2
 70
     1
102
RTVSPropertyOp3
 70
     1
102
RTVSPropertyOp4
 70
     1
102
RTVSPropertyOp5
 70
     1
102
RTVSPropertyOp6
 70
     1
102
RTVSPropertyOp7
 70
     1
102
RTVSPropertyOp8
 70
     1
102
RTVSPropertyOp9
 70
     1
102
RTVSPropertyOp10
 70
     1
102
RTVSPropertyOp11
 70
     1
102
RTVSPropertyOp12
 70
     1
102
RTVSPropertyOp13
 70
     1
102
RTVSPropertyOp14
 70
     1
102
RTVSPropertyOp15
 70
     1
102
RTVSPropertyOp16
 70
     1
102
RTVSPropertyOp17
 70
     1
102
RTVSPropertyOp18
 70
     1
102
RTVSPropertyOp19
 70
     1
102
RTVSPropertyOp20
 70
     1
102
RTVSPropertyOp21
 70
     1
102
RTVSPropertyOp22
 70
     1
102
RTVSPropertyOp23
 70
     1
102
RTVSPropertyOp24
 70
     1
102
RTVSPropertyOp25
 70
     1
102
RTVSPropertyOp26
 70
     1
102
RTVSPropertyOp27
 70
     1
102
RTVSPropertyOp28
 70
     1
102
RTVSPropertyOp29
 70
     1
102
RTVSPropertyOp30
 70
     1
102
RTVSPropertyOp31
 70
     1
102
RTVSPropertyOp32
 70
     1
102
RTVSPropertyOp33
 70
     1
102
RTVSPropertyOp34
 70
     1
102
RTVSPropertyOp35
 70
     1
102
RTVSPropertyOp36
 70
     1
102
RTVSPropertyOp37
 70
     1
102
RTVSPropertyOp38
 70
     1
102
RTVSPropertyOp39
 70
     1
102
RTVSPropertyOp40
 70
     1
102
RTVSPropertyOp41
 70
     1
102
RTVSPropertyOp42
 70
     1
102
RTVSPropertyOp43
 70
     1
102
RTVSPropertyOp44
 70
     1
102
RTVSPropertyOp45
 70
     1
102
RTVSPropertyOp46
 70
     1
102
RTVSPropertyOp47
 70
     1
102
RTVSPropertyOp48
 70
     1
102
RTVSPropertyOp49
 70
     1
102
RTVSPropertyOp50
 70
     1
102
RTVSPropertyOp51
 70
     0
102
RTVSPropertyOp52
 70
     0
102
RTVSPropertyOp53
 70
     1
102
RTVSPropertyOp54
 70
     1
102
RTVSPropertyOp55
 70
     1
102
RTVSPropertyOp56
 70
     1
102
RTVSPropertyOp57
 70
     1
102
RTVSPropertyOp58
 70
     1
102
RTVSPropertyOp59
 70
     1
102
RTVSPropertyOp60
 70
     1
102
RTVSPropertyOp61
 70
     1
102
RTVSPropertyOp62
 70
     1
  0
XRECORD
  5
7F57
102
{ACAD_REACTORS
330
7F56
102
}
330
7F56
100
AcDbXrecord
280
     1
102
RTVSPost2010Prop28
280
     0
102
RTVSPost2010PropOp28
 70
     1
102
RTVSPost2010Prop29
280
     1
102
RTVSPost2010PropOp29
 70
     1
102
RTVSPost2010Prop30
280
     1
102
RTVSPost2010PropOp30
 70
     1
102
RTVSPost2010Prop31
280
     0
102
RTVSPost2010PropOp31
 70
     1
102
RTVSPost2010Prop32
280
     0
102
RTVSPost2010PropOp32
 70
     1
102
RTVSPost2010Prop33
280
     0
102
RTVSPost2010PropOp33
 70
     1
102
RTVSPost2010Prop34
280
     0
102
RTVSPost2010PropOp34
 70
     1
102
RTVSPost2010Prop35
280
     0
102
RTVSPost2010PropOp35
 70
     1
102
RTVSPost2010Prop36
280
     0
102
RTVSPost2010PropOp36
 70
     1
102
RTVSPost2010Prop37
 90
       50
102
RTVSPost2010PropOp37
 70
     1
102
RTVSPost2010Prop38
140
0.0
102
RTVSPost2010PropOp38
 70
     1
102
RTVSPost2010Prop39
140
1.0
102
RTVSPost2010PropOp39
 70
     1
102
RTVSPost2010Prop40
 90
        0
102
RTVSPost2010PropOp40
 70
     1
102
RTVSPost2010Prop41ColorIndex
 90
       18
102
RTVSPost2010Prop41ColorRGB
 90
        0
102
RTVSPost2010PropOp41
 70
     1
102
RTVSPost2010Prop42
 90
       50
102
RTVSPost2010PropOp42
 70
     1
102
RTVSPost2010Prop43
 90
        3
102
RTVSPost2010PropOp43
 70
     1
102
RTVSPost2010Prop44ColorIndex
 90
        5
102
RTVSPost2010Prop44ColorRGB
 90
      255
102
RTVSPost2010PropOp44
 70
     1
102
RTVSPost2010Prop45
280
     0
102
RTVSPost2010PropOp45
 70
     1
102
RTVSPost2010Prop46
 90
       50
102
RTVSPost2010PropOp46
 70
     1
102
RTVSPost2010Prop47
 90
       50
102
RTVSPost2010PropOp47
 70
     1
102
RTVSPost2010Prop48
 90
       50
102
RTVSPost2010PropOp48
 70
     1
102
RTVSPost2010Prop49
280
     0
102
RTVSPost2010PropOp49
 70
     1
102
RTVSPost2010Prop50
 90
       50
102
RTVSPost2010PropOp50
 70
     1
102
RTVSPost2010Prop51ColorIndex
 90
      256
102
RTVSPost2010Prop51ColorRGB
 90
-16777216
102
RTVSPost2010PropOp51
 70
     0
102
RTVSPost2010Prop52
140
1.0
102
RTVSPost2010PropOp52
 70
     0
102
RTVSPost2010Prop53
 90
        2
102
RTVSPost2010PropOp53
 70
     1
102
RTVSPost2010Prop54
  1
strokes_ogs.tif
102
RTVSPost2010PropOp54
 70
     1
102
RTVSPost2010Prop55
280
     0
102
RTVSPost2010PropOp55
 70
     1
102
RTVSPost2010Prop56
140
1.0
102
RTVSPost2010PropOp56
 70
     1
102
RTVSPost2010Prop57
140
1.0
102
RTVSPost2010PropOp57
 70
     1
102
RTVSPropertyOp0
 70
     1
102
RTVSPropertyOp1
 70
     1
102
RTVSPropertyOp2
 70
     1
102
RTVSPropertyOp3
 70
     1
102
RTVSPropertyOp4
 70
     1
102
RTVSPropertyOp5
 70
     1
102
RTVSPropertyOp6
 70
     1
102
RTVSPropertyOp7
 70
     1
102
RTVSPropertyOp8
 70
     1
102
RTVSPropertyOp9
 70
     1
102
RTVSPropertyOp10
 70
     1
102
RTVSPropertyOp11
 70
     1
102
RTVSPropertyOp12
 70
     1
102
RTVSPropertyOp13
 70
     1
102
RTVSPropertyOp14
 70
     1
102
RTVSPropertyOp15
 70
     1
102
RTVSPropertyOp16
 70
     1
102
RTVSPropertyOp17
 70
     1
102
RTVSPropertyOp18
 70
     1
102
RTVSPropertyOp19
 70
     1
102
RTVSPropertyOp20
 70
     1
102
RTVSPropertyOp21
 70
     1
102
RTVSPropertyOp22
 70
     1
102
RTVSPropertyOp23
 70
     1
102
RTVSPropertyOp24
 70
     1
102
RTVSPropertyOp25
 70
     1
102
RTVSPropertyOp26
 70
     1
102
RTVSPropertyOp27
 70
     1
102
RTVSPropertyOp28
 70
     1
102
RTVSPropertyOp29
 70
     1
102
RTVSPropertyOp30
 70
     1
102
RTVSPropertyOp31
 70
     1
102
RTVSPropertyOp32
 70
     1
102
RTVSPropertyOp33
 70
     1
102
RTVSPropertyOp34
 70
     1
102
RTVSPropertyOp35
 70
     1
102
RTVSPropertyOp36
 70
     1
102
RTVSPropertyOp37
 70
     1
102
RTVSPropertyOp38
 70
     1
102
RTVSPropertyOp39
 70
     1
102
RTVSPropertyOp40
 70
     1
102
RTVSPropertyOp41
 70
     1
102
RTVSPropertyOp42
 70
     1
102
RTVSPropertyOp43
 70
     1
102
RTVSPropertyOp44
 70
     1
102
RTVSPropertyOp45
 70
     1
102
RTVSPropertyOp46
 70
     1
102
RTVSPropertyOp47
 70
     1
102
RTVSPropertyOp48
 70
     1
102
RTVSPropertyOp49
 70
     1
102
RTVSPropertyOp50
 70
     1
102
RTVSPropertyOp51
 70
     0
102
RTVSPropertyOp52
 70
     0
102
RTVSPropertyOp53
 70
     1
102
RTVSPropertyOp54
 70
     1
102
RTVSPropertyOp55
 70
     1
102
RTVSPropertyOp56
 70
     1
102
RTVSPropertyOp57
 70
     1
102
RTVSPropertyOp58
 70
     1
102
RTVSPropertyOp59
 70
     1
102
RTVSPropertyOp60
 70
     1
102
RTVSPropertyOp61
 70
     1
102
RTVSPropertyOp62
 70
     1
  0
XRECORD
  5
7F73
102
{ACAD_REACTORS
330
7F72
102
}
330
7F72
100
AcDbXrecord
280
     1
102
RTVSPost2010Prop28
280
     0
102
RTVSPost2010PropOp28
 70
     1
102
RTVSPost2010Prop29
280
     1
102
RTVSPost2010PropOp29
 70
     1
102
RTVSPost2010Prop30
280
     1
102
RTVSPost2010PropOp30
 70
     1
102
RTVSPost2010Prop31
280
     0
102
RTVSPost2010PropOp31
 70
     1
102
RTVSPost2010Prop32
280
     0
102
RTVSPost2010PropOp32
 70
     1
102
RTVSPost2010Prop33
280
     0
102
RTVSPost2010PropOp33
 70
     1
102
RTVSPost2010Prop34
280
     0
102
RTVSPost2010PropOp34
 70
     1
102
RTVSPost2010Prop35
280
     0
102
RTVSPost2010PropOp35
 70
     1
102
RTVSPost2010Prop36
280
     0
102
RTVSPost2010PropOp36
 70
     1
102
RTVSPost2010Prop37
 90
       50
102
RTVSPost2010PropOp37
 70
     0
102
RTVSPost2010Prop38
140
0.0
102
RTVSPost2010PropOp38
 70
     0
102
RTVSPost2010Prop39
140
1.0
102
RTVSPost2010PropOp39
 70
     0
102
RTVSPost2010Prop40
 90
        0
102
RTVSPost2010PropOp40
 70
     0
102
RTVSPost2010Prop41ColorIndex
 90
       18
102
RTVSPost2010Prop41ColorRGB
 90
        0
102
RTVSPost2010PropOp41
 70
     0
102
RTVSPost2010Prop42
 90
       50
102
RTVSPost2010PropOp42
 70
     0
102
RTVSPost2010Prop43
 90
        3
102
RTVSPost2010PropOp43
 70
     0
102
RTVSPost2010Prop44ColorIndex
 90
        5
102
RTVSPost2010Prop44ColorRGB
 90
      255
102
RTVSPost2010PropOp44
 70
     0
102
RTVSPost2010Prop45
280
     0
102
RTVSPost2010PropOp45
 70
     1
102
RTVSPost2010Prop46
 90
       50
102
RTVSPost2010PropOp46
 70
     0
102
RTVSPost2010Prop47
 90
       50
102
RTVSPost2010PropOp47
 70
     0
102
RTVSPost2010Prop48
 90
       50
102
RTVSPost2010PropOp48
 70
     0
102
RTVSPost2010Prop49
280
     0
102
RTVSPost2010PropOp49
 70
     1
102
RTVSPost2010Prop50
 90
       50
102
RTVSPost2010PropOp50
 70
     0
102
RTVSPost2010Prop51ColorIndex
 90
      256
102
RTVSPost2010Prop51ColorRGB
 90
-16777216
102
RTVSPost2010PropOp51
 70
     0
102
RTVSPost2010Prop52
140
1.0
102
RTVSPost2010PropOp52
 70
     0
102
RTVSPost2010Prop53
 90
        2
102
RTVSPost2010PropOp53
 70
     0
102
RTVSPost2010Prop54
  1
strokes_ogs.tif
102
RTVSPost2010PropOp54
 70
     0
102
RTVSPost2010Prop55
280
     0
102
RTVSPost2010PropOp55
 70
     1
102
RTVSPost2010Prop56
140
1.0
102
RTVSPost2010PropOp56
 70
     0
102
RTVSPost2010Prop57
140
1.0
102
RTVSPost2010PropOp57
 70
     0
102
RTVSPropertyOp0
 70
     0
102
RTVSPropertyOp1
 70
     0
102
RTVSPropertyOp2
 70
     0
102
RTVSPropertyOp3
 70
     0
102
RTVSPropertyOp4
 70
     0
102
RTVSPropertyOp5
 70
     0
102
RTVSPropertyOp6
 70
     0
102
RTVSPropertyOp7
 70
     0
102
RTVSPropertyOp8
 70
     0
102
RTVSPropertyOp9
 70
     0
102
RTVSPropertyOp10
 70
     0
102
RTVSPropertyOp11
 70
     0
102
RTVSPropertyOp12
 70
     0
102
RTVSPropertyOp13
 70
     0
102
RTVSPropertyOp14
 70
     2
102
RTVSPropertyOp15
 70
     0
102
RTVSPropertyOp16
 70
     0
102
RTVSPropertyOp17
 70
     0
102
RTVSPropertyOp18
 70
     0
102
RTVSPropertyOp19
 70
     0
102
RTVSPropertyOp20
 70
     0
102
RTVSPropertyOp21
 70
     0
102
RTVSPropertyOp22
 70
     0
102
RTVSPropertyOp23
 70
     0
102
RTVSPropertyOp24
 70
     0
102
RTVSPropertyOp25
 70
     0
102
RTVSPropertyOp26
 70
     0
102
RTVSPropertyOp27
 70
     0
102
RTVSPropertyOp28
 70
     1
102
RTVSPropertyOp29
 70
     1
102
RTVSPropertyOp30
 70
     1
102
RTVSPropertyOp31
 70
     1
102
RTVSPropertyOp32
 70
     1
102
RTVSPropertyOp33
 70
     1
102
RTVSPropertyOp34
 70
     1
102
RTVSPropertyOp35
 70
     1
102
RTVSPropertyOp36
 70
     1
102
RTVSPropertyOp37
 70
     0
102
RTVSPropertyOp38
 70
     0
102
RTVSPropertyOp39
 70
     0
102
RTVSPropertyOp40
 70
     0
102
RTVSPropertyOp41
 70
     0
102
RTVSPropertyOp42
 70
     0
102
RTVSPropertyOp43
 70
     0
102
RTVSPropertyOp44
 70
     0
102
RTVSPropertyOp45
 70
     1
102
RTVSPropertyOp46
 70
     0
102
RTVSPropertyOp47
 70
     0
102
RTVSPropertyOp48
 70
     0
102
RTVSPropertyOp49
 70
     1
102
RTVSPropertyOp50
 70
     0
102
RTVSPropertyOp51
 70
     0
102
RTVSPropertyOp52
 70
     0
102
RTVSPropertyOp53
 70
     0
102
RTVSPropertyOp54
 70
     0
102
RTVSPropertyOp55
 70
     1
102
RTVSPropertyOp56
 70
     0
102
RTVSPropertyOp57
 70
     0
102
RTVSPropertyOp58
 70
     0
102
RTVSPropertyOp59
 70
     0
102
RTVSPropertyOp60
 70
     0
102
RTVSPropertyOp61
 70
     0
102
RTVSPropertyOp62
 70
     0
  0
XRECORD
  5
7F63
102
{ACAD_REACTORS
330
7F62
102
}
330
7F62
100
AcDbXrecord
280
     1
102
RTVSPost2010Prop28
280
     0
102
RTVSPost2010PropOp28
 70
     1
102
RTVSPost2010Prop29
280
     1
102
RTVSPost2010PropOp29
 70
     1
102
RTVSPost2010Prop30
280
     1
102
RTVSPost2010PropOp30
 70
     1
102
RTVSPost2010Prop31
280
     0
102
RTVSPost2010PropOp31
 70
     1
102
RTVSPost2010Prop32
280
     0
102
RTVSPost2010PropOp32
 70
     1
102
RTVSPost2010Prop33
280
     0
102
RTVSPost2010PropOp33
 70
     1
102
RTVSPost2010Prop34
280
     0
102
RTVSPost2010PropOp34
 70
     1
102
RTVSPost2010Prop35
280
     0
102
RTVSPost2010PropOp35
 70
     1
102
RTVSPost2010Prop36
280
     0
102
RTVSPost2010PropOp36
 70
     1
102
RTVSPost2010Prop37
 90
       50
102
RTVSPost2010PropOp37
 70
     1
102
RTVSPost2010Prop38
140
0.0
102
RTVSPost2010PropOp38
 70
     1
102
RTVSPost2010Prop39
140
1.0
102
RTVSPost2010PropOp39
 70
     1
102
RTVSPost2010Prop40
 90
        0
102
RTVSPost2010PropOp40
 70
     1
102
RTVSPost2010Prop41ColorIndex
 90
       18
102
RTVSPost2010Prop41ColorRGB
 90
        0
102
RTVSPost2010PropOp41
 70
     1
102
RTVSPost2010Prop42
 90
       50
102
RTVSPost2010PropOp42
 70
     1
102
RTVSPost2010Prop43
 90
        3
102
RTVSPost2010PropOp43
 70
     1
102
RTVSPost2010Prop44ColorIndex
 90
        5
102
RTVSPost2010Prop44ColorRGB
 90
      255
102
RTVSPost2010PropOp44
 70
     1
102
RTVSPost2010Prop45
280
     0
102
RTVSPost2010PropOp45
 70
     1
102
RTVSPost2010Prop46
 90
       50
102
RTVSPost2010PropOp46
 70
     1
102
RTVSPost2010Prop47
 90
       50
102
RTVSPost2010PropOp47
 70
     1
102
RTVSPost2010Prop48
 90
       50
102
RTVSPost2010PropOp48
 70
     1
102
RTVSPost2010Prop49
280
     0
102
RTVSPost2010PropOp49
 70
     1
102
RTVSPost2010Prop50
 90
       50
102
RTVSPost2010PropOp50
 70
     1
102
RTVSPost2010Prop51ColorIndex
 90
      256
102
RTVSPost2010Prop51ColorRGB
 90
-16777216
102
RTVSPost2010PropOp51
 70
     0
102
RTVSPost2010Prop52
140
1.0
102
RTVSPost2010PropOp52
 70
     0
102
RTVSPost2010Prop53
 90
        2
102
RTVSPost2010PropOp53
 70
     1
102
RTVSPost2010Prop54
  1
strokes_ogs.tif
102
RTVSPost2010PropOp54
 70
     1
102
RTVSPost2010Prop55
280
     0
102
RTVSPost2010PropOp55
 70
     1
102
RTVSPost2010Prop56
140
1.0
102
RTVSPost2010PropOp56
 70
     1
102
RTVSPost2010Prop57
140
1.0
102
RTVSPost2010PropOp57
 70
     1
102
RTVSPropertyOp0
 70
     1
102
RTVSPropertyOp1
 70
     1
102
RTVSPropertyOp2
 70
     1
102
RTVSPropertyOp3
 70
     1
102
RTVSPropertyOp4
 70
     1
102
RTVSPropertyOp5
 70
     1
102
RTVSPropertyOp6
 70
     1
102
RTVSPropertyOp7
 70
     1
102
RTVSPropertyOp8
 70
     1
102
RTVSPropertyOp9
 70
     1
102
RTVSPropertyOp10
 70
     1
102
RTVSPropertyOp11
 70
     1
102
RTVSPropertyOp12
 70
     1
102
RTVSPropertyOp13
 70
     1
102
RTVSPropertyOp14
 70
     1
102
RTVSPropertyOp15
 70
     1
102
RTVSPropertyOp16
 70
     1
102
RTVSPropertyOp17
 70
     1
102
RTVSPropertyOp18
 70
     1
102
RTVSPropertyOp19
 70
     1
102
RTVSPropertyOp20
 70
     1
102
RTVSPropertyOp21
 70
     1
102
RTVSPropertyOp22
 70
     1
102
RTVSPropertyOp23
 70
     1
102
RTVSPropertyOp24
 70
     1
102
RTVSPropertyOp25
 70
     1
102
RTVSPropertyOp26
 70
     1
102
RTVSPropertyOp27
 70
     1
102
RTVSPropertyOp28
 70
     1
102
RTVSPropertyOp29
 70
     1
102
RTVSPropertyOp30
 70
     1
102
RTVSPropertyOp31
 70
     1
102
RTVSPropertyOp32
 70
     1
102
RTVSPropertyOp33
 70
     1
102
RTVSPropertyOp34
 70
     1
102
RTVSPropertyOp35
 70
     1
102
RTVSPropertyOp36
 70
     1
102
RTVSPropertyOp37
 70
     1
102
RTVSPropertyOp38
 70
     1
102
RTVSPropertyOp39
 70
     1
102
RTVSPropertyOp40
 70
     1
102
RTVSPropertyOp41
 70
     1
102
RTVSPropertyOp42
 70
     1
102
RTVSPropertyOp43
 70
     1
102
RTVSPropertyOp44
 70
     1
102
RTVSPropertyOp45
 70
     1
102
RTVSPropertyOp46
 70
     1
102
RTVSPropertyOp47
 70
     1
102
RTVSPropertyOp48
 70
     1
102
RTVSPropertyOp49
 70
     1
102
RTVSPropertyOp50
 70
     1
102
RTVSPropertyOp51
 70
     0
102
RTVSPropertyOp52
 70
     0
102
RTVSPropertyOp53
 70
     1
102
RTVSPropertyOp54
 70
     1
102
RTVSPropertyOp55
 70
     1
102
RTVSPropertyOp56
 70
     1
102
RTVSPropertyOp57
 70
     1
102
RTVSPropertyOp58
 70
     1
102
RTVSPropertyOp59
 70
     1
102
RTVSPropertyOp60
 70
     1
102
RTVSPropertyOp61
 70
     1
102
RTVSPropertyOp62
 70
     1
  0
XRECORD
  5
7F75
102
{ACAD_REACTORS
330
7F74
102
}
330
7F74
100
AcDbXrecord
280
     1
102
RTVSPost2010Prop28
280
     0
102
RTVSPost2010PropOp28
 70
     1
102
RTVSPost2010Prop29
280
     1
102
RTVSPost2010PropOp29
 70
     1
102
RTVSPost2010Prop30
280
     1
102
RTVSPost2010PropOp30
 70
     1
102
RTVSPost2010Prop31
280
     0
102
RTVSPost2010PropOp31
 70
     1
102
RTVSPost2010Prop32
280
     0
102
RTVSPost2010PropOp32
 70
     1
102
RTVSPost2010Prop33
280
     0
102
RTVSPost2010PropOp33
 70
     1
102
RTVSPost2010Prop34
280
     0
102
RTVSPost2010PropOp34
 70
     1
102
RTVSPost2010Prop35
280
     0
102
RTVSPost2010PropOp35
 70
     1
102
RTVSPost2010Prop36
280
     0
102
RTVSPost2010PropOp36
 70
     1
102
RTVSPost2010Prop37
 90
       50
102
RTVSPost2010PropOp37
 70
     0
102
RTVSPost2010Prop38
140
0.0
102
RTVSPost2010PropOp38
 70
     0
102
RTVSPost2010Prop39
140
1.0
102
RTVSPost2010PropOp39
 70
     0
102
RTVSPost2010Prop40
 90
        0
102
RTVSPost2010PropOp40
 70
     0
102
RTVSPost2010Prop41ColorIndex
 90
       18
102
RTVSPost2010Prop41ColorRGB
 90
        0
102
RTVSPost2010PropOp41
 70
     0
102
RTVSPost2010Prop42
 90
       50
102
RTVSPost2010PropOp42
 70
     0
102
RTVSPost2010Prop43
 90
        3
102
RTVSPost2010PropOp43
 70
     0
102
RTVSPost2010Prop44ColorIndex
 90
        5
102
RTVSPost2010Prop44ColorRGB
 90
      255
102
RTVSPost2010PropOp44
 70
     0
102
RTVSPost2010Prop45
280
     0
102
RTVSPost2010PropOp45
 70
     1
102
RTVSPost2010Prop46
 90
       50
102
RTVSPost2010PropOp46
 70
     0
102
RTVSPost2010Prop47
 90
       50
102
RTVSPost2010PropOp47
 70
     0
102
RTVSPost2010Prop48
 90
       50
102
RTVSPost2010PropOp48
 70
     0
102
RTVSPost2010Prop49
280
     0
102
RTVSPost2010PropOp49
 70
     1
102
RTVSPost2010Prop50
 90
       50
102
RTVSPost2010PropOp50
 70
     0
102
RTVSPost2010Prop51ColorIndex
 90
      256
102
RTVSPost2010Prop51ColorRGB
 90
-16777216
102
RTVSPost2010PropOp51
 70
     0
102
RTVSPost2010Prop52
140
1.0
102
RTVSPost2010PropOp52
 70
     0
102
RTVSPost2010Prop53
 90
        2
102
RTVSPost2010PropOp53
 70
     0
102
RTVSPost2010Prop54
  1
strokes_ogs.tif
102
RTVSPost2010PropOp54
 70
     0
102
RTVSPost2010Prop55
280
     0
102
RTVSPost2010PropOp55
 70
     1
102
RTVSPost2010Prop56
140
1.0
102
RTVSPost2010PropOp56
 70
     0
102
RTVSPost2010Prop57
140
1.0
102
RTVSPost2010PropOp57
 70
     0
102
RTVSPropertyOp0
 70
     0
102
RTVSPropertyOp1
 70
     0
102
RTVSPropertyOp2
 70
     0
102
RTVSPropertyOp3
 70
     0
102
RTVSPropertyOp4
 70
     0
102
RTVSPropertyOp5
 70
     0
102
RTVSPropertyOp6
 70
     0
102
RTVSPropertyOp7
 70
     0
102
RTVSPropertyOp8
 70
     0
102
RTVSPropertyOp9
 70
     0
102
RTVSPropertyOp10
 70
     0
102
RTVSPropertyOp11
 70
     0
102
RTVSPropertyOp12
 70
     0
102
RTVSPropertyOp13
 70
     0
102
RTVSPropertyOp14
 70
     2
102
RTVSPropertyOp15
 70
     0
102
RTVSPropertyOp16
 70
     0
102
RTVSPropertyOp17
 70
     0
102
RTVSPropertyOp18
 70
     0
102
RTVSPropertyOp19
 70
     0
102
RTVSPropertyOp20
 70
     0
102
RTVSPropertyOp21
 70
     0
102
RTVSPropertyOp22
 70
     0
102
RTVSPropertyOp23
 70
     0
102
RTVSPropertyOp24
 70
     0
102
RTVSPropertyOp25
 70
     0
102
RTVSPropertyOp26
 70
     0
102
RTVSPropertyOp27
 70
     0
102
RTVSPropertyOp28
 70
     1
102
RTVSPropertyOp29
 70
     1
102
RTVSPropertyOp30
 70
     1
102
RTVSPropertyOp31
 70
     1
102
RTVSPropertyOp32
 70
     1
102
RTVSPropertyOp33
 70
     1
102
RTVSPropertyOp34
 70
     1
102
RTVSPropertyOp35
 70
     1
102
RTVSPropertyOp36
 70
     1
102
RTVSPropertyOp37
 70
     0
102
RTVSPropertyOp38
 70
     0
102
RTVSPropertyOp39
 70
     0
102
RTVSPropertyOp40
 70
     0
102
RTVSPropertyOp41
 70
     0
102
RTVSPropertyOp42
 70
     0
102
RTVSPropertyOp43
 70
     0
102
RTVSPropertyOp44
 70
     0
102
RTVSPropertyOp45
 70
     1
102
RTVSPropertyOp46
 70
     0
102
RTVSPropertyOp47
 70
     0
102
RTVSPropertyOp48
 70
     0
102
RTVSPropertyOp49
 70
     1
102
RTVSPropertyOp50
 70
     0
102
RTVSPropertyOp51
 70
     0
102
RTVSPropertyOp52
 70
     0
102
RTVSPropertyOp53
 70
     0
102
RTVSPropertyOp54
 70
     0
102
RTVSPropertyOp55
 70
     1
102
RTVSPropertyOp56
 70
     0
102
RTVSPropertyOp57
 70
     0
102
RTVSPropertyOp58
 70
     0
102
RTVSPropertyOp59
 70
     0
102
RTVSPropertyOp60
 70
     0
102
RTVSPropertyOp61
 70
     0
102
RTVSPropertyOp62
 70
     0
  0
XRECORD
  5
7F5B
102
{ACAD_REACTORS
330
7F5A
102
}
330
7F5A
100
AcDbXrecord
280
     1
102
RTVSPost2010Prop28
280
     0
102
RTVSPost2010PropOp28
 70
     1
102
RTVSPost2010Prop29
280
     1
102
RTVSPost2010PropOp29
 70
     1
102
RTVSPost2010Prop30
280
     1
102
RTVSPost2010PropOp30
 70
     1
102
RTVSPost2010Prop31
280
     0
102
RTVSPost2010PropOp31
 70
     1
102
RTVSPost2010Prop32
280
     0
102
RTVSPost2010PropOp32
 70
     1
102
RTVSPost2010Prop33
280
     0
102
RTVSPost2010PropOp33
 70
     1
102
RTVSPost2010Prop34
280
     0
102
RTVSPost2010PropOp34
 70
     1
102
RTVSPost2010Prop35
280
     0
102
RTVSPost2010PropOp35
 70
     1
102
RTVSPost2010Prop36
280
     0
102
RTVSPost2010PropOp36
 70
     1
102
RTVSPost2010Prop37
 90
       50
102
RTVSPost2010PropOp37
 70
     1
102
RTVSPost2010Prop38
140
0.0
102
RTVSPost2010PropOp38
 70
     1
102
RTVSPost2010Prop39
140
1.0
102
RTVSPost2010PropOp39
 70
     1
102
RTVSPost2010Prop40
 90
        0
102
RTVSPost2010PropOp40
 70
     1
102
RTVSPost2010Prop41ColorIndex
 90
       18
102
RTVSPost2010Prop41ColorRGB
 90
        0
102
RTVSPost2010PropOp41
 70
     1
102
RTVSPost2010Prop42
 90
       50
102
RTVSPost2010PropOp42
 70
     1
102
RTVSPost2010Prop43
 90
        3
102
RTVSPost2010PropOp43
 70
     1
102
RTVSPost2010Prop44ColorIndex
 90
        5
102
RTVSPost2010Prop44ColorRGB
 90
      255
102
RTVSPost2010PropOp44
 70
     1
102
RTVSPost2010Prop45
280
     0
102
RTVSPost2010PropOp45
 70
     1
102
RTVSPost2010Prop46
 90
       50
102
RTVSPost2010PropOp46
 70
     1
102
RTVSPost2010Prop47
 90
       50
102
RTVSPost2010PropOp47
 70
     1
102
RTVSPost2010Prop48
 90
       50
102
RTVSPost2010PropOp48
 70
     1
102
RTVSPost2010Prop49
280
     0
102
RTVSPost2010PropOp49
 70
     1
102
RTVSPost2010Prop50
 90
       50
102
RTVSPost2010PropOp50
 70
     1
102
RTVSPost2010Prop51ColorIndex
 90
      256
102
RTVSPost2010Prop51ColorRGB
 90
-16777216
102
RTVSPost2010PropOp51
 70
     0
102
RTVSPost2010Prop52
140
1.0
102
RTVSPost2010PropOp52
 70
     0
102
RTVSPost2010Prop53
 90
        2
102
RTVSPost2010PropOp53
 70
     1
102
RTVSPost2010Prop54
  1
strokes_ogs.tif
102
RTVSPost2010PropOp54
 70
     1
102
RTVSPost2010Prop55
280
     0
102
RTVSPost2010PropOp55
 70
     1
102
RTVSPost2010Prop56
140
1.0
102
RTVSPost2010PropOp56
 70
     1
102
RTVSPost2010Prop57
140
1.0
102
RTVSPost2010PropOp57
 70
     1
102
RTVSPropertyOp0
 70
     1
102
RTVSPropertyOp1
 70
     1
102
RTVSPropertyOp2
 70
     1
102
RTVSPropertyOp3
 70
     1
102
RTVSPropertyOp4
 70
     1
102
RTVSPropertyOp5
 70
     1
102
RTVSPropertyOp6
 70
     1
102
RTVSPropertyOp7
 70
     1
102
RTVSPropertyOp8
 70
     1
102
RTVSPropertyOp9
 70
     1
102
RTVSPropertyOp10
 70
     1
102
RTVSPropertyOp11
 70
     1
102
RTVSPropertyOp12
 70
     1
102
RTVSPropertyOp13
 70
     1
102
RTVSPropertyOp14
 70
     1
102
RTVSPropertyOp15
 70
     1
102
RTVSPropertyOp16
 70
     1
102
RTVSPropertyOp17
 70
     1
102
RTVSPropertyOp18
 70
     1
102
RTVSPropertyOp19
 70
     1
102
RTVSPropertyOp20
 70
     1
102
RTVSPropertyOp21
 70
     1
102
RTVSPropertyOp22
 70
     1
102
RTVSPropertyOp23
 70
     1
102
RTVSPropertyOp24
 70
     1
102
RTVSPropertyOp25
 70
     1
102
RTVSPropertyOp26
 70
     1
102
RTVSPropertyOp27
 70
     1
102
RTVSPropertyOp28
 70
     1
102
RTVSPropertyOp29
 70
     1
102
RTVSPropertyOp30
 70
     1
102
RTVSPropertyOp31
 70
     1
102
RTVSPropertyOp32
 70
     1
102
RTVSPropertyOp33
 70
     1
102
RTVSPropertyOp34
 70
     1
102
RTVSPropertyOp35
 70
     1
102
RTVSPropertyOp36
 70
     1
102
RTVSPropertyOp37
 70
     1
102
RTVSPropertyOp38
 70
     1
102
RTVSPropertyOp39
 70
     1
102
RTVSPropertyOp40
 70
     1
102
RTVSPropertyOp41
 70
     1
102
RTVSPropertyOp42
 70
     1
102
RTVSPropertyOp43
 70
     1
102
RTVSPropertyOp44
 70
     1
102
RTVSPropertyOp45
 70
     1
102
RTVSPropertyOp46
 70
     1
102
RTVSPropertyOp47
 70
     1
102
RTVSPropertyOp48
 70
     1
102
RTVSPropertyOp49
 70
     1
102
RTVSPropertyOp50
 70
     1
102
RTVSPropertyOp51
 70
     0
102
RTVSPropertyOp52
 70
     0
102
RTVSPropertyOp53
 70
     1
102
RTVSPropertyOp54
 70
     1
102
RTVSPropertyOp55
 70
     1
102
RTVSPropertyOp56
 70
     1
102
RTVSPropertyOp57
 70
     1
102
RTVSPropertyOp58
 70
     1
102
RTVSPropertyOp59
 70
     1
102
RTVSPropertyOp60
 70
     1
102
RTVSPropertyOp61
 70
     1
102
RTVSPropertyOp62
 70
     1
  0
XRECORD
  5
7F71
102
{ACAD_REACTORS
330
7F70
102
}
330
7F70
100
AcDbXrecord
280
     1
102
RTVSPost2010Prop28
280
     0
102
RTVSPost2010PropOp28
 70
     1
102
RTVSPost2010Prop29
280
     1
102
RTVSPost2010PropOp29
 70
     1
102
RTVSPost2010Prop30
280
     1
102
RTVSPost2010PropOp30
 70
     1
102
RTVSPost2010Prop31
280
     0
102
RTVSPost2010PropOp31
 70
     1
102
RTVSPost2010Prop32
280
     0
102
RTVSPost2010PropOp32
 70
     1
102
RTVSPost2010Prop33
280
     0
102
RTVSPost2010PropOp33
 70
     1
102
RTVSPost2010Prop34
280
     0
102
RTVSPost2010PropOp34
 70
     1
102
RTVSPost2010Prop35
280
     0
102
RTVSPost2010PropOp35
 70
     1
102
RTVSPost2010Prop36
280
     0
102
RTVSPost2010PropOp36
 70
     1
102
RTVSPost2010Prop37
 90
       50
102
RTVSPost2010PropOp37
 70
     1
102
RTVSPost2010Prop38
140
0.0
102
RTVSPost2010PropOp38
 70
     1
102
RTVSPost2010Prop39
140
1.0
102
RTVSPost2010PropOp39
 70
     1
102
RTVSPost2010Prop40
 90
        0
102
RTVSPost2010PropOp40
 70
     1
102
RTVSPost2010Prop41ColorIndex
 90
       18
102
RTVSPost2010Prop41ColorRGB
 90
        0
102
RTVSPost2010PropOp41
 70
     1
102
RTVSPost2010Prop42
 90
       50
102
RTVSPost2010PropOp42
 70
     1
102
RTVSPost2010Prop43
 90
        3
102
RTVSPost2010PropOp43
 70
     1
102
RTVSPost2010Prop44ColorIndex
 90
        5
102
RTVSPost2010Prop44ColorRGB
 90
      255
102
RTVSPost2010PropOp44
 70
     1
102
RTVSPost2010Prop45
280
     0
102
RTVSPost2010PropOp45
 70
     1
102
RTVSPost2010Prop46
 90
       50
102
RTVSPost2010PropOp46
 70
     1
102
RTVSPost2010Prop47
 90
       50
102
RTVSPost2010PropOp47
 70
     1
102
RTVSPost2010Prop48
 90
       50
102
RTVSPost2010PropOp48
 70
     1
102
RTVSPost2010Prop49
280
     0
102
RTVSPost2010PropOp49
 70
     1
102
RTVSPost2010Prop50
 90
       50
102
RTVSPost2010PropOp50
 70
     1
102
RTVSPost2010Prop51ColorIndex
 90
      256
102
RTVSPost2010Prop51ColorRGB
 90
-16777216
102
RTVSPost2010PropOp51
 70
     0
102
RTVSPost2010Prop52
140
1.0
102
RTVSPost2010PropOp52
 70
     0
102
RTVSPost2010Prop53
 90
        2
102
RTVSPost2010PropOp53
 70
     1
102
RTVSPost2010Prop54
  1
strokes_ogs.tif
102
RTVSPost2010PropOp54
 70
     1
102
RTVSPost2010Prop55
280
     0
102
RTVSPost2010PropOp55
 70
     1
102
RTVSPost2010Prop56
140
1.0
102
RTVSPost2010PropOp56
 70
     1
102
RTVSPost2010Prop57
140
1.0
102
RTVSPost2010PropOp57
 70
     1
102
RTVSPropertyOp0
 70
     1
102
RTVSPropertyOp1
 70
     1
102
RTVSPropertyOp2
 70
     1
102
RTVSPropertyOp3
 70
     1
102
RTVSPropertyOp4
 70
     1
102
RTVSPropertyOp5
 70
     1
102
RTVSPropertyOp6
 70
     1
102
RTVSPropertyOp7
 70
     1
102
RTVSPropertyOp8
 70
     1
102
RTVSPropertyOp9
 70
     1
102
RTVSPropertyOp10
 70
     1
102
RTVSPropertyOp11
 70
     1
102
RTVSPropertyOp12
 70
     1
102
RTVSPropertyOp13
 70
     1
102
RTVSPropertyOp14
 70
     1
102
RTVSPropertyOp15
 70
     1
102
RTVSPropertyOp16
 70
     1
102
RTVSPropertyOp17
 70
     1
102
RTVSPropertyOp18
 70
     1
102
RTVSPropertyOp19
 70
     1
102
RTVSPropertyOp20
 70
     1
102
RTVSPropertyOp21
 70
     1
102
RTVSPropertyOp22
 70
     1
102
RTVSPropertyOp23
 70
     1
102
RTVSPropertyOp24
 70
     1
102
RTVSPropertyOp25
 70
     1
102
RTVSPropertyOp26
 70
     1
102
RTVSPropertyOp27
 70
     1
102
RTVSPropertyOp28
 70
     1
102
RTVSPropertyOp29
 70
     1
102
RTVSPropertyOp30
 70
     1
102
RTVSPropertyOp31
 70
     1
102
RTVSPropertyOp32
 70
     1
102
RTVSPropertyOp33
 70
     1
102
RTVSPropertyOp34
 70
     1
102
RTVSPropertyOp35
 70
     1
102
RTVSPropertyOp36
 70
     1
102
RTVSPropertyOp37
 70
     1
102
RTVSPropertyOp38
 70
     1
102
RTVSPropertyOp39
 70
     1
102
RTVSPropertyOp40
 70
     1
102
RTVSPropertyOp41
 70
     1
102
RTVSPropertyOp42
 70
     1
102
RTVSPropertyOp43
 70
     1
102
RTVSPropertyOp44
 70
     1
102
RTVSPropertyOp45
 70
     1
102
RTVSPropertyOp46
 70
     1
102
RTVSPropertyOp47
 70
     1
102
RTVSPropertyOp48
 70
     1
102
RTVSPropertyOp49
 70
     1
102
RTVSPropertyOp50
 70
     1
102
RTVSPropertyOp51
 70
     0
102
RTVSPropertyOp52
 70
     0
102
RTVSPropertyOp53
 70
     1
102
RTVSPropertyOp54
 70
     1
102
RTVSPropertyOp55
 70
     1
102
RTVSPropertyOp56
 70
     1
102
RTVSPropertyOp57
 70
     1
102
RTVSPropertyOp58
 70
     1
102
RTVSPropertyOp59
 70
     1
102
RTVSPropertyOp60
 70
     1
102
RTVSPropertyOp61
 70
     1
102
RTVSPropertyOp62
 70
     1
  0
XRECORD
  5
7F6F
102
{ACAD_REACTORS
330
7F6E
102
}
330
7F6E
100
AcDbXrecord
280
     1
102
RTVSPost2010Prop28
280
     0
102
RTVSPost2010PropOp28
 70
     1
102
RTVSPost2010Prop29
280
     1
102
RTVSPost2010PropOp29
 70
     1
102
RTVSPost2010Prop30
280
     1
102
RTVSPost2010PropOp30
 70
     1
102
RTVSPost2010Prop31
280
     0
102
RTVSPost2010PropOp31
 70
     1
102
RTVSPost2010Prop32
280
     0
102
RTVSPost2010PropOp32
 70
     1
102
RTVSPost2010Prop33
280
     0
102
RTVSPost2010PropOp33
 70
     1
102
RTVSPost2010Prop34
280
     0
102
RTVSPost2010PropOp34
 70
     1
102
RTVSPost2010Prop35
280
     0
102
RTVSPost2010PropOp35
 70
     1
102
RTVSPost2010Prop36
280
     0
102
RTVSPost2010PropOp36
 70
     1
102
RTVSPost2010Prop37
 90
       50
102
RTVSPost2010PropOp37
 70
     1
102
RTVSPost2010Prop38
140
0.0
102
RTVSPost2010PropOp38
 70
     1
102
RTVSPost2010Prop39
140
1.0
102
RTVSPost2010PropOp39
 70
     1
102
RTVSPost2010Prop40
 90
        0
102
RTVSPost2010PropOp40
 70
     1
102
RTVSPost2010Prop41ColorIndex
 90
       18
102
RTVSPost2010Prop41ColorRGB
 90
        0
102
RTVSPost2010PropOp41
 70
     1
102
RTVSPost2010Prop42
 90
       50
102
RTVSPost2010PropOp42
 70
     1
102
RTVSPost2010Prop43
 90
        3
102
RTVSPost2010PropOp43
 70
     1
102
RTVSPost2010Prop44ColorIndex
 90
        5
102
RTVSPost2010Prop44ColorRGB
 90
      255
102
RTVSPost2010PropOp44
 70
     1
102
RTVSPost2010Prop45
280
     0
102
RTVSPost2010PropOp45
 70
     1
102
RTVSPost2010Prop46
 90
       50
102
RTVSPost2010PropOp46
 70
     1
102
RTVSPost2010Prop47
 90
       50
102
RTVSPost2010PropOp47
 70
     1
102
RTVSPost2010Prop48
 90
       50
102
RTVSPost2010PropOp48
 70
     1
102
RTVSPost2010Prop49
280
     0
102
RTVSPost2010PropOp49
 70
     1
102
RTVSPost2010Prop50
 90
       50
102
RTVSPost2010PropOp50
 70
     1
102
RTVSPost2010Prop51ColorIndex
 90
      256
102
RTVSPost2010Prop51ColorRGB
 90
-16777216
102
RTVSPost2010PropOp51
 70
     0
102
RTVSPost2010Prop52
140
1.0
102
RTVSPost2010PropOp52
 70
     0
102
RTVSPost2010Prop53
 90
        2
102
RTVSPost2010PropOp53
 70
     1
102
RTVSPost2010Prop54
  1
strokes_ogs.tif
102
RTVSPost2010PropOp54
 70
     1
102
RTVSPost2010Prop55
280
     0
102
RTVSPost2010PropOp55
 70
     1
102
RTVSPost2010Prop56
140
1.0
102
RTVSPost2010PropOp56
 70
     1
102
RTVSPost2010Prop57
140
1.0
102
RTVSPost2010PropOp57
 70
     1
102
RTVSPropertyOp0
 70
     1
102
RTVSPropertyOp1
 70
     1
102
RTVSPropertyOp2
 70
     1
102
RTVSPropertyOp3
 70
     1
102
RTVSPropertyOp4
 70
     1
102
RTVSPropertyOp5
 70
     1
102
RTVSPropertyOp6
 70
     1
102
RTVSPropertyOp7
 70
     1
102
RTVSPropertyOp8
 70
     1
102
RTVSPropertyOp9
 70
     1
102
RTVSPropertyOp10
 70
     1
102
RTVSPropertyOp11
 70
     1
102
RTVSPropertyOp12
 70
     1
102
RTVSPropertyOp13
 70
     1
102
RTVSPropertyOp14
 70
     1
102
RTVSPropertyOp15
 70
     1
102
RTVSPropertyOp16
 70
     1
102
RTVSPropertyOp17
 70
     1
102
RTVSPropertyOp18
 70
     1
102
RTVSPropertyOp19
 70
     1
102
RTVSPropertyOp20
 70
     1
102
RTVSPropertyOp21
 70
     1
102
RTVSPropertyOp22
 70
     1
102
RTVSPropertyOp23
 70
     1
102
RTVSPropertyOp24
 70
     1
102
RTVSPropertyOp25
 70
     1
102
RTVSPropertyOp26
 70
     1
102
RTVSPropertyOp27
 70
     1
102
RTVSPropertyOp28
 70
     1
102
RTVSPropertyOp29
 70
     1
102
RTVSPropertyOp30
 70
     1
102
RTVSPropertyOp31
 70
     1
102
RTVSPropertyOp32
 70
     1
102
RTVSPropertyOp33
 70
     1
102
RTVSPropertyOp34
 70
     1
102
RTVSPropertyOp35
 70
     1
102
RTVSPropertyOp36
 70
     1
102
RTVSPropertyOp37
 70
     1
102
RTVSPropertyOp38
 70
     1
102
RTVSPropertyOp39
 70
     1
102
RTVSPropertyOp40
 70
     1
102
RTVSPropertyOp41
 70
     1
102
RTVSPropertyOp42
 70
     1
102
RTVSPropertyOp43
 70
     1
102
RTVSPropertyOp44
 70
     1
102
RTVSPropertyOp45
 70
     1
102
RTVSPropertyOp46
 70
     1
102
RTVSPropertyOp47
 70
     1
102
RTVSPropertyOp48
 70
     1
102
RTVSPropertyOp49
 70
     1
102
RTVSPropertyOp50
 70
     1
102
RTVSPropertyOp51
 70
     0
102
RTVSPropertyOp52
 70
     0
102
RTVSPropertyOp53
 70
     1
102
RTVSPropertyOp54
 70
     1
102
RTVSPropertyOp55
 70
     1
102
RTVSPropertyOp56
 70
     1
102
RTVSPropertyOp57
 70
     1
102
RTVSPropertyOp58
 70
     1
102
RTVSPropertyOp59
 70
     1
102
RTVSPropertyOp60
 70
     1
102
RTVSPropertyOp61
 70
     1
102
RTVSPropertyOp62
 70
     1
  0
XRECORD
  5
7F69
102
{ACAD_REACTORS
330
7F68
102
}
330
7F68
100
AcDbXrecord
280
     1
102
RTVSPost2010Prop28
280
     0
102
RTVSPost2010PropOp28
 70
     1
102
RTVSPost2010Prop29
280
     1
102
RTVSPost2010PropOp29
 70
     1
102
RTVSPost2010Prop30
280
     1
102
RTVSPost2010PropOp30
 70
     1
102
RTVSPost2010Prop31
280
     0
102
RTVSPost2010PropOp31
 70
     1
102
RTVSPost2010Prop32
280
     0
102
RTVSPost2010PropOp32
 70
     1
102
RTVSPost2010Prop33
280
     0
102
RTVSPost2010PropOp33
 70
     1
102
RTVSPost2010Prop34
280
     0
102
RTVSPost2010PropOp34
 70
     1
102
RTVSPost2010Prop35
280
     0
102
RTVSPost2010PropOp35
 70
     1
102
RTVSPost2010Prop36
280
     0
102
RTVSPost2010PropOp36
 70
     1
102
RTVSPost2010Prop37
 90
       50
102
RTVSPost2010PropOp37
 70
     1
102
RTVSPost2010Prop38
140
0.0
102
RTVSPost2010PropOp38
 70
     1
102
RTVSPost2010Prop39
140
1.0
102
RTVSPost2010PropOp39
 70
     1
102
RTVSPost2010Prop40
 90
        0
102
RTVSPost2010PropOp40
 70
     1
102
RTVSPost2010Prop41ColorIndex
 90
       18
102
RTVSPost2010Prop41ColorRGB
 90
        0
102
RTVSPost2010PropOp41
 70
     1
102
RTVSPost2010Prop42
 90
       50
102
RTVSPost2010PropOp42
 70
     1
102
RTVSPost2010Prop43
 90
        3
102
RTVSPost2010PropOp43
 70
     1
102
RTVSPost2010Prop44ColorIndex
 90
        5
102
RTVSPost2010Prop44ColorRGB
 90
      255
102
RTVSPost2010PropOp44
 70
     1
102
RTVSPost2010Prop45
280
     0
102
RTVSPost2010PropOp45
 70
     1
102
RTVSPost2010Prop46
 90
       50
102
RTVSPost2010PropOp46
 70
     1
102
RTVSPost2010Prop47
 90
       50
102
RTVSPost2010PropOp47
 70
     1
102
RTVSPost2010Prop48
 90
       50
102
RTVSPost2010PropOp48
 70
     1
102
RTVSPost2010Prop49
280
     0
102
RTVSPost2010PropOp49
 70
     1
102
RTVSPost2010Prop50
 90
       50
102
RTVSPost2010PropOp50
 70
     1
102
RTVSPost2010Prop51ColorIndex
 90
      256
102
RTVSPost2010Prop51ColorRGB
 90
-16777216
102
RTVSPost2010PropOp51
 70
     0
102
RTVSPost2010Prop52
140
1.0
102
RTVSPost2010PropOp52
 70
     0
102
RTVSPost2010Prop53
 90
        2
102
RTVSPost2010PropOp53
 70
     1
102
RTVSPost2010Prop54
  1
strokes_ogs.tif
102
RTVSPost2010PropOp54
 70
     1
102
RTVSPost2010Prop55
280
     0
102
RTVSPost2010PropOp55
 70
     1
102
RTVSPost2010Prop56
140
1.0
102
RTVSPost2010PropOp56
 70
     1
102
RTVSPost2010Prop57
140
1.0
102
RTVSPost2010PropOp57
 70
     1
102
RTVSPropertyOp0
 70
     1
102
RTVSPropertyOp1
 70
     1
102
RTVSPropertyOp2
 70
     1
102
RTVSPropertyOp3
 70
     1
102
RTVSPropertyOp4
 70
     1
102
RTVSPropertyOp5
 70
     1
102
RTVSPropertyOp6
 70
     1
102
RTVSPropertyOp7
 70
     1
102
RTVSPropertyOp8
 70
     1
102
RTVSPropertyOp9
 70
     1
102
RTVSPropertyOp10
 70
     1
102
RTVSPropertyOp11
 70
     1
102
RTVSPropertyOp12
 70
     1
102
RTVSPropertyOp13
 70
     1
102
RTVSPropertyOp14
 70
     1
102
RTVSPropertyOp15
 70
     1
102
RTVSPropertyOp16
 70
     1
102
RTVSPropertyOp17
 70
     1
102
RTVSPropertyOp18
 70
     1
102
RTVSPropertyOp19
 70
     1
102
RTVSPropertyOp20
 70
     1
102
RTVSPropertyOp21
 70
     1
102
RTVSPropertyOp22
 70
     1
102
RTVSPropertyOp23
 70
     1
102
RTVSPropertyOp24
 70
     1
102
RTVSPropertyOp25
 70
     1
102
RTVSPropertyOp26
 70
     1
102
RTVSPropertyOp27
 70
     1
102
RTVSPropertyOp28
 70
     1
102
RTVSPropertyOp29
 70
     1
102
RTVSPropertyOp30
 70
     1
102
RTVSPropertyOp31
 70
     1
102
RTVSPropertyOp32
 70
     1
102
RTVSPropertyOp33
 70
     1
102
RTVSPropertyOp34
 70
     1
102
RTVSPropertyOp35
 70
     1
102
RTVSPropertyOp36
 70
     1
102
RTVSPropertyOp37
 70
     1
102
RTVSPropertyOp38
 70
     1
102
RTVSPropertyOp39
 70
     1
102
RTVSPropertyOp40
 70
     1
102
RTVSPropertyOp41
 70
     1
102
RTVSPropertyOp42
 70
     1
102
RTVSPropertyOp43
 70
     1
102
RTVSPropertyOp44
 70
     1
102
RTVSPropertyOp45
 70
     1
102
RTVSPropertyOp46
 70
     1
102
RTVSPropertyOp47
 70
     1
102
RTVSPropertyOp48
 70
     1
102
RTVSPropertyOp49
 70
     1
102
RTVSPropertyOp50
 70
     1
102
RTVSPropertyOp51
 70
     0
102
RTVSPropertyOp52
 70
     0
102
RTVSPropertyOp53
 70
     1
102
RTVSPropertyOp54
 70
     1
102
RTVSPropertyOp55
 70
     1
102
RTVSPropertyOp56
 70
     1
102
RTVSPropertyOp57
 70
     1
102
RTVSPropertyOp58
 70
     1
102
RTVSPropertyOp59
 70
     1
102
RTVSPropertyOp60
 70
     1
102
RTVSPropertyOp61
 70
     1
102
RTVSPropertyOp62
 70
     1
  0
XRECORD
  5
7F6B
102
{ACAD_REACTORS
330
7F6A
102
}
330
7F6A
100
AcDbXrecord
280
     1
102
RTVSPost2010Prop28
280
     0
102
RTVSPost2010PropOp28
 70
     1
102
RTVSPost2010Prop29
280
     1
102
RTVSPost2010PropOp29
 70
     1
102
RTVSPost2010Prop30
280
     1
102
RTVSPost2010PropOp30
 70
     1
102
RTVSPost2010Prop31
280
     0
102
RTVSPost2010PropOp31
 70
     1
102
RTVSPost2010Prop32
280
     0
102
RTVSPost2010PropOp32
 70
     1
102
RTVSPost2010Prop33
280
     0
102
RTVSPost2010PropOp33
 70
     1
102
RTVSPost2010Prop34
280
     0
102
RTVSPost2010PropOp34
 70
     1
102
RTVSPost2010Prop35
280
     0
102
RTVSPost2010PropOp35
 70
     1
102
RTVSPost2010Prop36
280
     0
102
RTVSPost2010PropOp36
 70
     1
102
RTVSPost2010Prop37
 90
       50
102
RTVSPost2010PropOp37
 70
     1
102
RTVSPost2010Prop38
140
0.0
102
RTVSPost2010PropOp38
 70
     1
102
RTVSPost2010Prop39
140
1.0
102
RTVSPost2010PropOp39
 70
     1
102
RTVSPost2010Prop40
 90
        0
102
RTVSPost2010PropOp40
 70
     1
102
RTVSPost2010Prop41ColorIndex
 90
       18
102
RTVSPost2010Prop41ColorRGB
 90
        0
102
RTVSPost2010PropOp41
 70
     1
102
RTVSPost2010Prop42
 90
       50
102
RTVSPost2010PropOp42
 70
     1
102
RTVSPost2010Prop43
 90
        3
102
RTVSPost2010PropOp43
 70
     1
102
RTVSPost2010Prop44ColorIndex
 90
        5
102
RTVSPost2010Prop44ColorRGB
 90
      255
102
RTVSPost2010PropOp44
 70
     1
102
RTVSPost2010Prop45
280
     0
102
RTVSPost2010PropOp45
 70
     1
102
RTVSPost2010Prop46
 90
       50
102
RTVSPost2010PropOp46
 70
     1
102
RTVSPost2010Prop47
 90
       50
102
RTVSPost2010PropOp47
 70
     1
102
RTVSPost2010Prop48
 90
       50
102
RTVSPost2010PropOp48
 70
     1
102
RTVSPost2010Prop49
280
     0
102
RTVSPost2010PropOp49
 70
     1
102
RTVSPost2010Prop50
 90
       50
102
RTVSPost2010PropOp50
 70
     1
102
RTVSPost2010Prop51ColorIndex
 90
      256
102
RTVSPost2010Prop51ColorRGB
 90
-16777216
102
RTVSPost2010PropOp51
 70
     0
102
RTVSPost2010Prop52
140
1.0
102
RTVSPost2010PropOp52
 70
     0
102
RTVSPost2010Prop53
 90
        2
102
RTVSPost2010PropOp53
 70
     1
102
RTVSPost2010Prop54
  1
strokes_ogs.tif
102
RTVSPost2010PropOp54
 70
     1
102
RTVSPost2010Prop55
280
     0
102
RTVSPost2010PropOp55
 70
     1
102
RTVSPost2010Prop56
140
1.0
102
RTVSPost2010PropOp56
 70
     1
102
RTVSPost2010Prop57
140
1.0
102
RTVSPost2010PropOp57
 70
     1
102
RTVSPropertyOp0
 70
     1
102
RTVSPropertyOp1
 70
     1
102
RTVSPropertyOp2
 70
     1
102
RTVSPropertyOp3
 70
     1
102
RTVSPropertyOp4
 70
     1
102
RTVSPropertyOp5
 70
     1
102
RTVSPropertyOp6
 70
     1
102
RTVSPropertyOp7
 70
     1
102
RTVSPropertyOp8
 70
     1
102
RTVSPropertyOp9
 70
     1
102
RTVSPropertyOp10
 70
     1
102
RTVSPropertyOp11
 70
     1
102
RTVSPropertyOp12
 70
     1
102
RTVSPropertyOp13
 70
     1
102
RTVSPropertyOp14
 70
     1
102
RTVSPropertyOp15
 70
     1
102
RTVSPropertyOp16
 70
     1
102
RTVSPropertyOp17
 70
     1
102
RTVSPropertyOp18
 70
     1
102
RTVSPropertyOp19
 70
     1
102
RTVSPropertyOp20
 70
     1
102
RTVSPropertyOp21
 70
     1
102
RTVSPropertyOp22
 70
     1
102
RTVSPropertyOp23
 70
     1
102
RTVSPropertyOp24
 70
     1
102
RTVSPropertyOp25
 70
     1
102
RTVSPropertyOp26
 70
     1
102
RTVSPropertyOp27
 70
     1
102
RTVSPropertyOp28
 70
     1
102
RTVSPropertyOp29
 70
     1
102
RTVSPropertyOp30
 70
     1
102
RTVSPropertyOp31
 70
     1
102
RTVSPropertyOp32
 70
     1
102
RTVSPropertyOp33
 70
     1
102
RTVSPropertyOp34
 70
     1
102
RTVSPropertyOp35
 70
     1
102
RTVSPropertyOp36
 70
     1
102
RTVSPropertyOp37
 70
     1
102
RTVSPropertyOp38
 70
     1
102
RTVSPropertyOp39
 70
     1
102
RTVSPropertyOp40
 70
     1
102
RTVSPropertyOp41
 70
     1
102
RTVSPropertyOp42
 70
     1
102
RTVSPropertyOp43
 70
     1
102
RTVSPropertyOp44
 70
     1
102
RTVSPropertyOp45
 70
     1
102
RTVSPropertyOp46
 70
     1
102
RTVSPropertyOp47
 70
     1
102
RTVSPropertyOp48
 70
     1
102
RTVSPropertyOp49
 70
     1
102
RTVSPropertyOp50
 70
     1
102
RTVSPropertyOp51
 70
     0
102
RTVSPropertyOp52
 70
     0
102
RTVSPropertyOp53
 70
     1
102
RTVSPropertyOp54
 70
     1
102
RTVSPropertyOp55
 70
     1
102
RTVSPropertyOp56
 70
     1
102
RTVSPropertyOp57
 70
     1
102
RTVSPropertyOp58
 70
     1
102
RTVSPropertyOp59
 70
     1
102
RTVSPropertyOp60
 70
     1
102
RTVSPropertyOp61
 70
     1
102
RTVSPropertyOp62
 70
     1
  0
XRECORD
  5
7F61
102
{ACAD_REACTORS
330
7F60
102
}
330
7F60
100
AcDbXrecord
280
     1
102
RTVSPost2010Prop28
280
     0
102
RTVSPost2010PropOp28
 70
     1
102
RTVSPost2010Prop29
280
     1
102
RTVSPost2010PropOp29
 70
     1
102
RTVSPost2010Prop30
280
     1
102
RTVSPost2010PropOp30
 70
     1
102
RTVSPost2010Prop31
280
     0
102
RTVSPost2010PropOp31
 70
     1
102
RTVSPost2010Prop32
280
     0
102
RTVSPost2010PropOp32
 70
     1
102
RTVSPost2010Prop33
280
     0
102
RTVSPost2010PropOp33
 70
     1
102
RTVSPost2010Prop34
280
     0
102
RTVSPost2010PropOp34
 70
     1
102
RTVSPost2010Prop35
280
     0
102
RTVSPost2010PropOp35
 70
     1
102
RTVSPost2010Prop36
280
     0
102
RTVSPost2010PropOp36
 70
     1
102
RTVSPost2010Prop37
 90
       50
102
RTVSPost2010PropOp37
 70
     1
102
RTVSPost2010Prop38
140
0.0
102
RTVSPost2010PropOp38
 70
     1
102
RTVSPost2010Prop39
140
1.0
102
RTVSPost2010PropOp39
 70
     1
102
RTVSPost2010Prop40
 90
        0
102
RTVSPost2010PropOp40
 70
     1
102
RTVSPost2010Prop41ColorIndex
 90
       18
102
RTVSPost2010Prop41ColorRGB
 90
        0
102
RTVSPost2010PropOp41
 70
     1
102
RTVSPost2010Prop42
 90
       50
102
RTVSPost2010PropOp42
 70
     1
102
RTVSPost2010Prop43
 90
        3
102
RTVSPost2010PropOp43
 70
     1
102
RTVSPost2010Prop44ColorIndex
 90
        5
102
RTVSPost2010Prop44ColorRGB
 90
      255
102
RTVSPost2010PropOp44
 70
     1
102
RTVSPost2010Prop45
280
     0
102
RTVSPost2010PropOp45
 70
     1
102
RTVSPost2010Prop46
 90
       50
102
RTVSPost2010PropOp46
 70
     1
102
RTVSPost2010Prop47
 90
       50
102
RTVSPost2010PropOp47
 70
     1
102
RTVSPost2010Prop48
 90
       50
102
RTVSPost2010PropOp48
 70
     1
102
RTVSPost2010Prop49
280
     0
102
RTVSPost2010PropOp49
 70
     1
102
RTVSPost2010Prop50
 90
       50
102
RTVSPost2010PropOp50
 70
     1
102
RTVSPost2010Prop51ColorIndex
 90
      256
102
RTVSPost2010Prop51ColorRGB
 90
-16777216
102
RTVSPost2010PropOp51
 70
     0
102
RTVSPost2010Prop52
140
1.0
102
RTVSPost2010PropOp52
 70
     0
102
RTVSPost2010Prop53
 90
        2
102
RTVSPost2010PropOp53
 70
     1
102
RTVSPost2010Prop54
  1
strokes_ogs.tif
102
RTVSPost2010PropOp54
 70
     1
102
RTVSPost2010Prop55
280
     0
102
RTVSPost2010PropOp55
 70
     1
102
RTVSPost2010Prop56
140
1.0
102
RTVSPost2010PropOp56
 70
     1
102
RTVSPost2010Prop57
140
1.0
102
RTVSPost2010PropOp57
 70
     1
102
RTVSPropertyOp0
 70
     1
102
RTVSPropertyOp1
 70
     1
102
RTVSPropertyOp2
 70
     1
102
RTVSPropertyOp3
 70
     1
102
RTVSPropertyOp4
 70
     1
102
RTVSPropertyOp5
 70
     1
102
RTVSPropertyOp6
 70
     1
102
RTVSPropertyOp7
 70
     1
102
RTVSPropertyOp8
 70
     1
102
RTVSPropertyOp9
 70
     1
102
RTVSPropertyOp10
 70
     1
102
RTVSPropertyOp11
 70
     1
102
RTVSPropertyOp12
 70
     1
102
RTVSPropertyOp13
 70
     1
102
RTVSPropertyOp14
 70
     1
102
RTVSPropertyOp15
 70
     1
102
RTVSPropertyOp16
 70
     1
102
RTVSPropertyOp17
 70
     1
102
RTVSPropertyOp18
 70
     1
102
RTVSPropertyOp19
 70
     1
102
RTVSPropertyOp20
 70
     1
102
RTVSPropertyOp21
 70
     1
102
RTVSPropertyOp22
 70
     1
102
RTVSPropertyOp23
 70
     1
102
RTVSPropertyOp24
 70
     1
102
RTVSPropertyOp25
 70
     1
102
RTVSPropertyOp26
 70
     1
102
RTVSPropertyOp27
 70
     1
102
RTVSPropertyOp28
 70
     1
102
RTVSPropertyOp29
 70
     1
102
RTVSPropertyOp30
 70
     1
102
RTVSPropertyOp31
 70
     1
102
RTVSPropertyOp32
 70
     1
102
RTVSPropertyOp33
 70
     1
102
RTVSPropertyOp34
 70
     1
102
RTVSPropertyOp35
 70
     1
102
RTVSPropertyOp36
 70
     1
102
RTVSPropertyOp37
 70
     1
102
RTVSPropertyOp38
 70
     1
102
RTVSPropertyOp39
 70
     1
102
RTVSPropertyOp40
 70
     1
102
RTVSPropertyOp41
 70
     1
102
RTVSPropertyOp42
 70
     1
102
RTVSPropertyOp43
 70
     1
102
RTVSPropertyOp44
 70
     1
102
RTVSPropertyOp45
 70
     1
102
RTVSPropertyOp46
 70
     1
102
RTVSPropertyOp47
 70
     1
102
RTVSPropertyOp48
 70
     1
102
RTVSPropertyOp49
 70
     1
102
RTVSPropertyOp50
 70
     1
102
RTVSPropertyOp51
 70
     0
102
RTVSPropertyOp52
 70
     0
102
RTVSPropertyOp53
 70
     1
102
RTVSPropertyOp54
 70
     1
102
RTVSPropertyOp55
 70
     1
102
RTVSPropertyOp56
 70
     1
102
RTVSPropertyOp57
 70
     1
102
RTVSPropertyOp58
 70
     1
102
RTVSPropertyOp59
 70
     1
102
RTVSPropertyOp60
 70
     1
102
RTVSPropertyOp61
 70
     1
102
RTVSPropertyOp62
 70
     1
  0
XRECORD
  5
7F55
102
{ACAD_REACTORS
330
7F54
102
}
330
7F54
100
AcDbXrecord
280
     1
102
RTVSPost2010Prop28
280
     0
102
RTVSPost2010PropOp28
 70
     1
102
RTVSPost2010Prop29
280
     1
102
RTVSPost2010PropOp29
 70
     1
102
RTVSPost2010Prop30
280
     1
102
RTVSPost2010PropOp30
 70
     1
102
RTVSPost2010Prop31
280
     0
102
RTVSPost2010PropOp31
 70
     1
102
RTVSPost2010Prop32
280
     0
102
RTVSPost2010PropOp32
 70
     1
102
RTVSPost2010Prop33
280
     0
102
RTVSPost2010PropOp33
 70
     1
102
RTVSPost2010Prop34
280
     0
102
RTVSPost2010PropOp34
 70
     1
102
RTVSPost2010Prop35
280
     0
102
RTVSPost2010PropOp35
 70
     1
102
RTVSPost2010Prop36
280
     0
102
RTVSPost2010PropOp36
 70
     1
102
RTVSPost2010Prop37
 90
       50
102
RTVSPost2010PropOp37
 70
     1
102
RTVSPost2010Prop38
140
0.0
102
RTVSPost2010PropOp38
 70
     1
102
RTVSPost2010Prop39
140
1.0
102
RTVSPost2010PropOp39
 70
     1
102
RTVSPost2010Prop40
 90
        0
102
RTVSPost2010PropOp40
 70
     1
102
RTVSPost2010Prop41ColorIndex
 90
       18
102
RTVSPost2010Prop41ColorRGB
 90
        0
102
RTVSPost2010PropOp41
 70
     1
102
RTVSPost2010Prop42
 90
       50
102
RTVSPost2010PropOp42
 70
     1
102
RTVSPost2010Prop43
 90
        3
102
RTVSPost2010PropOp43
 70
     1
102
RTVSPost2010Prop44ColorIndex
 90
        5
102
RTVSPost2010Prop44ColorRGB
 90
      255
102
RTVSPost2010PropOp44
 70
     1
102
RTVSPost2010Prop45
280
     0
102
RTVSPost2010PropOp45
 70
     1
102
RTVSPost2010Prop46
 90
       50
102
RTVSPost2010PropOp46
 70
     1
102
RTVSPost2010Prop47
 90
       50
102
RTVSPost2010PropOp47
 70
     1
102
RTVSPost2010Prop48
 90
       50
102
RTVSPost2010PropOp48
 70
     1
102
RTVSPost2010Prop49
280
     0
102
RTVSPost2010PropOp49
 70
     1
102
RTVSPost2010Prop50
 90
       50
102
RTVSPost2010PropOp50
 70
     1
102
RTVSPost2010Prop51ColorIndex
 90
      256
102
RTVSPost2010Prop51ColorRGB
 90
-16777216
102
RTVSPost2010PropOp51
 70
     0
102
RTVSPost2010Prop52
140
1.0
102
RTVSPost2010PropOp52
 70
     0
102
RTVSPost2010Prop53
 90
        2
102
RTVSPost2010PropOp53
 70
     1
102
RTVSPost2010Prop54
  1
strokes_ogs.tif
102
RTVSPost2010PropOp54
 70
     1
102
RTVSPost2010Prop55
280
     0
102
RTVSPost2010PropOp55
 70
     1
102
RTVSPost2010Prop56
140
1.0
102
RTVSPost2010PropOp56
 70
     1
102
RTVSPost2010Prop57
140
1.0
102
RTVSPost2010PropOp57
 70
     1
102
RTVSPropertyOp0
 70
     1
102
RTVSPropertyOp1
 70
     1
102
RTVSPropertyOp2
 70
     1
102
RTVSPropertyOp3
 70
     1
102
RTVSPropertyOp4
 70
     1
102
RTVSPropertyOp5
 70
     1
102
RTVSPropertyOp6
 70
     1
102
RTVSPropertyOp7
 70
     1
102
RTVSPropertyOp8
 70
     1
102
RTVSPropertyOp9
 70
     1
102
RTVSPropertyOp10
 70
     1
102
RTVSPropertyOp11
 70
     1
102
RTVSPropertyOp12
 70
     1
102
RTVSPropertyOp13
 70
     1
102
RTVSPropertyOp14
 70
     1
102
RTVSPropertyOp15
 70
     1
102
RTVSPropertyOp16
 70
     1
102
RTVSPropertyOp17
 70
     1
102
RTVSPropertyOp18
 70
     1
102
RTVSPropertyOp19
 70
     1
102
RTVSPropertyOp20
 70
     1
102
RTVSPropertyOp21
 70
     1
102
RTVSPropertyOp22
 70
     1
102
RTVSPropertyOp23
 70
     1
102
RTVSPropertyOp24
 70
     1
102
RTVSPropertyOp25
 70
     1
102
RTVSPropertyOp26
 70
     1
102
RTVSPropertyOp27
 70
     1
102
RTVSPropertyOp28
 70
     1
102
RTVSPropertyOp29
 70
     1
102
RTVSPropertyOp30
 70
     1
102
RTVSPropertyOp31
 70
     1
102
RTVSPropertyOp32
 70
     1
102
RTVSPropertyOp33
 70
     1
102
RTVSPropertyOp34
 70
     1
102
RTVSPropertyOp35
 70
     1
102
RTVSPropertyOp36
 70
     1
102
RTVSPropertyOp37
 70
     1
102
RTVSPropertyOp38
 70
     1
102
RTVSPropertyOp39
 70
     1
102
RTVSPropertyOp40
 70
     1
102
RTVSPropertyOp41
 70
     1
102
RTVSPropertyOp42
 70
     1
102
RTVSPropertyOp43
 70
     1
102
RTVSPropertyOp44
 70
     1
102
RTVSPropertyOp45
 70
     1
102
RTVSPropertyOp46
 70
     1
102
RTVSPropertyOp47
 70
     1
102
RTVSPropertyOp48
 70
     1
102
RTVSPropertyOp49
 70
     1
102
RTVSPropertyOp50
 70
     1
102
RTVSPropertyOp51
 70
     0
102
RTVSPropertyOp52
 70
     0
102
RTVSPropertyOp53
 70
     1
102
RTVSPropertyOp54
 70
     1
102
RTVSPropertyOp55
 70
     1
102
RTVSPropertyOp56
 70
     1
102
RTVSPropertyOp57
 70
     1
102
RTVSPropertyOp58
 70
     1
102
RTVSPropertyOp59
 70
     1
102
RTVSPropertyOp60
 70
     1
102
RTVSPropertyOp61
 70
     1
102
RTVSPropertyOp62
 70
     1
  0
XRECORD
  5
7F6D
102
{ACAD_REACTORS
330
7F6C
102
}
330
7F6C
100
AcDbXrecord
280
     1
102
RTVSPost2010Prop28
280
     0
102
RTVSPost2010PropOp28
 70
     1
102
RTVSPost2010Prop29
280
     1
102
RTVSPost2010PropOp29
 70
     1
102
RTVSPost2010Prop30
280
     1
102
RTVSPost2010PropOp30
 70
     1
102
RTVSPost2010Prop31
280
     0
102
RTVSPost2010PropOp31
 70
     1
102
RTVSPost2010Prop32
280
     0
102
RTVSPost2010PropOp32
 70
     1
102
RTVSPost2010Prop33
280
     0
102
RTVSPost2010PropOp33
 70
     1
102
RTVSPost2010Prop34
280
     0
102
RTVSPost2010PropOp34
 70
     1
102
RTVSPost2010Prop35
280
     0
102
RTVSPost2010PropOp35
 70
     1
102
RTVSPost2010Prop36
280
     0
102
RTVSPost2010PropOp36
 70
     1
102
RTVSPost2010Prop37
 90
       50
102
RTVSPost2010PropOp37
 70
     1
102
RTVSPost2010Prop38
140
0.0
102
RTVSPost2010PropOp38
 70
     1
102
RTVSPost2010Prop39
140
1.0
102
RTVSPost2010PropOp39
 70
     1
102
RTVSPost2010Prop40
 90
        0
102
RTVSPost2010PropOp40
 70
     1
102
RTVSPost2010Prop41ColorIndex
 90
       18
102
RTVSPost2010Prop41ColorRGB
 90
        0
102
RTVSPost2010PropOp41
 70
     1
102
RTVSPost2010Prop42
 90
       50
102
RTVSPost2010PropOp42
 70
     1
102
RTVSPost2010Prop43
 90
        3
102
RTVSPost2010PropOp43
 70
     1
102
RTVSPost2010Prop44ColorIndex
 90
        5
102
RTVSPost2010Prop44ColorRGB
 90
      255
102
RTVSPost2010PropOp44
 70
     1
102
RTVSPost2010Prop45
280
     0
102
RTVSPost2010PropOp45
 70
     1
102
RTVSPost2010Prop46
 90
       50
102
RTVSPost2010PropOp46
 70
     1
102
RTVSPost2010Prop47
 90
       50
102
RTVSPost2010PropOp47
 70
     1
102
RTVSPost2010Prop48
 90
       50
102
RTVSPost2010PropOp48
 70
     1
102
RTVSPost2010Prop49
280
     0
102
RTVSPost2010PropOp49
 70
     1
102
RTVSPost2010Prop50
 90
       50
102
RTVSPost2010PropOp50
 70
     1
102
RTVSPost2010Prop51ColorIndex
 90
      256
102
RTVSPost2010Prop51ColorRGB
 90
-16777216
102
RTVSPost2010PropOp51
 70
     0
102
RTVSPost2010Prop52
140
1.0
102
RTVSPost2010PropOp52
 70
     0
102
RTVSPost2010Prop53
 90
        2
102
RTVSPost2010PropOp53
 70
     1
102
RTVSPost2010Prop54
  1
strokes_ogs.tif
102
RTVSPost2010PropOp54
 70
     1
102
RTVSPost2010Prop55
280
     0
102
RTVSPost2010PropOp55
 70
     1
102
RTVSPost2010Prop56
140
1.0
102
RTVSPost2010PropOp56
 70
     1
102
RTVSPost2010Prop57
140
1.0
102
RTVSPost2010PropOp57
 70
     1
102
RTVSPropertyOp0
 70
     1
102
RTVSPropertyOp1
 70
     1
102
RTVSPropertyOp2
 70
     1
102
RTVSPropertyOp3
 70
     1
102
RTVSPropertyOp4
 70
     1
102
RTVSPropertyOp5
 70
     1
102
RTVSPropertyOp6
 70
     1
102
RTVSPropertyOp7
 70
     1
102
RTVSPropertyOp8
 70
     1
102
RTVSPropertyOp9
 70
     1
102
RTVSPropertyOp10
 70
     1
102
RTVSPropertyOp11
 70
     1
102
RTVSPropertyOp12
 70
     1
102
RTVSPropertyOp13
 70
     1
102
RTVSPropertyOp14
 70
     1
102
RTVSPropertyOp15
 70
     1
102
RTVSPropertyOp16
 70
     1
102
RTVSPropertyOp17
 70
     1
102
RTVSPropertyOp18
 70
     1
102
RTVSPropertyOp19
 70
     1
102
RTVSPropertyOp20
 70
     1
102
RTVSPropertyOp21
 70
     1
102
RTVSPropertyOp22
 70
     1
102
RTVSPropertyOp23
 70
     1
102
RTVSPropertyOp24
 70
     1
102
RTVSPropertyOp25
 70
     1
102
RTVSPropertyOp26
 70
     1
102
RTVSPropertyOp27
 70
     1
102
RTVSPropertyOp28
 70
     1
102
RTVSPropertyOp29
 70
     1
102
RTVSPropertyOp30
 70
     1
102
RTVSPropertyOp31
 70
     1
102
RTVSPropertyOp32
 70
     1
102
RTVSPropertyOp33
 70
     1
102
RTVSPropertyOp34
 70
     1
102
RTVSPropertyOp35
 70
     1
102
RTVSPropertyOp36
 70
     1
102
RTVSPropertyOp37
 70
     1
102
RTVSPropertyOp38
 70
     1
102
RTVSPropertyOp39
 70
     1
102
RTVSPropertyOp40
 70
     1
102
RTVSPropertyOp41
 70
     1
102
RTVSPropertyOp42
 70
     1
102
RTVSPropertyOp43
 70
     1
102
RTVSPropertyOp44
 70
     1
102
RTVSPropertyOp45
 70
     1
102
RTVSPropertyOp46
 70
     1
102
RTVSPropertyOp47
 70
     1
102
RTVSPropertyOp48
 70
     1
102
RTVSPropertyOp49
 70
     1
102
RTVSPropertyOp50
 70
     1
102
RTVSPropertyOp51
 70
     0
102
RTVSPropertyOp52
 70
     0
102
RTVSPropertyOp53
 70
     1
102
RTVSPropertyOp54
 70
     1
102
RTVSPropertyOp55
 70
     1
102
RTVSPropertyOp56
 70
     1
102
RTVSPropertyOp57
 70
     1
102
RTVSPropertyOp58
 70
     1
102
RTVSPropertyOp59
 70
     1
102
RTVSPropertyOp60
 70
     1
102
RTVSPropertyOp61
 70
     1
102
RTVSPropertyOp62
 70
     1
  0
ENDSEC
  0
EOF
