  0
SECTION
  2
HEADER
  9
$ACADVER
  1
AC1021
  9
$ACADMAINTVER
 70
    50
  9
$DWGCODEPAGE
  3
ANSI_932
  9
$LASTSAVEDBY
  1
mino-t
  9
$INSBASE
 10
0.0
 20
0.0
 30
0.0
  9
$EXTMIN
 10
80.0
 20
-0.000000000000453
 30
0.0
  9
$EXTMAX
 10
1880.0
 20
2808.0
 30
0.0
  9
$LIMMIN
 10
0.0
 20
0.0
  9
$LIMMAX
 10
2100.0
 20
2970.0
  9
$ORTHOMODE
 70
     1
  9
$REGENMODE
 70
     1
  9
$FILLMODE
 70
     1
  9
$QTEXTMODE
 70
     0
  9
$MIRRTEXT
 70
     0
  9
$LTSCALE
 40
2.5
  9
$ATTMODE
 70
     1
  9
$TEXTSIZE
 40
2.5
  9
$TRACEWID
 40
0.05
  9
$TEXTSTYLE
  7
STANDARD
  9
$CLAYER
  8
0
  9
$CELTYPE
  6
ByLayer
  9
$CECOLOR
 62
   256
  9
$CELTSCALE
 40
1.0
  9
$DISPSILH
 70
     0
  9
$DIMSCALE
 40
10.0
  9
$DIMASZ
 40
2.0
  9
$DIMEXO
 40
1.0
  9
$DIMDLI
 40
7.0
  9
$DIMRND
 40
0.0
  9
$DIMDLE
 40
0.0
  9
$DIMEXE
 40
1.8
  9
$DIMTP
 40
0.0
  9
$DIMTM
 40
0.000000001
  9
$DIMTXT
 40
3.0
  9
$DIMCEN
 40
1.0
  9
$DIMTSZ
 40
0.0
  9
$DIMTOL
 70
     0
  9
$DIMLIM
 70
     0
  9
$DIMTIH
 70
     0
  9
$DIMTOH
 70
     0
  9
$DIMSE1
 70
     0
  9
$DIMSE2
 70
     0
  9
$DIMTAD
 70
     3
  9
$DIMZIN
 70
     9
  9
$DIMBLK
  1
OPEN30
  9
$DIMASO
 70
     1
  9
$DIMSHO
 70
     1
  9
$DIMPOST
  1

  9
$DIMAPOST
  1
"
  9
$DIMALT
 70
     0
  9
$DIMALTD
 70
     2
  9
$DIMALTF
 40
0.0393701
  9
$DIMLFAC
 40
1.0
  9
$DIMTOFL
 70
     1
  9
$DIMTVP
 40
0.0
  9
$DIMTIX
 70
     0
  9
$DIMSOXD
 70
     0
  9
$DIMSAH
 70
     0
  9
$DIMBLK1
  1

  9
$DIMBLK2
  1

  9
$DIMSTYLE
  2
AM_JIS
  9
$DIMCLRD
 70
   256
  9
$DIMCLRE
 70
   256
  9
$DIMCLRT
 70
     4
  9
$DIMTFAC
 40
0.71
  9
$DIMGAP
 40
1.5
  9
$DIMJUST
 70
     0
  9
$DIMSD1
 70
     0
  9
$DIMSD2
 70
     0
  9
$DIMTOLJ
 70
     1
  9
$DIMTZIN
 70
     0
  9
$DIMALTZ
 70
     0
  9
$DIMALTTZ
 70
     0
  9
$DIMUPT
 70
     0
  9
$DIMDEC
 70
     4
  9
$DIMTDEC
 70
     4
  9
$DIMALTU
 70
     2
  9
$DIMALTTD
 70
     2
  9
$DIMTXSTY
  7
STANDARD
  9
$DIMAUNIT
 70
     0
  9
$DIMADEC
 70
     0
  9
$DIMALTRND
 40
0.0
  9
$DIMAZIN
 70
     0
  9
$DIMDSEP
 70
    46
  9
$DIMATFIT
 70
     3
  9
$DIMFRAC
 70
     0
  9
$DIMLDRBLK
  1
OPEN30
  9
$DIMLUNIT
 70
     2
  9
$DIMLWD
 70
    -2
  9
$DIMLWE
 70
    -2
  9
$DIMTMOVE
 70
     0
  9
$DIMFXL
 40
1.0
  9
$DIMFXLON
 70
     0
  9
$DIMJOGANG
 40
0.7853981633974483
  9
$DIMTFILL
 70
     0
  9
$DIMTFILLCLR
 70
     0
  9
$DIMARCSYM
 70
     0
  9
$DIMLTYPE
  6

  9
$DIMLTEX1
  6

  9
$DIMLTEX2
  6

  9
$LUNITS
 70
     2
  9
$LUPREC
 70
     2
  9
$SKETCHINC
 40
0.1
  9
$FILLETRAD
 40
25.0
  9
$AUNITS
 70
     0
  9
$AUPREC
 70
     2
  9
$MENU
  1
amecex
  9
$ELEVATION
 40
0.0
  9
$PELEVATION
 40
0.0
  9
$THICKNESS
 40
0.0
  9
$LIMCHECK
 70
     0
  9
$CHAMFERA
 40
25.0
  9
$CHAMFERB
 40
25.0
  9
$CHAMFERC
 40
0.0
  9
$CHAMFERD
 40
0.0
  9
$SKPOLY
 70
     0
  9
$TDCREATE
 40
2452793.377199074
  9
$TDUCREATE
 40
2452793.002199074
  9
$TDUPDATE
 40
2459529.728645833
  9
$TDUUPDATE
 40
2459529.353645833
  9
$TDINDWG
 40
0.4306348495
  9
$TDUSRTIMER
 40
0.4306348495
  9
$USRTIMER
 70
     1
  9
$ANGBASE
 50
0.0
  9
$ANGDIR
 70
     0
  9
$PDMODE
 70
     0
  9
$PDSIZE
 40
0.0
  9
$PLINEWID
 40
0.0
  9
$SPLFRAME
 70
     0
  9
$SPLINETYPE
 70
     6
  9
$SPLINESEGS
 70
     8
  9
$HANDSEED
  5
57C8
  9
$SURFTAB1
 70
     6
  9
$SURFTAB2
 70
     6
  9
$SURFTYPE
 70
     6
  9
$SURFU
 70
     6
  9
$SURFV
 70
     6
  9
$UCSBASE
  2

  9
$UCSNAME
  2

  9
$UCSORG
 10
0.0
 20
0.0
 30
0.0
  9
$UCSXDIR
 10
1.0
 20
0.0
 30
0.0
  9
$UCSYDIR
 10
0.0
 20
1.0
 30
0.0
  9
$UCSORTHOREF
  2

  9
$UCSORTHOVIEW
 70
     0
  9
$UCSORGTOP
 10
0.0
 20
0.0
 30
0.0
  9
$UCSORGBOTTOM
 10
0.0
 20
0.0
 30
0.0
  9
$UCSORGLEFT
 10
0.0
 20
0.0
 30
0.0
  9
$UCSORGRIGHT
 10
0.0
 20
0.0
 30
0.0
  9
$UCSORGFRONT
 10
0.0
 20
0.0
 30
0.0
  9
$UCSORGBACK
 10
0.0
 20
0.0
 30
0.0
  9
$PUCSBASE
  2

  9
$PUCSNAME
  2

  9
$PUCSORG
 10
0.0
 20
0.0
 30
0.0
  9
$PUCSXDIR
 10
1.0
 20
0.0
 30
0.0
  9
$PUCSYDIR
 10
0.0
 20
1.0
 30
0.0
  9
$PUCSORTHOREF
  2

  9
$PUCSORTHOVIEW
 70
     0
  9
$PUCSORGTOP
 10
0.0
 20
0.0
 30
0.0
  9
$PUCSORGBOTTOM
 10
0.0
 20
0.0
 30
0.0
  9
$PUCSORGLEFT
 10
0.0
 20
0.0
 30
0.0
  9
$PUCSORGRIGHT
 10
0.0
 20
0.0
 30
0.0
  9
$PUCSORGFRONT
 10
0.0
 20
0.0
 30
0.0
  9
$PUCSORGBACK
 10
0.0
 20
0.0
 30
0.0
  9
$USERI1
 70
     0
  9
$USERI2
 70
     0
  9
$USERI3
 70
     0
  9
$USERI4
 70
     0
  9
$USERI5
 70
     0
  9
$USERR1
 40
30.0
  9
$USERR2
 40
0.0
  9
$USERR3
 40
0.0
  9
$USERR4
 40
0.0
  9
$USERR5
 40
0.0
  9
$WORLDVIEW
 70
     1
  9
$SHADEDGE
 70
     3
  9
$SHADEDIF
 70
    70
  9
$TILEMODE
 70
     1
  9
$MAXACTVP
 70
    16
  9
$PINSBASE
 10
0.0
 20
0.0
 30
0.0
  9
$PLIMCHECK
 70
     0
  9
$PEXTMIN
 10
1.000000000000000E+20
 20
1.000000000000000E+20
 30
1.000000000000000E+20
  9
$PEXTMAX
 10
-1.000000000000000E+20
 20
-1.000000000000000E+20
 30
-1.000000000000000E+20
  9
$PLIMMIN
 10
0.0
 20
0.0
  9
$PLIMMAX
 10
12.0
 20
9.0
  9
$UNITMODE
 70
     0
  9
$VISRETAIN
 70
     0
  9
$PLINEGEN
 70
     0
  9
$PSLTSCALE
 70
     0
  9
$TREEDEPTH
 70
  3020
  9
$CMLSTYLE
  2
Standard
  9
$CMLJUST
 70
     0
  9
$CMLSCALE
 40
1.0
  9
$PROXYGRAPHICS
 70
     1
  9
$MEASUREMENT
 70
     0
  9
$CELWEIGHT
370
    -1
  9
$ENDCAPS
280
     0
  9
$JOINSTYLE
280
     0
  9
$LWDISPLAY
290
     0
  9
$INSUNITS
 70
     0
  9
$HYPERLINKBASE
  1

  9
$STYLESHEET
  1

  9
$XEDIT
290
     1
  9
$CEPSNTYPE
380
     0
  9
$PSTYLEMODE
290
     1
  9
$FINGERPRINTGUID
  2
{C6A991BF-B86A-FD49-8649-A410018D497B}
  9
$VERSIONGUID
  2
{65A24355-9551-594B-8201-7F578AA93B3C}
  9
$EXTNAMES
290
     1
  9
$PSVPSCALE
 40
0.0
  9
$OLESTARTUP
290
     0
  9
$SORTENTS
280
   127
  9
$INDEXCTL
280
     0
  9
$HIDETEXT
280
     0
  9
$XCLIPFRAME
290
     0
  9
$HALOGAP
280
     0
  9
$OBSCOLOR
 70
   257
  9
$OBSLTYPE
280
     0
  9
$INTERSECTIONDISPLAY
280
     0
  9
$INTERSECTIONCOLOR
 70
   257
  9
$DIMASSOC
280
     1
  9
$PROJECTNAME
  1

  9
$CAMERADISPLAY
290
     0
  9
$LENSLENGTH
 40
50.0
  9
$CAMERAHEIGHT
 40
0.0
  9
$STEPSPERSEC
 40
2.0
  9
$STEPSIZE
 40
6.0
  9
$3DDWFPREC
 40
2.0
  9
$PSOLWIDTH
 40
0.25
  9
$PSOLHEIGHT
 40
4.0
  9
$LOFTANG1
 40
1.570796326794896
  9
$LOFTANG2
 40
1.570796326794896
  9
$LOFTMAG1
 40
0.0
  9
$LOFTMAG2
 40
0.0
  9
$LOFTPARAM
 70
     7
  9
$LOFTNORMALS
280
     1
  9
$LATITUDE
 40
37.795
  9
$LONGITUDE
 40
-122.394
  9
$NORTHDIRECTION
 40
0.0
  9
$TIMEZONE
 70
 -8000
  9
$LIGHTGLYPHDISPLAY
280
     1
  9
$TILEMODELIGHTSYNCH
280
     1
  9
$CMATERIAL
347
55D8
  9
$SOLIDHIST
280
     0
  9
$SHOWHIST
280
     1
  9
$DWFFRAME
280
     2
  9
$DGNFRAME
280
     0
  9
$REALWORLDSCALE
290
     1
  9
$INTERFERECOLOR
 62
     1
  9
$INTERFEREOBJVS
345
55FA
  9
$INTERFEREVPVS
346
55F7
  9
$CSHADOW
280
     0
  9
$SHADOWPLANELOCATION
 40
0.0
  0
ENDSEC
  0
SECTION
  2
CLASSES
  0
CLASS
  1
ACDBDICTIONARYWDFLT
  2
AcDbDictionaryWithDefault
  3
ObjectDBX Classes
 90
        0
 91
        1
280
     0
281
     0
  0
CLASS
  1
MATERIAL
  2
AcDbMaterial
  3
ObjectDBX Classes
 90
     1153
 91
        3
280
     0
281
     0
  0
CLASS
  1
VISUALSTYLE
  2
AcDbVisualStyle
  3
ObjectDBX Classes
 90
     4095
 91
       24
280
     0
281
     0
  0
CLASS
  1
SCALE
  2
AcDbScale
  3
ObjectDBX Classes
 90
     1153
 91
       17
280
     0
281
     0
  0
CLASS
  1
TABLESTYLE
  2
AcDbTableStyle
  3
ObjectDBX Classes
 90
     4095
 91
        1
280
     0
281
     0
  0
CLASS
  1
MLEADERSTYLE
  2
AcDbMLeaderStyle
  3
ACDB_MLEADERSTYLE_CLASS
 90
     4095
 91
        1
280
     0
281
     0
  0
CLASS
  1
ACDBSECTIONVIEWSTYLE
  2
AcDbSectionViewStyle
  3
ObjectDBX Classes
 90
     1025
 91
        2
280
     0
281
     0
  0
CLASS
  1
ACDBDETAILVIEWSTYLE
  2
AcDbDetailViewStyle
  3
ObjectDBX Classes
 90
     1025
 91
        2
280
     0
281
     0
  0
CLASS
  1
AMGSETTINGSOBJ
  2
AmgSettingsObj
  3
"AcadM|Product Description: AutoCAD Mechanical|Company: Autodesk, Inc."
 90
     1024
 91
        2
280
     0
281
     0
  0
CLASS
  1
ACME_DOCUMENT
  2
AcMeDbDoc
  3
AcMeServices
 90
     1024
 91
        1
280
     0
281
     0
  0
CLASS
  1
ACMESCOPE
  2
AcMeScope
  3
AcMeServices
 90
     1024
 91
        1
280
     0
281
     0
  0
CLASS
  1
ACMECOMMANDHISTORY
  2
AcMeCommandHistory
  3
AcMeServices
 90
     1024
 91
        1
280
     0
281
     0
  0
CLASS
  1
ACIMSYSVARMAN
  2
AcImSysVarManager
  3
AcMeServices
 90
     1024
 91
        3
280
     0
281
     0
  0
CLASS
  1
ACIMINTSYSVAR
  2
AcImIntSysVar
  3
AcMeServices
 90
     1024
 91
        3
280
     0
281
     0
  0
CLASS
  1
ACMESTATEMGR
  2
AcMeStateMgr
  3
AcMeServices
 90
     1024
 91
        1
280
     0
281
     0
  0
CLASS
  1
ACDBENTITYCACHE
  2
AcMeEntityCache
  3
AcMeServices
 90
     1024
 91
        1
280
     0
281
     0
  0
CLASS
  1
ACGREFMASTER
  2
AcGrefMaster
  3
AcAttribServices
 90
     1024
 91
        1
280
     0
281
     0
  0
CLASS
  1
ACME_DATABASE
  2
AcMeDbDatabase
  3
AcMeServices
 90
     1024
 91
        1
280
     0
281
     0
  0
CLASS
  1
ACRFINSADJUSTERMGR
  2
AcRfInsAdjusterMgr
  3
AcMeServices
 90
     1024
 91
        1
280
     0
281
     0
  0
CLASS
  1
ACGREFACADMASTER
  2
AcGrefacadMaster
  3
AcGrefServices
 90
     1024
 91
        1
280
     0
281
     0
  0
CLASS
  1
AMIMASTER
  2
AmiMaster
  3
AmiServices
 90
     1024
 91
        1
280
     0
281
     0
  0
CLASS
  1
AMDTMENUSTATEMGR
  2
AmdtMenuStateMgr
  3
McadcomServices
 90
     1024
 91
        1
280
     0
281
     0
  0
CLASS
  1
AMDTMCOMMENUSTATE
  2
AmdtMcomMenuState
  3
McadcomServices
 90
     1024
 91
        1
280
     0
281
     0
  0
CLASS
  1
MAPIAMMOUDLE
  2
MApiAmModule
  3
MApiAmServices
 90
     1024
 91
        1
280
     0
281
     0
  0
CLASS
  1
ACIMSTRSYSVAR
  2
AcImStrSysVar
  3
AcMeServices
 90
     1024
 91
        5
280
     0
281
     0
  0
CLASS
  1
AMDTAMMENUSTATE
  2
AmdtAmMenuState
  3
DesignerAssemblies_arx
 90
     1024
 91
        1
280
     0
281
     0
  0
CLASS
  1
ACAMPROJECT
  2
AcAmProject
  3
DesignerAssemblies
 90
     1024
 91
        1
280
     0
281
     0
  0
CLASS
  1
ACAMGRCOMPDEF
  2
AcAmGrCompDef
  3
DesignerAssemblies
 90
     1024
 91
        1
280
     0
281
     0
  0
CLASS
  1
ACAMCOMPDEF
  2
AcAmCompDef
  3
DesignerAssemblies
 90
     1024
 91
        1
280
     0
281
     0
  0
CLASS
  1
ACAMCOMPDEFMGR
  2
AcAmCompDefMgr
  3
DesignerAssemblies
 90
     1024
 91
        1
280
     0
281
     0
  0
CLASS
  1
AMCONTEXTMGR
  2
AcAmContextMgr
  3
DesignerAssemblies
 90
     1024
 91
        1
280
     0
281
     0
  0
CLASS
  1
ACAMCONTEXTMODELER
  2
AcAmContextModeler
  3
DesignerAssemblies
 90
     1024
 91
        1
280
     0
281
     0
  0
CLASS
  1
ACMDATADICTIONARY
  2
AcmDataDictionary
  3
"AcmSymBB|Product Description: AutoCAD Mechanical|Company: Autodesk, Inc."
 90
     1024
 91
        1
280
     0
281
     0
  0
CLASS
  1
ACAMGRCOMPDEFSET
  2
AcAmGrCompDefSet
  3
DesignerAssemblies
 90
     1024
 91
        1
280
     0
281
     0
  0
CLASS
  1
AMDTBROWSERDBTAB
  2
AmdtBrowserDbTab
  3
McadcomServices
 90
     1024
 91
        1
280
     0
281
     0
  0
CLASS
  1
CBROWSERAPPOBJECT
  2
CBrowserAppObject
  3
McadcomServices
 90
     1024
 91
        2
280
     0
281
     0
  0
CLASS
  1
DM_PLACEHOLDER
  2
AcDmSelsetPlaceholder
  3
McadcomServices
 90
     1024
 91
        1
280
     0
281
     0
  0
CLASS
  1
ACMSTANDARDANSI
  2
AcmStandardANSI
  3
"Amdt_StdImp|Product Description: AutoCAD Mechanical|Company: Autodesk, Inc."
 90
     1024
 91
        1
280
     0
281
     0
  0
CLASS
  1
ACMSURFSTANDARDANSI
  2
AcmSurfTextStdANSI
  3
"Amdt_StdImp|Product Description: AutoCAD Mechanical|Company: Autodesk, Inc."
 90
     1024
 91
        1
280
     0
281
     0
  0
CLASS
  1
ACMFCFSTANDARDANSI
  2
AcmFCFStdANSI
  3
"Amdt_StdImp|Product Description: AutoCAD Mechanical|Company: Autodesk, Inc."
 90
     1024
 91
        1
280
     0
281
     0
  0
CLASS
  1
ACMWELDSTANDARDANSI
  2
AcmWeldingStdANSI
  3
"Amdt_StdImp|Product Description: AutoCAD Mechanical|Company: Autodesk, Inc."
 90
     1024
 91
        1
280
     0
281
     0
  0
CLASS
  1
ACMIDSTANDARDANSI
  2
AcmIdStdANSI
  3
"Amdt_StdImp|Product Description: AutoCAD Mechanical|Company: Autodesk, Inc."
 90
     1024
 91
        1
280
     0
281
     0
  0
CLASS
  1
ACMDATUMSTANDARDANSI
  2
AcmDatumStdANSI
  3
"Amdt_StdImp|Product Description: AutoCAD Mechanical|Company: Autodesk, Inc."
 90
     1024
 91
        1
280
     0
281
     0
  0
CLASS
  1
ACMBOMSTANDARDANSI
  2
AcmBOMStdANSI
  3
"Amdt_StdImp|Product Description: AutoCAD Mechanical|Company: Autodesk, Inc."
 90
     1024
 91
        1
280
     0
281
     0
  0
CLASS
  1
ACMDETAILSTANDARDANSI
  2
AmdtDetailSymStdANSI
  3
"Amdt_StdImp|Product Description: AutoCAD Mechanical|Company: Autodesk, Inc."
 90
     1024
 91
        1
280
     0
281
     0
  0
CLASS
  1
ACMSECTIONSTANDARDANSI
  2
AmdtSectionSymStdANSI
  3
"Amdt_StdImp|Product Description: AutoCAD Mechanical|Company: Autodesk, Inc."
 90
     1024
 91
        1
280
     0
281
     0
  0
CLASS
  1
ACMCENTERLINESTANDARDANSI
  2
AmdtCenterLineStdANSI
  3
"Amdt_StdImp|Product Description: AutoCAD Mechanical|Company: Autodesk, Inc."
 90
     1024
 91
        1
280
     0
281
     0
  0
CLASS
  1
ACMTHREADLINESTANDARDANSI
  2
AmdtThreadLineStdANSI
  3
"Amdt_StdImp|Product Description: AutoCAD Mechanical|Company: Autodesk, Inc."
 90
     1024
 91
        1
280
     0
281
     0
  0
CLASS
  1
ACMNOTESTANDARDANSI
  2
AmdtNoteStdANSI
  3
"Amdt_StdImp|Product Description: AutoCAD Mechanical|Company: Autodesk, Inc."
 90
     1024
 91
        1
280
     0
281
     0
  0
CLASS
  1
ACMTAPERSTANDARDANSI
  2
AcmTaperStdANSI
  3
"Amdt_StdImp|Product Description: AutoCAD Mechanical|Company: Autodesk, Inc."
 90
     1024
 91
        1
280
     0
281
     0
  0
CLASS
  1
ACMANOOTATIONVIEWSTANDARDANSI
  2
AmdtAnViewStdANSI
  3
"Amdt_StdImp|Product Description: AutoCAD Mechanical|Company: Autodesk, Inc."
 90
     1024
 91
        1
280
     0
281
     0
  0
CLASS
  1
ACAMGLAYSTD
  2
AcAmgLayStd
  3
"AmgLay|Product Description: AutoCAD Mechanical|Company: Autodesk, Inc."
 90
     1024
 91
        1
280
     0
281
     0
  0
CLASS
  1
ACAMGTITLESTD
  2
AcAmgTitleStd
  3
"AmgTitle|Product Description: AutoCAD Mechanical|Company: Autodesk, Inc."
 90
     1024
 91
        1
280
     0
281
     0
  0
CLASS
  1
ACAMGDIMSTD
  2
AcAmgDimStd
  3
"AmgDim|Product Description: AutoCAD Mechanical|Company: Autodesk, Inc."
 90
     1024
 91
        1
280
     0
281
     0
  0
CLASS
  1
ACAMGHOLECHARTSTDANSI
  2
AcAmgHoleChartStdANSI
  3
"AmgDim" "Product Description: AutoCAD Mechanical|Company: Autodesk, Inc."
 90
     1024
 91
        1
280
     0
281
     0
  0
CLASS
  1
AMGOBJPROPCFG
  2
AmgObjPropCfg
  3
"AmgLay|Product Description: AutoCAD Mechanical|Company: Autodesk, Inc."
 90
     1024
 91
        1
280
     0
281
     0
  0
CLASS
  1
ACMSECTIONSTANDARDCUSTOM
  2
AmdtSectionSymStdCustom
  3
"Amdt_StdImp|Product Description: AutoCAD Mechanical|Company: Autodesk, Inc."
 90
     1024
 91
        1
280
     0
281
     0
  0
CLASS
  1
ACMDETAILTANDARDCUSTOM
  2
AmdtDetailSymStdCustom
  3
"Amdt_StdImp|Product Description: AutoCAD Mechanical|Company: Autodesk, Inc."
 90
     1024
 91
        1
280
     0
281
     0
  0
CLASS
  1
FIELD
  2
AcDbField
  3
ObjectDBX Classes
 90
     1152
 91
        8
280
     0
281
     0
  0
CLASS
  1
FIELDLIST
  2
AcDbFieldList
  3
ObjectDBX Classes
 90
     1152
 91
        1
280
     0
281
     0
  0
CLASS
  1
AMDTNOTETEMPLATEDB
  2
AmdtNoteTemplateDB
  3
"AcmSymBB" "Product Description: AutoCAD Mechanical|Company: Autodesk, Inc."
 90
     1024
 91
        7
280
     0
281
     0
  0
CLASS
  1
ACAMGFILTERDAT
  2
AcAmgFilterDat
  3
"AcadM|Product Description: AutoCAD Mechanical|Company: Autodesk, Inc."
 90
     1024
 91
        6
280
     0
281
     0
  0
CLASS
  1
SORTENTSTABLE
  2
AcDbSortentsTable
  3
ObjectDBX Classes
 90
        0
 91
        1
280
     0
281
     0
  0
CLASS
  1
DICTIONARYVAR
  2
AcDbDictionaryVar
  3
ObjectDBX Classes
 90
        0
 91
       10
280
     0
281
     0
  0
CLASS
  1
CELLSTYLEMAP
  2
AcDbCellStyleMap
  3
ObjectDBX Classes
 90
     1152
 91
        1
280
     0
281
     0
  0
ENDSEC
  0
SECTION
  2
TABLES
  0
TABLE
  2
VPORT
  5
55CF
330
0
100
AcDbSymbolTable
 70
     1
  0
VPORT
  5
563A
330
55CF
100
AcDbSymbolTableRecord
100
AcDbViewportTableRecord
  2
*ACTIVE
 70
     0
 10
0.0
 20
0.0
 11
1.0
 21
1.0
 12
1355.030708529261
 22
1382.686971997822
 13
0.0
 23
0.0
 14
25.0
 24
25.0
 15
100.0
 25
100.0
 16
0.0
 26
0.0
 36
1.0
 17
0.0
 27
0.0
 37
0.0
 40
4037.759442434184
 41
1.931540342298288
 42
50.0
 43
0.0
 44
0.0
 50
0.0
 51
0.0
 71
     0
 72
   100
 73
     1
 74
     1
 75
     0
 76
     0
 77
     0
 78
     0
281
     0
 65
     0
110
0.0
120
0.0
130
0.0
111
1.0
121
0.0
131
0.0
112
0.0
122
1.0
132
0.0
 79
     0
146
0.0
348
55F6
 60
     3
 61
     5
292
     1
282
     0
141
0.0
142
0.0
 63
   250
421
  3355443
1001
ACAD_NAV_VCDISPLAY
1070
     3
  0
ENDTAB
  0
TABLE
  2
LTYPE
  5
55CC
330
0
100
AcDbSymbolTable
 70
    17
  0
LTYPE
  5
5621
330
55CC
100
AcDbSymbolTableRecord
100
AcDbLinetypeTableRecord
  2
ByBlock
 70
     0
  3

 72
    65
 73
     0
 40
0.0
  0
LTYPE
  5
5622
330
55CC
100
AcDbSymbolTableRecord
100
AcDbLinetypeTableRecord
  2
ByLayer
 70
     0
  3

 72
    65
 73
     0
 40
0.0
  0
LTYPE
  5
5623
330
55CC
100
AcDbSymbolTableRecord
100
AcDbLinetypeTableRecord
  2
CONTINUOUS
 70
     0
  3
実線
 72
    65
 73
     0
 40
0.0
  0
LTYPE
  5
563B
330
55CC
100
AcDbSymbolTableRecord
100
AcDbLinetypeTableRecord
  2
HIDDEN
 70
     0
  3
Hidden __ __ __ __ __ __ __ __ __ __ __ __ __ _
 72
    65
 73
     2
 40
9.524999999999998
 49
6.349999999999997
 74
     0
 49
-3.174999999999998
 74
     0
  0
LTYPE
  5
563C
330
55CC
100
AcDbSymbolTableRecord
100
AcDbLinetypeTableRecord
  2
CENTER
 70
     0
  3
Center ____ _ ____ _ ____ _ ____ _ ____ _ ____
 72
    65
 73
     4
 40
50.8
 49
31.75
 74
     0
 49
-6.349999999999997
 74
     0
 49
6.349999999999997
 74
     0
 49
-6.349999999999997
 74
     0
  0
LTYPE
  5
563D
330
55CC
100
AcDbSymbolTableRecord
100
AcDbLinetypeTableRecord
  2
PHANTOM2
 70
     0
  3
Phantom (.5x) ___ _ _ ___ _ _ ___ _ _ ___ _ _
 72
    65
 73
     6
 40
31.75
 49
15.875
 74
     0
 49
-3.174999999999998
 74
     0
 49
3.174999999999998
 74
     0
 49
-3.174999999999998
 74
     0
 49
3.174999999999998
 74
     0
 49
-3.174999999999998
 74
     0
  0
LTYPE
  5
563E
330
55CC
100
AcDbSymbolTableRecord
100
AcDbLinetypeTableRecord
  2
AMCONSTR
 70
     0
  3
_______________________
 72
    65
 73
     2
 40
9999.0
 49
9999.0
 74
     0
 49
0.0
 74
     0
  0
LTYPE
  5
563F
330
55CC
100
AcDbSymbolTableRecord
100
AcDbLinetypeTableRecord
  2
CENTER2
 70
     0
  3
Center (.5x) ___ _ ___ _ ___ _ ___ _ ___ _ ___
 72
    65
 73
     4
 40
1.125
 49
0.75
 74
     0
 49
-0.125
 74
     0
 49
0.125
 74
     0
 49
-0.125
 74
     0
  0
LTYPE
  5
5640
330
55CC
100
AcDbSymbolTableRecord
100
AcDbLinetypeTableRecord
  2
HIDDEN2
 70
     0
  3
Hidden (.5x) _ _ _ _ _ _ _ _ _ _ _ _ _ _ _ _ _
 72
    65
 73
     2
 40
0.1875
 49
0.125
 74
     0
 49
-0.0625
 74
     0
  0
LTYPE
  5
5641
330
55CC
100
AcDbSymbolTableRecord
100
AcDbLinetypeTableRecord
  2
AMZIGZAG2
 70
     0
  3
/\/-/\/-/\/-/\/-/\/-/\/
 72
    65
 73
     2
 40
0.4401
 49
0.0001
 74
     0
 49
-0.4400000000000003
 74
     0
  0
LTYPE
  5
5642
330
55CC
100
AcDbSymbolTableRecord
100
AcDbLinetypeTableRecord
  2
ACANSTGB
 70
     0
  3
__ . . __ . .
 72
    65
 73
     6
 40
0.35433070866
 49
0.15748031496
 74
     0
 49
-0.03937007874
 74
     0
 49
0.03937007874
 74
     0
 49
-0.03937007874
 74
     0
 49
0.03937007874
 74
     0
 49
-0.03937007874
 74
     0
  0
LTYPE
  5
5643
330
55CC
100
AcDbSymbolTableRecord
100
AcDbLinetypeTableRecord
  2
ACANSTGL
 70
     0
  3
_ _ _ _ _
 72
    65
 73
     2
 40
0.11811023622
 49
0.07874015748
 74
     0
 49
-0.03937007874
 74
     0
  0
ENDTAB
  0
TABLE
  2
LAYER
  5
55C9
330
0
100
AcDbSymbolTable
 70
     4
  0
LAYER
  5
561B
102
{ACAD_XDICTIONARY
360
5782
102
}
330
55C9
100
AcDbSymbolTableRecord
100
AcDbLayerTableRecord
  2
0
 70
     0
 62
     7
  6
CONTINUOUS
370
    -3
390
55D6
347
55E8
  0
LAYER
  5
5644
102
{ACAD_XDICTIONARY
360
5784
102
}
330
55C9
100
AcDbSymbolTableRecord
100
AcDbLayerTableRecord
  2
HOJYO2
 70
     0
 62
     6
  6
HIDDEN
370
    -3
390
55D6
347
55E8
  0
LAYER
  5
5645
330
55C9
100
AcDbSymbolTableRecord
100
AcDbLayerTableRecord
  2
DEFPOINTS
 70
     0
 62
     7
  6
CONTINUOUS
290
     0
370
    -3
390
55D6
347
55E8
  0
ENDTAB
  0
TABLE
  2
STYLE
  5
55CA
330
0
100
AcDbSymbolTable
 70
     6
  0
STYLE
  5
561C
330
55CA
100
AcDbSymbolTableRecord
100
AcDbTextStyleTableRecord
  2
STANDARD
 70
     0
 40
0.0
 41
1.0
 50
0.0
 71
     0
 42
2.5
  3
txt.shx
  4
extfont2.shx
  0
STYLE
  5
5646
330
55CA
100
AcDbSymbolTableRecord
100
AcDbTextStyleTableRecord
  2
MONO-SET
 70
     0
 40
0.0
 41
1.0
 50
0.0
 71
     0
 42
0.2
  3
MONOTXT
  4
BIGFONT
  0
STYLE
  5
5647
330
55CA
100
AcDbSymbolTableRecord
100
AcDbTextStyleTableRecord
  2
ACANSGDT
 70
     0
 40
0.0
 41
1.0
 50
0.0
 71
     0
 42
2.5
  3
amgdt.shx
  4

  0
ENDTAB
  0
TABLE
  2
VIEW
  5
55CD
330
0
100
AcDbSymbolTable
 70
     0
  0
ENDTAB
  0
TABLE
  2
UCS
  5
55CE
330
0
100
AcDbSymbolTable
 70
     0
  0
ENDTAB
  0
TABLE
  2
APPID
  5
55D0
330
0
100
AcDbSymbolTable
 70
    48
  0
APPID
  5
561D
330
55D0
100
AcDbSymbolTableRecord
100
AcDbRegAppTableRecord
  2
ACAD
 70
     0
  0
APPID
  5
5624
330
55D0
100
AcDbSymbolTableRecord
100
AcDbRegAppTableRecord
  2
ACADANNOTATIVE
 70
     0
  0
APPID
  5
5648
330
55D0
100
AcDbSymbolTableRecord
100
AcDbRegAppTableRecord
  2
ACE-LT__COPYRIGHT_TRIALSOFT-JPN
 70
     0
  0
APPID
  5
5649
330
55D0
100
AcDbSymbolTableRecord
100
AcDbRegAppTableRecord
  2
MCAD_NO_VIS
 70
     0
  0
APPID
  5
564A
330
55D0
100
AcDbSymbolTableRecord
100
AcDbRegAppTableRecord
  2
ACAD_TEMP_GRAPHIC
 70
     0
  0
APPID
  5
564B
330
55D0
100
AcDbSymbolTableRecord
100
AcDbRegAppTableRecord
  2
ACAD_PSEXT
 70
     0
  0
APPID
  5
564C
330
55D0
100
AcDbSymbolTableRecord
100
AcDbRegAppTableRecord
  2
ACADANNOPO
 70
     0
  0
APPID
  5
564D
330
55D0
100
AcDbSymbolTableRecord
100
AcDbRegAppTableRecord
  2
ACAD_DSTYLE_DIMJAG
 70
     0
  0
APPID
  5
564E
330
55D0
100
AcDbSymbolTableRecord
100
AcDbRegAppTableRecord
  2
ACAD_DSTYLE_DIMTALN
 70
     0
  0
APPID
  5
564F
330
55D0
100
AcDbSymbolTableRecord
100
AcDbRegAppTableRecord
  2
ACAD_MLEADERVER
 70
     0
  0
APPID
  5
5650
330
55D0
100
AcDbSymbolTableRecord
100
AcDbRegAppTableRecord
  2
ACAD_NAV_VCDISPLAY
 70
     0
  0
APPID
  5
5651
330
55D0
100
AcDbSymbolTableRecord
100
AcDbRegAppTableRecord
  2
ACATTRIBSERVICES
 70
     0
  0
APPID
  5
5652
330
55D0
100
AcDbSymbolTableRecord
100
AcDbRegAppTableRecord
  2
DESIGNERASSEMBLIES
 70
     0
  0
APPID
  5
5653
330
55D0
100
AcDbSymbolTableRecord
100
AcDbRegAppTableRecord
  2
ACAD_DSTYLE_DIMBREAK
 70
     0
  0
APPID
  5
5654
330
55D0
100
AcDbSymbolTableRecord
100
AcDbRegAppTableRecord
  2
ACAECLAYERSTANDARD
 70
     0
  0
APPID
  5
5655
330
55D0
100
AcDbSymbolTableRecord
100
AcDbRegAppTableRecord
  2
AD_DRAW
 70
     0
  0
APPID
  5
5656
330
55D0
100
AcDbSymbolTableRecord
100
AcDbRegAppTableRecord
  2
ACADM_DIM_EDIT
 70
     0
  0
APPID
  5
5657
330
55D0
100
AcDbSymbolTableRecord
100
AcDbRegAppTableRecord
  2
AMDT_DM_ADJ
 70
     0
  0
APPID
  5
5658
330
55D0
100
AcDbSymbolTableRecord
100
AcDbRegAppTableRecord
  2
ACAD_DSTYLE_DIMARC_LENGTH_
 70
     0
  0
APPID
  5
5659
330
55D0
100
AcDbSymbolTableRecord
100
AcDbRegAppTableRecord
  2
ACAD_DSTYLE_DIMJOGGED_JOGA
 70
     0
  0
APPID
  5
565A
330
55D0
100
AcDbSymbolTableRecord
100
AcDbRegAppTableRecord
  2
ACAD_EXEMPT_FROM_CAD_STANDARDS
 70
     0
  0
APPID
  5
565B
330
55D0
100
AcDbSymbolTableRecord
100
AcDbRegAppTableRecord
  2
GENIUS_GENREC_14
 70
     0
  0
APPID
  5
565C
330
55D0
100
AcDbSymbolTableRecord
100
AcDbRegAppTableRecord
  2
GENIUS_GENODEF_13
 70
     0
  0
APPID
  5
565D
330
55D0
100
AcDbSymbolTableRecord
100
AcDbRegAppTableRecord
  2
GENIUS_GENOBJ-N-REC_13
 70
     0
  0
APPID
  5
565E
330
55D0
100
AcDbSymbolTableRecord
100
AcDbRegAppTableRecord
  2
GEVID1362489746
 70
     0
  0
APPID
  5
565F
330
55D0
100
AcDbSymbolTableRecord
100
AcDbRegAppTableRecord
  2
GENIUS_GENBH_13
 70
     0
  0
APPID
  5
5660
330
55D0
100
AcDbSymbolTableRecord
100
AcDbRegAppTableRecord
  2
GENIUS_GENOENT_13
 70
     0
  0
APPID
  5
5661
330
55D0
100
AcDbSymbolTableRecord
100
AcDbRegAppTableRecord
  2
GENIUS_GENOLIS_13
 70
     0
  0
APPID
  5
5662
330
55D0
100
AcDbSymbolTableRecord
100
AcDbRegAppTableRecord
  2
GENIUS_GENOBJ-NBEHI-BHF_13
 70
     0
  0
APPID
  5
5663
330
55D0
100
AcDbSymbolTableRecord
100
AcDbRegAppTableRecord
  2
GENIUS_GENOREF_13
 70
     0
  0
APPID
  5
5664
330
55D0
100
AcDbSymbolTableRecord
100
AcDbRegAppTableRecord
  2
GENIUS_GENOBJ-NBEHI-BHB_13
 70
     0
  0
APPID
  5
5665
330
55D0
100
AcDbSymbolTableRecord
100
AcDbRegAppTableRecord
  2
GEVID1362489747
 70
     0
  0
APPID
  5
5666
330
55D0
100
AcDbSymbolTableRecord
100
AcDbRegAppTableRecord
  2
ACM_PP_DIM_CONSTRAINT
 70
     0
  0
APPID
  5
5667
330
55D0
100
AcDbSymbolTableRecord
100
AcDbRegAppTableRecord
  2
ACM_PP_ASSOCVAR
 70
     0
  0
APPID
  5
5668
330
55D0
100
AcDbSymbolTableRecord
100
AcDbRegAppTableRecord
  2
ACM_PP_DIM_ACTION_MACRO
 70
     0
  0
APPID
  5
5669
330
55D0
100
AcDbSymbolTableRecord
100
AcDbRegAppTableRecord
  2
ACM_PP_DIM_CONSTRAINT_DRAG_GRIP
 70
     0
  0
APPID
  5
566A
330
55D0
100
AcDbSymbolTableRecord
100
AcDbRegAppTableRecord
  2
GEVID1362489748
 70
     0
  0
APPID
  5
566B
330
55D0
100
AcDbSymbolTableRecord
100
AcDbRegAppTableRecord
  2
GENIUS_GENDTOL_13
 70
     0
  0
APPID
  5
566C
330
55D0
100
AcDbSymbolTableRecord
100
AcDbRegAppTableRecord
  2
ACAD_DSTYLE_DIMINSPECT
 70
     0
  0
APPID
  5
566D
330
55D0
100
AcDbSymbolTableRecord
100
AcDbRegAppTableRecord
  2
ACADANNOMONITORALERTICONDI
 70
     0
  0
APPID
  5
566E
330
55D0
100
AcDbSymbolTableRecord
100
AcDbRegAppTableRecord
  2
ACAUTHENVIRON
 70
     0
  0
APPID
  5
566F
330
55D0
100
AcDbSymbolTableRecord
100
AcDbRegAppTableRecord
  2
ACDBDYNAMICBLOCKTRUENAME
 70
     0
  0
APPID
  5
5670
330
55D0
100
AcDbSymbolTableRecord
100
AcDbRegAppTableRecord
  2
ACDBDYNAMICBLOCKGUID
 70
     0
  0
APPID
  5
5671
330
55D0
100
AcDbSymbolTableRecord
100
AcDbRegAppTableRecord
  2
GENIUS_GENTRA_14
 70
     0
  0
APPID
  5
5672
330
55D0
100
AcDbSymbolTableRecord
100
AcDbRegAppTableRecord
  2
GENIUS_GENOBJ-N-LIB_13
 70
     0
  0
APPID
  5
5673
330
55D0
100
AcDbSymbolTableRecord
100
AcDbRegAppTableRecord
  2
GENIUS_GENOBJ-N-RSBK_13
 70
     0
  0
APPID
  5
5674
330
55D0
100
AcDbSymbolTableRecord
100
AcDbRegAppTableRecord
  2
GENIUS_GENSCALE_13
 70
     0
  0
APPID
  5
5721
330
55D0
100
AcDbSymbolTableRecord
100
AcDbRegAppTableRecord
  2
AcadAnnoMonitorAlertIconDisabled
 70
     0
  0
ENDTAB
  0
TABLE
  2
DIMSTYLE
  5
55D1
330
0
100
AcDbSymbolTable
 70
    10
100
AcDbDimStyleTable
 71
     1
340
5675
  0
DIMSTYLE
105
561E
330
55D1
100
AcDbSymbolTableRecord
100
AcDbDimStyleTableRecord
  2
STANDARD
 70
     0
271
     2
272
     2
279
     2
284
     9
285
     9
286
     9
340
561C
  0
DIMSTYLE
105
5675
330
55D1
100
AcDbSymbolTableRecord
100
AcDbDimStyleTableRecord
  2
AM_JIS
 70
     0
  4
"
 40
10.0
 41
2.0
 42
1.0
 43
7.0
 44
1.8
 48
0.000000001
 73
     0
 74
     0
 77
     3
 78
     9
140
3.0
141
1.0
143
0.0393701
146
0.71
147
1.5
172
     1
176
   256
177
   256
178
     4
271
     2
272
     2
279
     2
284
     9
285
     9
286
     9
340
561C
  0
DIMSTYLE
105
5676
102
{ACAD_REACTORS
330
56B8
102
}
330
55D1
100
AcDbSymbolTableRecord
100
AcDbDimStyleTableRecord
  2
AM_ANSI
 70
     0
  4
mm
 41
0.12
 42
0.05
 43
0.5
 44
0.1
 47
0.1
 48
0.1
 78
     7
140
0.12
141
0.0
146
0.71
147
0.06
176
   256
177
   256
178
     2
271
     2
272
     2
279
     2
284
     9
285
     9
286
     9
340
561C
  0
DIMSTYLE
105
5677
330
55D1
100
AcDbSymbolTableRecord
100
AcDbDimStyleTableRecord
  2
AM_ANSI$3
 70
     0
  4
mm
 41
0.12
 42
0.05
 43
0.5
 44
0.1
 47
0.1
 48
0.1
 78
     7
140
0.12
141
0.0
146
0.71
147
0.06
176
   256
177
   256
178
     2
271
     2
272
     2
279
     2
284
     9
285
     9
286
     9
340
561C
  0
DIMSTYLE
105
5678
330
55D1
100
AcDbSymbolTableRecord
100
AcDbDimStyleTableRecord
  2
AM_ANSI$4
 70
     0
  4
mm
 41
0.12
 42
0.05
 43
0.5
 44
0.1
 47
0.1
 48
0.1
 78
     7
140
0.12
141
0.0
146
0.71
147
0.06
176
   256
177
   256
178
     2
271
     2
272
     2
279
     2
284
     9
285
     9
286
     9
340
561C
  0
DIMSTYLE
105
5679
330
55D1
100
AcDbSymbolTableRecord
100
AcDbDimStyleTableRecord
  2
AM_ANSI$7
 70
     0
  4
mm
 41
0.12
 42
0.05
 43
0.5
 44
0.1
 47
0.1
 48
0.1
 78
     7
140
0.12
141
0.0
146
0.71
147
0.06
176
   256
177
   256
178
     2
271
     2
272
     2
279
     2
284
     9
285
     9
286
     9
340
561C
  0
DIMSTYLE
105
567A
330
55D1
100
AcDbSymbolTableRecord
100
AcDbDimStyleTableRecord
  2
AM_ANSI$SF
 70
     0
  4
mm
 41
0.12
 42
0.05
 43
0.5
 44
0.1
 47
0.1
 48
0.1
 75
     1
 76
     1
 78
     7
140
0.12
141
0.0
146
0.71
147
0.06
176
   256
177
   256
178
     2
271
     2
272
     2
279
     2
284
     9
285
     9
286
     9
340
561C
  0
DIMSTYLE
105
567B
330
55D1
100
AcDbSymbolTableRecord
100
AcDbDimStyleTableRecord
  2
AM_ANSI$SH
 70
     0
  4
mm
 41
0.12
 42
0.05
 43
0.5
 44
0.1
 47
0.1
 48
0.1
 75
     1
 76
     1
 78
     7
140
0.12
141
0.0
146
0.71
147
0.06
173
     1
176
   256
177
   256
178
     2
271
     2
272
     2
279
     2
284
     9
285
     9
286
     9
340
561C
  0
ENDTAB
  0
TABLE
  2
BLOCK_RECORD
  5
55C8
330
0
100
AcDbSymbolTable
 70
     7
  0
BLOCK_RECORD
  5
5636
102
{ACAD_XDICTIONARY
360
5766
102
}
330
55C8
100
AcDbSymbolTableRecord
100
AcDbBlockTableRecord
  2
*Model_Space
340
5639
 70
     0
280
     1
281
     0
  0
BLOCK_RECORD
  5
5632
330
55C8
100
AcDbSymbolTableRecord
100
AcDbBlockTableRecord
  2
*Paper_Space
340
5635
 70
     0
280
     1
281
     0
  0
BLOCK_RECORD
  5
5685
330
55C8
100
AcDbSymbolTableRecord
100
AcDbBlockTableRecord
  2
_OPEN30
340
0
 70
     0
280
     1
281
     0
  0
BLOCK_RECORD
  5
5687
330
55C8
100
AcDbSymbolTableRecord
100
AcDbBlockTableRecord
  2
_ACMFILLEDHALF
340
0
 70
     0
280
     1
281
     0
  0
ENDTAB
  0
ENDSEC
  0
SECTION
  2
BLOCKS
  0
BLOCK
  5
5637
330
5636
100
AcDbEntity
  8
0
100
AcDbBlockBegin
  2
*Model_Space
 70
     0
 10
0.0
 20
0.0
 30
0.0
  3
*Model_Space
  1

  0
ENDBLK
  5
5638
330
5636
100
AcDbEntity
  8
0
100
AcDbBlockEnd
  0
BLOCK
  5
5633
330
5632
100
AcDbEntity
 67
     1
  8
0
100
AcDbBlockBegin
  2
*Paper_Space
 70
     0
 10
0.0
 20
0.0
 30
0.0
  3
*Paper_Space
  1

  0
ENDBLK
  5
5634
330
5632
100
AcDbEntity
 67
     1
  8
0
100
AcDbBlockEnd
  0
BLOCK
  5
5686
330
5685
100
AcDbEntity
  8
0
100
AcDbBlockBegin
  2
_OPEN30
 70
     0
 10
0.0
 20
0.0
 30
0.0
  3
_OPEN30
  1

  0
LINE
  5
38F1
330
5685
100
AcDbEntity
  8
0
  6
ByBlock
 62
     0
100
AcDbLine
 10
-1.0
 20
0.26794919
 30
0.0
 11
0.0
 21
0.0
 31
0.0
  0
LINE
  5
38F2
330
5685
100
AcDbEntity
  8
0
  6
ByBlock
 62
     0
100
AcDbLine
 10
0.0
 20
0.0
 30
0.0
 11
-1.0
 21
-0.26794919
 31
0.0
  0
LINE
  5
38F3
330
5685
100
AcDbEntity
  8
0
  6
ByBlock
 62
     0
100
AcDbLine
 10
0.0
 20
0.0
 30
0.0
 11
-1.0
 21
0.0
 31
0.0
  0
ENDBLK
  5
38F4
330
5685
100
AcDbEntity
  8
0
100
AcDbBlockEnd
  0
BLOCK
  5
5688
330
5687
100
AcDbEntity
  8
0
100
AcDbBlockBegin
  2
_ACMFILLEDHALF
 70
     0
 10
0.0
 20
0.0
 30
0.0
  3
_ACMFILLEDHALF
  1

  0
TRACE
  5
4FF2
330
5687
100
AcDbEntity
  8
HOJYO2
 62
     0
100
AcDbTrace
 10
-0.8
 20
0.0
 30
0.0
 11
-1.0
 21
0.166666666
 31
0.0
 12
0.0
 22
0.0
 32
0.0
 13
0.0
 23
0.0
 33
0.0
  0
LINE
  5
4FF3
330
5687
100
AcDbEntity
  8
HOJYO2
 62
     0
100
AcDbLine
 10
-1.0
 20
0.0
 30
0.0
 11
-0.8
 21
0.0
 31
0.0
  0
ENDBLK
  5
4FF1
330
5687
100
AcDbEntity
  8
0
100
AcDbBlockEnd
  0
ENDSEC
  0
SECTION
  2
ENTITIES
  0
TEXT
  5
86E
330
5636
100
AcDbEntity
  8
0
100
AcDbText
 10
926.9153104867148
 20
115.0
 30
0.0
 40
35.0
  1
エアコン防振台
  7
MONO-SET
100
AcDbText
  0
TEXT
  5
86F
330
5636
100
AcDbEntity
  8
0
100
AcDbText
 10
950.0
 20
20.0
 30
0.0
 40
35.0
  1
ABM-226ES2A (耐重塩害仕様)
  7
MONO-SET
100
AcDbText
  0
TEXT
  5
87D
330
5636
100
AcDbEntity
  8
0
100
AcDbText
 10
90.00000000000019
 20
1290.239710112768
 30
0.0
 40
30.0
  1
＜基礎ボルト位置＞
100
AcDbText
  0
TEXT
  5
89A
330
5636
100
AcDbEntity
  8
0
100
AcDbText
 10
728.0583139317882
 20
669.7132230971925
 30
0.0
 40
25.0
  1
＜基礎ボルト穴＞
100
AcDbText
  0
LINE
  5
89B
330
5636
100
AcDbEntity
  8
0
100
AcDbLine
 10
553.3580020235087
 20
665.0846044177471
 30
0.0
 11
1022.535272722321
 21
665.0846044177471
 31
0.0
  0
TEXT
  5
8FF
330
5636
100
AcDbEntity
  8
0
100
AcDbText
 10
90.00000000000019
 20
2680.0
 30
0.0
 40
30.0
  1
＜外形寸法図＞
100
AcDbText
  0
LINE
  5
901
330
5636
100
AcDbEntity
  8
0
100
AcDbLine
 10
581.693239487297
 20
2473.455973998448
 30
0.0
 11
930.5245190959366
 21
2473.455973998448
 31
0.0
  0
TEXT
  5
902
330
5636
100
AcDbEntity
  8
0
100
AcDbText
 10
595.5084324796959
 20
2482.834324638054
 30
0.0
 40
25.0
  1
4-φ16＜機器取付穴＞
100
AcDbText
  0
LINE
  5
11A3
330
5636
100
AcDbEntity
  8
0
100
AcDbLine
 10
704.9999672747493
 20
1655.0
 30
0.0
 11
944.9999672747491
 21
1655.0
 31
0.0
  0
LINE
  5
11A4
330
5636
100
AcDbEntity
  8
0
100
AcDbLine
 10
704.9999672747493
 20
1675.0
 30
0.0
 11
944.9999672747491
 21
1675.0
 31
0.0
  0
LINE
  5
11A5
330
5636
100
AcDbEntity
  8
0
100
AcDbLine
 10
704.9999672747493
 20
1675.0
 30
0.0
 11
704.9999672747493
 21
1655.0
 31
0.0
  0
LINE
  5
11A6
330
5636
100
AcDbEntity
  8
0
100
AcDbLine
 10
944.9999672747491
 20
1675.0
 30
0.0
 11
944.9999672747491
 21
1655.0
 31
0.0
  0
LINE
  5
1371
330
5636
100
AcDbEntity
  8
0
100
AcDbLine
 10
1232.99997629755
 20
2313.455949101945
 30
0.0
 11
417.0000000000004
 21
2313.456037743568
 31
0.0
  0
LINE
  5
1372
330
5636
100
AcDbEntity
  8
0
100
AcDbLine
 10
1232.99997629755
 20
2373.455949101934
 30
0.0
 11
417.0000000000007
 21
2373.456037743559
 31
0.0
  0
LINE
  5
1373
330
5636
100
AcDbEntity
  8
0
100
AcDbLine
 10
1232.99997629755
 20
1983.456037654332
 30
0.0
 11
417.0000000000004
 21
1983.455949012709
 31
0.0
  0
LINE
  5
1374
330
5636
100
AcDbEntity
  8
0
100
AcDbLine
 10
1232.99997629755
 20
1923.456037654344
 30
0.0
 11
417.0000000000007
 21
1923.45594901272
 31
0.0
  0
LINE
  5
1375
330
5636
100
AcDbEntity
  8
0
100
AcDbLine
 10
349.9999554235244
 20
1990.456031738608
 30
0.0
 11
349.9999554235244
 21
2306.455955017669
 31
0.0
  0
LINE
  5
1376
330
5636
100
AcDbEntity
  8
0
100
AcDbLine
 10
379.9999554235244
 20
1990.456031738608
 30
0.0
 11
379.9999554235244
 21
2306.455955017669
 31
0.0
  0
LINE
  5
1377
330
5636
100
AcDbEntity
  8
0
100
AcDbLine
 10
412.5
 20
1985.956120380231
 30
0.0
 11
412.5000000000007
 21
1923.456126295965
 31
0.0
  0
LINE
  5
1378
330
5636
100
AcDbEntity
  8
0
100
AcDbLine
 10
417.0
 20
1990.45612038023
 30
0.0
 11
417.0000000000007
 21
1923.456126295965
 31
0.0
  0
ARC
  5
1379
330
5636
100
AcDbEntity
  8
0
100
AcDbCircle
 10
374.0000000000001
 20
1947.456164039514
 30
0.0
 40
24.0
100
AcDbArc
 50
180.0
 51
269.9999502863144
  0
CIRCLE
  5
137A
330
5636
100
AcDbEntity
  8
0
100
AcDbCircle
 10
382.0000000000001
 20
1955.456122475621
 30
0.0
 40
21.0
  0
LINE
  5
137B
330
5636
100
AcDbEntity
  8
0
100
AcDbLine
 10
382.0000000000001
 20
1926.430248456998
 30
0.0
 11
382.0000000000001
 21
1984.481996494244
 31
0.0
  0
LINE
  5
137C
330
5636
100
AcDbEntity
  8
0
100
AcDbLine
 10
373.4999791759794
 20
1923.456164039523
 30
0.0
 11
417.0000000000007
 21
1923.456126295965
 31
0.0
  0
LINE
  5
137D
330
5636
100
AcDbEntity
  8
0
100
AcDbLine
 10
350.0000000000003
 20
1990.45612038023
 30
0.0
 11
417.0
 21
1990.45612038023
 31
0.0
  0
LINE
  5
137E
330
5636
100
AcDbEntity
  8
0
100
AcDbLine
 10
350.0000000000003
 20
1985.956120380231
 30
0.0
 11
417.0
 21
1985.956120380231
 31
0.0
  0
LINE
  5
137F
330
5636
100
AcDbEntity
  8
0
100
AcDbLine
 10
350.0000000000003
 20
1946.956164039514
 30
0.0
 11
350.0000000000003
 21
1990.45612038023
 31
0.0
  0
LINE
  5
1380
330
5636
100
AcDbEntity
  8
0
100
AcDbLine
 10
411.0258740186224
 20
1955.456122475621
 30
0.0
 11
352.9741259813785
 21
1955.456122475621
 31
0.0
  0
LINE
  5
1383
330
5636
100
AcDbEntity
  8
0
100
AcDbLine
 10
524.9999554235244
 20
1965.391738292822
 30
0.0
 11
524.9999554235244
 21
1921.520182429776
 31
0.0
  0
LINE
  5
1384
330
5636
100
AcDbEntity
  8
0
100
AcDbLine
 10
503.0641774920006
 20
1943.455960361299
 30
0.0
 11
546.935733355048
 21
1943.455960361299
 31
0.0
  0
LINE
  5
1387
330
5636
100
AcDbEntity
  8
0
100
AcDbLine
 10
417.0
 20
2306.456043659292
 30
0.0
 11
417.0000000000007
 21
2373.456037743559
 31
0.0
  0
LINE
  5
1388
330
5636
100
AcDbEntity
  8
0
100
AcDbLine
 10
412.5
 20
2310.956043659293
 30
0.0
 11
412.5000000000007
 21
2373.456037743559
 31
0.0
  0
LINE
  5
1389
330
5636
100
AcDbEntity
  8
0
100
AcDbLine
 10
382.0000000000001
 20
2370.481915582525
 30
0.0
 11
382.0000000000001
 21
2312.430167545278
 31
0.0
  0
ARC
  5
138A
330
5636
100
AcDbEntity
  8
0
100
AcDbCircle
 10
374.0000000000001
 20
2349.45600000001
 30
0.0
 40
24.0
100
AcDbArc
 50
90.00004971368545
 51
180.0
  0
LINE
  5
138B
330
5636
100
AcDbEntity
  8
0
100
AcDbLine
 10
350.0000000000003
 20
2310.956043659293
 30
0.0
 11
417.0
 21
2310.956043659293
 31
0.0
  0
LINE
  5
138C
330
5636
100
AcDbEntity
  8
0
100
AcDbLine
 10
350.0000000000003
 20
2306.456043659292
 30
0.0
 11
417.0
 21
2306.456043659292
 31
0.0
  0
LINE
  5
138D
330
5636
100
AcDbEntity
  8
0
100
AcDbLine
 10
350.0000000000003
 20
2349.95600000001
 30
0.0
 11
350.0000000000003
 21
2306.456043659292
 31
0.0
  0
CIRCLE
  5
138E
330
5636
100
AcDbEntity
  8
0
100
AcDbCircle
 10
382.0000000000001
 20
2341.456041563902
 30
0.0
 40
21.0
  0
LINE
  5
1390
330
5636
100
AcDbEntity
  8
0
100
AcDbLine
 10
411.0258740186224
 20
2341.456041563902
 30
0.0
 11
352.9741259813785
 21
2341.456041563902
 31
0.0
  0
LINE
  5
1391
330
5636
100
AcDbEntity
  8
0
100
AcDbLine
 10
373.4999791759794
 20
2373.456
 30
0.0
 11
417.0000000000007
 21
2373.456037743559
 31
0.0
  0
LINE
  5
1393
330
5636
100
AcDbEntity
  8
0
100
AcDbLine
 10
524.9999554235244
 20
2331.520248463455
 30
0.0
 11
524.9999554235244
 21
2375.391804326503
 31
0.0
  0
LINE
  5
1395
330
5636
100
AcDbEntity
  8
0
100
AcDbLine
 10
503.0641774920006
 20
2353.456026394979
 30
0.0
 11
546.935733355048
 21
2353.456026394979
 31
0.0
  0
LINE
  5
1398
330
5636
100
AcDbEntity
  8
0
100
AcDbLine
 10
1269.999955423524
 20
1990.456031738608
 30
0.0
 11
1269.999955423524
 21
2306.455955017669
 31
0.0
  0
LINE
  5
1399
330
5636
100
AcDbEntity
  8
0
100
AcDbLine
 10
1299.999955423524
 20
1990.456031738608
 30
0.0
 11
1299.999955423524
 21
2306.455955017669
 31
0.0
  0
LINE
  5
139E
330
5636
100
AcDbEntity
  8
0
100
AcDbLine
 10
1124.999955912357
 20
1960.891800475491
 30
0.0
 11
1124.999955912357
 21
1917.020244612444
 31
0.0
  0
LINE
  5
139F
330
5636
100
AcDbEntity
  8
0
100
AcDbLine
 10
1103.064177492
 20
1943.45602630576
 30
0.0
 11
1146.935733355048
 21
1943.45602630576
 31
0.0
  0
LINE
  5
13A2
330
5636
100
AcDbEntity
  8
0
100
AcDbLine
 10
1237.49997629755
 20
1985.956031738608
 30
0.0
 11
1237.49997629755
 21
1923.456037654344
 31
0.0
  0
LINE
  5
13A3
330
5636
100
AcDbEntity
  8
0
100
AcDbLine
 10
1232.99997629755
 20
1990.456031738608
 30
0.0
 11
1232.99997629755
 21
1923.456037654344
 31
0.0
  0
LINE
  5
13A4
330
5636
100
AcDbEntity
  8
0
100
AcDbLine
 10
1267.99997629755
 20
1926.430159815376
 30
0.0
 11
1267.99997629755
 21
1984.481907852621
 31
0.0
  0
CIRCLE
  5
13A5
330
5636
100
AcDbEntity
  8
0
100
AcDbCircle
 10
1267.99997629755
 20
1955.456033833996
 30
0.0
 40
21.0
  0
ARC
  5
13A6
330
5636
100
AcDbEntity
  8
0
100
AcDbCircle
 10
1275.99997629755
 20
1947.456075397891
 30
0.0
 40
24.0
100
AcDbArc
 50
270.0000497136854
 51
0.0
  0
LINE
  5
13A7
330
5636
100
AcDbEntity
  8
0
100
AcDbLine
 10
1276.49999712157
 20
1923.4560753979
 30
0.0
 11
1232.99997629755
 21
1923.456037654344
 31
0.0
  0
LINE
  5
13A8
330
5636
100
AcDbEntity
  8
0
100
AcDbLine
 10
1238.974102278928
 20
1955.456033833996
 30
0.0
 11
1297.025850316172
 21
1955.456033833996
 31
0.0
  0
LINE
  5
13A9
330
5636
100
AcDbEntity
  8
0
100
AcDbLine
 10
1299.99997629755
 20
1990.456031738608
 30
0.0
 11
1232.99997629755
 21
1990.456031738608
 31
0.0
  0
LINE
  5
13AA
330
5636
100
AcDbEntity
  8
0
100
AcDbLine
 10
1299.99997629755
 20
1985.956031738608
 30
0.0
 11
1232.99997629755
 21
1985.956031738608
 31
0.0
  0
LINE
  5
13AD
330
5636
100
AcDbEntity
  8
0
100
AcDbLine
 10
1299.99997629755
 20
1946.956075397888
 30
0.0
 11
1299.99997629755
 21
1990.456031738608
 31
0.0
  0
LINE
  5
13B2
330
5636
100
AcDbEntity
  8
0
100
AcDbLine
 10
1124.999955423524
 20
2331.520182518993
 30
0.0
 11
1124.999955423524
 21
2375.391738382041
 31
0.0
  0
LINE
  5
13B3
330
5636
100
AcDbEntity
  8
0
100
AcDbLine
 10
1103.064177492
 20
2353.455960450518
 30
0.0
 11
1146.935733355048
 21
2353.455960450518
 31
0.0
  0
LINE
  5
13B5
330
5636
100
AcDbEntity
  8
0
100
AcDbLine
 10
1237.49997629755
 20
2310.95595501767
 30
0.0
 11
1237.49997629755
 21
2373.455949101934
 31
0.0
  0
LINE
  5
13B6
330
5636
100
AcDbEntity
  8
0
100
AcDbLine
 10
1232.99997629755
 20
2306.455955017669
 30
0.0
 11
1232.99997629755
 21
2373.455949101934
 31
0.0
  0
LINE
  5
13B7
330
5636
100
AcDbEntity
  8
0
100
AcDbLine
 10
1267.99997629755
 20
2370.481826940901
 30
0.0
 11
1267.99997629755
 21
2312.430078903656
 31
0.0
  0
ARC
  5
13B8
330
5636
100
AcDbEntity
  8
0
100
AcDbCircle
 10
1275.99997629755
 20
2349.455911358386
 30
0.0
 40
24.0
100
AcDbArc
 50
0.0
 51
89.99995028631451
  0
LINE
  5
13B9
330
5636
100
AcDbEntity
  8
0
100
AcDbLine
 10
1299.99997629755
 20
2306.455955017669
 30
0.0
 11
1232.99997629755
 21
2306.455955017669
 31
0.0
  0
LINE
  5
13BA
330
5636
100
AcDbEntity
  8
0
100
AcDbLine
 10
1299.99997629755
 20
2310.95595501767
 30
0.0
 11
1232.99997629755
 21
2310.95595501767
 31
0.0
  0
LINE
  5
13BB
330
5636
100
AcDbEntity
  8
0
100
AcDbLine
 10
1238.974102278928
 20
2341.455952922279
 30
0.0
 11
1297.025850316172
 21
2341.455952922279
 31
0.0
  0
CIRCLE
  5
13BC
330
5636
100
AcDbEntity
  8
0
100
AcDbCircle
 10
1267.99997629755
 20
2341.455952922279
 30
0.0
 40
21.0
  0
LINE
  5
13BE
330
5636
100
AcDbEntity
  8
0
100
AcDbLine
 10
1299.99997629755
 20
2349.955911358386
 30
0.0
 11
1299.99997629755
 21
2306.455955017669
 31
0.0
  0
LINE
  5
13BF
330
5636
100
AcDbEntity
  8
0
100
AcDbLine
 10
1276.49999712157
 20
2373.455911358379
 30
0.0
 11
1232.99997629755
 21
2373.455949101934
 31
0.0
  0
LINE
  5
1552
330
5636
100
AcDbEntity
  8
0
100
AcDbLine
 10
1124.999934549498
 20
1584.121341004633
 30
0.0
 11
1124.999934549498
 21
1526.694335075292
 31
0.0
  0
LINE
  5
1553
330
5636
100
AcDbEntity
  8
0
100
AcDbLine
 10
524.9999345494982
 20
1584.12127506017
 30
0.0
 11
524.9999345494982
 21
1527.926577359304
 31
0.0
  0
LINE
  5
1555
330
5636
100
AcDbEntity
  8
0
100
AcDbLine
 10
417.0000000000004
 20
1541.999999999999
 30
0.0
 11
1232.999934549497
 21
1541.999999999999
 31
0.0
  0
LINE
  5
1571
330
5636
100
AcDbEntity
  8
0
100
AcDbLine
 10
417.0000000000004
 20
1650.0
 30
0.0
 11
1232.999934549498
 21
1650.0
 31
0.0
  0
LINE
  5
1572
330
5636
100
AcDbEntity
  8
0
100
AcDbLine
 10
417.0000000000004
 20
1680.0
 30
0.0
 11
1232.999934549498
 21
1680.0
 31
0.0
  0
LINE
  5
15E8
330
5636
100
AcDbEntity
  8
0
100
AcDbLine
 10
524.9999345494982
 20
1693.25270398934
 30
0.0
 11
524.9999345494982
 21
1637.058006288473
 31
0.0
  0
LINE
  5
161B
330
5636
100
AcDbEntity
  8
0
100
AcDbLine
 10
1124.999934549498
 20
1693.2527699338
 30
0.0
 11
1124.999934549498
 21
1635.82576400446
 31
0.0
  0
LINE
  5
1742
330
5636
100
AcDbEntity
  8
0
100
AcDbLine
 10
412.5000000000007
 20
1680.0
 30
0.0
 11
412.5000000000007
 21
1617.499999999999
 31
0.0
  0
LINE
  5
1743
330
5636
100
AcDbEntity
  8
0
100
AcDbLine
 10
417.0000000000007
 20
1680.0
 30
0.0
 11
417.0000000000007
 21
1617.499999999999
 31
0.0
  0
LINE
  5
1744
330
5636
100
AcDbEntity
  8
0
100
AcDbLine
 10
350.0000000000003
 20
1680.0
 30
0.0
 11
350.0000000000003
 21
1610.0
 31
0.0
  0
ARC
  5
1746
330
5636
100
AcDbEntity
  8
0
100
AcDbCircle
 10
392.3923048454128
 20
1629.235714285714
 30
0.0
 40
3.464285714285712
100
AcDbArc
 50
359.4093113971839
 51
180.590688602816
  0
LINE
  5
1747
330
5636
100
AcDbEntity
  8
0
100
AcDbLine
 10
381.9904517889629
 20
1622.7
 30
0.0
 11
401.9906738308357
 21
1622.7
 31
0.0
  0
LINE
  5
1748
330
5636
100
AcDbEntity
  8
0
100
AcDbLine
 10
381.9999999999997
 20
1619.5
 30
0.0
 11
401.9906738308357
 21
1619.5
 31
0.0
  0
LINE
  5
1749
330
5636
100
AcDbEntity
  8
0
100
AcDbLine
 10
381.9999999999997
 20
1614.5
 30
0.0
 11
409.4999999999999
 21
1614.499999999999
 31
0.0
  0
LINE
  5
174A
330
5636
100
AcDbEntity
  8
0
100
AcDbLine
 10
381.9999999999997
 20
1610.0
 30
0.0
 11
409.4999999999997
 21
1609.999999999998
 31
0.0
  0
LINE
  5
174B
330
5636
100
AcDbEntity
  8
0
100
AcDbLine
 10
381.9999999999997
 20
1606.5
 30
0.0
 11
403.4999999999997
 21
1606.5
 31
0.0
  0
LINE
  5
174C
330
5636
100
AcDbEntity
  8
0
100
AcDbLine
 10
381.9999999999997
 20
1598.999999999999
 30
0.0
 11
401.9999999999996
 21
1598.999999999999
 31
0.0
  0
ARC
  5
174D
330
5636
100
AcDbEntity
  8
0
100
AcDbCircle
 10
392.3922999999999
 20
1588.109520999999
 30
0.0
 40
5.090450299999996
100
AcDbArc
 50
47.11668999998199
 51
132.8833700000024
  0
ARC
  5
174E
330
5636
100
AcDbEntity
  8
0
100
AcDbCircle
 10
392.3922999999999
 20
1588.290448999998
 30
0.0
 40
5.090450299999996
100
AcDbArc
 50
227.1166399999841
 51
312.8833169999812
  0
ARC
  5
174F
330
5636
100
AcDbEntity
  8
0
100
AcDbCircle
 10
392.3922565677115
 20
1568.090466
 30
0.0
 40
5.090450299999996
100
AcDbArc
 50
227.1166399999841
 51
312.8833200000163
  0
LINE
  5
1750
330
5636
100
AcDbEntity
  8
0
100
AcDbLine
 10
366.9999999999997
 20
1583.2
 30
0.0
 11
396.9999999999997
 21
1583.2
 31
0.0
  0
LINE
  5
1751
330
5636
100
AcDbEntity
  8
0
100
AcDbLine
 10
350.0000000000003
 20
1579.999999999999
 30
0.0
 11
408.4999999999999
 21
1580.0
 31
0.0
  0
LINE
  5
1752
330
5636
100
AcDbEntity
  8
0
100
AcDbLine
 10
350.0000000000003
 20
1575.499999999999
 30
0.0
 11
408.5000000000007
 21
1575.5
 31
0.0
  0
LINE
  5
1753
330
5636
100
AcDbEntity
  8
0
100
AcDbLine
 10
417.0000000000007
 20
1541.999999999999
 30
0.0
 11
356.3000000000009
 21
1541.999999999999
 31
0.0
  0
ARC
  5
1754
330
5636
100
AcDbEntity
  8
0
100
AcDbCircle
 10
395.0000000000007
 20
1550.0
 30
0.0
 40
7.0
100
AcDbArc
 50
0.0
 51
90.0
  0
LINE
  5
1755
330
5636
100
AcDbEntity
  8
0
100
AcDbLine
 10
381.9999999999997
 20
1636.659543302268
 30
0.0
 11
381.9999999999997
 21
1559.37616872948
 31
0.0
  0
LINE
  5
1756
330
5636
100
AcDbEntity
  8
0
100
AcDbLine
 10
389.9734559613784
 20
1598.999999999999
 30
0.0
 11
389.9750925245337
 21
1593.199969999998
 31
0.0
  0
LINE
  5
1757
330
5636
100
AcDbEntity
  8
0
100
AcDbLine
 10
373.9734553849406
 20
1598.999999999999
 30
0.0
 11
373.975091948096
 21
1593.199969999998
 31
0.0
  0
LINE
  5
1758
330
5636
100
AcDbEntity
  8
0
100
AcDbLine
 10
356.0000000000008
 20
1541.999999999999
 30
0.0
 11
353.0000000000003
 21
1541.999999999999
 31
0.0
  0
ARC
  5
1759
330
5636
100
AcDbEntity
  8
0
100
AcDbCircle
 10
353.0000000000003
 20
1544.999999999999
 30
0.0
 40
3.0
100
AcDbArc
 50
180.0
 51
270.0
  0
LINE
  5
175A
330
5636
100
AcDbEntity
  8
0
100
AcDbLine
 10
350.0000000000003
 20
1544.999999999999
 30
0.0
 11
350.0000000000003
 21
1579.999999999999
 31
0.0
  0
LINE
  5
175B
330
5636
100
AcDbEntity
  8
0
100
AcDbLine
 10
388.92819
 20
1591.839508999998
 30
0.0
 11
388.92819
 21
1584.56046
 31
0.0
  0
LINE
  5
175C
330
5636
100
AcDbEntity
  8
0
100
AcDbLine
 10
388.9281665677111
 20
1564.360478
 30
0.0
 11
388.9281665677111
 21
1575.499999999999
 31
0.0
  0
LINE
  5
175D
330
5636
100
AcDbEntity
  8
0
100
AcDbLine
 10
390.4999999999997
 20
1580.0
 30
0.0
 11
390.4999999999997
 21
1575.5
 31
0.0
  0
LINE
  5
175E
330
5636
100
AcDbEntity
  8
0
100
AcDbLine
 10
368.143606
 20
1591.839502999999
 30
0.0
 11
368.143606
 21
1584.560467
 31
0.0
  0
LINE
  5
175F
330
5636
100
AcDbEntity
  8
0
100
AcDbLine
 10
375.0717909999996
 20
1591.839508999998
 30
0.0
 11
375.0717909999996
 21
1584.56046
 31
0.0
  0
ARC
  5
1760
330
5636
100
AcDbEntity
  8
0
100
AcDbCircle
 10
371.6076949999999
 20
1588.109520999999
 30
0.0
 40
5.090450299999996
100
AcDbArc
 50
47.11663999998405
 51
132.8833200000164
  0
ARC
  5
1761
330
5636
100
AcDbEntity
  8
0
100
AcDbCircle
 10
371.6076949999999
 20
1588.290448999998
 30
0.0
 40
5.090450299999996
100
AcDbArc
 50
227.1166899999821
 51
312.8833619999789
  0
LINE
  5
1762
330
5636
100
AcDbEntity
  8
0
100
AcDbLine
 10
366.9999999999997
 20
1579.999999999999
 30
0.0
 11
366.9999999999997
 21
1583.2
 31
0.0
  0
LINE
  5
1763
330
5636
100
AcDbEntity
  8
0
100
AcDbLine
 10
368.1435565677114
 20
1564.360478
 30
0.0
 11
368.1435565677114
 21
1575.499999999999
 31
0.0
  0
LINE
  5
1764
330
5636
100
AcDbEntity
  8
0
100
AcDbLine
 10
375.0717465677108
 20
1564.360478
 30
0.0
 11
375.0717465677108
 21
1575.499999999999
 31
0.0
  0
ARC
  5
1765
330
5636
100
AcDbEntity
  8
0
100
AcDbCircle
 10
371.6076465677109
 20
1568.090466
 30
0.0
 40
5.090450299999996
100
AcDbArc
 50
227.1166899999821
 51
312.8833700000023
  0
LINE
  5
1766
330
5636
100
AcDbEntity
  8
0
100
AcDbLine
 10
373.4999999999997
 20
1579.999999999999
 30
0.0
 11
373.4999999999997
 21
1575.499999999999
 31
0.0
  0
LINE
  5
1767
330
5636
100
AcDbEntity
  8
0
100
AcDbLine
 10
392.3922999999999
 20
1593.199969999998
 30
0.0
 11
371.6076949999999
 21
1593.199969999998
 31
0.0
  0
ARC
  5
1768
330
5636
100
AcDbEntity
  8
0
100
AcDbCircle
 10
381.9999999999997
 20
1601.521172999999
 30
0.0
 40
18.321183
100
AcDbArc
 50
247.7806800000021
 51
292.2192999999692
  0
ARC
  5
1769
330
5636
100
AcDbEntity
  8
0
100
AcDbCircle
 10
381.9999999999997
 20
1574.87879
 30
0.0
 40
18.321183
100
AcDbArc
 50
67.78071000000979
 51
112.2193300000002
  0
LINE
  5
176A
330
5636
100
AcDbEntity
  8
0
100
AcDbLine
 10
371.6076465677109
 20
1563.000016999999
 30
0.0
 11
392.3922565677115
 21
1563.000016999999
 31
0.0
  0
ARC
  5
176B
330
5636
100
AcDbEntity
  8
0
100
AcDbCircle
 10
381.999956567711
 20
1581.321179999999
 30
0.0
 40
18.321183
100
AcDbArc
 50
247.7807100000098
 51
292.2193300000003
  0
LINE
  5
176C
330
5636
100
AcDbEntity
  8
0
100
AcDbLine
 10
364.0000000000008
 20
1557.0
 30
0.0
 11
395.0000000000007
 21
1557.0
 31
0.0
  0
LINE
  5
176D
330
5636
100
AcDbEntity
  8
0
100
AcDbLine
 10
357.0000000000007
 20
1542.999999999999
 30
0.0
 11
357.0000000000007
 21
1550.0
 31
0.0
  0
ARC
  5
176E
330
5636
100
AcDbEntity
  8
0
100
AcDbCircle
 10
356.0000000000008
 20
1542.999999999999
 30
0.0
 40
1.0
100
AcDbArc
 50
270.0
 51
0.0
  0
ARC
  5
176F
330
5636
100
AcDbEntity
  8
0
100
AcDbCircle
 10
364.0000000000008
 20
1550.0
 30
0.0
 40
7.0
100
AcDbArc
 50
90.0
 51
180.0
  0
LINE
  5
1770
330
5636
100
AcDbEntity
  8
0
100
AcDbLine
 10
350.0000000000003
 20
1610.0
 30
0.0
 11
381.9999999999997
 21
1609.999999999998
 31
0.0
  0
LINE
  5
1771
330
5636
100
AcDbEntity
  8
0
100
AcDbLine
 10
350.0000000000003
 20
1614.5
 30
0.0
 11
381.9999999999997
 21
1614.499999999999
 31
0.0
  0
LINE
  5
1772
330
5636
100
AcDbEntity
  8
0
100
AcDbLine
 10
393.8000000000002
 20
1606.5
 30
0.0
 11
393.8000000000002
 21
1609.999999999998
 31
0.0
  0
LINE
  5
1773
330
5636
100
AcDbEntity
  8
0
100
AcDbLine
 10
370.2000000000008
 20
1606.499999999999
 30
0.0
 11
370.2000000000002
 21
1609.999999999998
 31
0.0
  0
LINE
  5
1774
330
5636
100
AcDbEntity
  8
0
100
AcDbLine
 10
388.9282032302757
 20
1622.7
 30
0.0
 11
388.9282032302757
 21
1629.2
 31
0.0
  0
LINE
  5
1775
330
5636
100
AcDbEntity
  8
0
100
AcDbLine
 10
360.4999999999997
 20
1606.5
 30
0.0
 11
360.4999999999997
 21
1598.999999999999
 31
0.0
  0
LINE
  5
1776
330
5636
100
AcDbEntity
  8
0
100
AcDbLine
 10
361.9906727511117
 20
1622.7
 30
0.0
 11
361.9906727511117
 21
1619.5
 31
0.0
  0
ARC
  5
1777
330
5636
100
AcDbEntity
  8
0
100
AcDbCircle
 10
371.6076951545868
 20
1629.235714285714
 30
0.0
 40
3.464285714285712
100
AcDbArc
 50
359.4093113971839
 51
180.590688602816
  0
LINE
  5
1778
330
5636
100
AcDbEntity
  8
0
100
AcDbLine
 10
368.1435935394486
 20
1622.7
 30
0.0
 11
368.1435935394486
 21
1629.2
 31
0.0
  0
LINE
  5
1779
330
5636
100
AcDbEntity
  8
0
100
AcDbLine
 10
375.0717967697243
 20
1622.7
 30
0.0
 11
375.0717967697243
 21
1629.2
 31
0.0
  0
LINE
  5
177A
330
5636
100
AcDbEntity
  8
0
100
AcDbLine
 10
361.9906727511117
 20
1619.5
 30
0.0
 11
361.9913879072161
 21
1614.5
 31
0.0
  0
LINE
  5
177B
330
5636
100
AcDbEntity
  8
0
100
AcDbLine
 10
360.4999999999997
 20
1598.999999999999
 30
0.0
 11
361.9999999999997
 21
1598.999999999999
 31
0.0
  0
LINE
  5
177C
330
5636
100
AcDbEntity
  8
0
100
AcDbLine
 10
371.6076951545868
 20
1632.7
 30
0.0
 11
392.3923048454128
 21
1632.7
 31
0.0
  0
LINE
  5
177D
330
5636
100
AcDbEntity
  8
0
100
AcDbLine
 10
361.9906727511117
 20
1622.7
 30
0.0
 11
381.9904517889629
 21
1622.699999999998
 31
0.0
  0
ARC
  5
177E
330
5636
100
AcDbEntity
  8
0
100
AcDbCircle
 10
381.9999999999997
 20
1624.092857142857
 30
0.0
 40
8.607142857142848
100
AcDbArc
 50
36.39587919809932
 51
143.6041208019006
  0
LINE
  5
177F
330
5636
100
AcDbEntity
  8
0
100
AcDbLine
 10
361.9906727511117
 20
1619.5
 30
0.0
 11
381.9999999999997
 21
1619.5
 31
0.0
  0
LINE
  5
1780
330
5636
100
AcDbEntity
  8
0
100
AcDbLine
 10
360.4999999999997
 20
1606.5
 30
0.0
 11
381.9999999999997
 21
1606.499999999999
 31
0.0
  0
LINE
  5
1781
330
5636
100
AcDbEntity
  8
0
100
AcDbLine
 10
361.9999999999997
 20
1598.999999999999
 30
0.0
 11
381.9999999999997
 21
1598.999999999999
 31
0.0
  0
ARC
  5
1783
330
5636
100
AcDbEntity
  8
0
100
AcDbCircle
 10
408.4999999999999
 20
1571.5
 30
0.0
 40
4.0
100
AcDbArc
 50
0.0
 51
90.0
  0
LINE
  5
1784
330
5636
100
AcDbEntity
  8
0
100
AcDbLine
 10
395.8563799999994
 20
1591.839508999998
 30
0.0
 11
395.8563799999994
 21
1584.56046
 31
0.0
  0
LINE
  5
1785
330
5636
100
AcDbEntity
  8
0
100
AcDbLine
 10
396.9999999999997
 20
1580.0
 30
0.0
 11
396.9999999999997
 21
1583.2
 31
0.0
  0
LINE
  5
1786
330
5636
100
AcDbEntity
  8
0
100
AcDbLine
 10
395.856346567711
 20
1564.360478
 30
0.0
 11
395.856346567711
 21
1575.499999999999
 31
0.0
  0
ARC
  5
1787
330
5636
100
AcDbEntity
  8
0
100
AcDbCircle
 10
408.5000000000007
 20
1571.5
 30
0.0
 40
8.5
100
AcDbArc
 50
0.0
 51
90.0
  0
LINE
  5
1788
330
5636
100
AcDbEntity
  8
0
100
AcDbLine
 10
402.0000000000006
 20
1542.999999999999
 30
0.0
 11
402.0000000000006
 21
1550.0
 31
0.0
  0
ARC
  5
1789
330
5636
100
AcDbEntity
  8
0
100
AcDbCircle
 10
403.0000000000006
 20
1542.999999999999
 30
0.0
 40
1.0
100
AcDbArc
 50
180.0
 51
270.0
  0
LINE
  5
178A
330
5636
100
AcDbEntity
  8
0
100
AcDbLine
 10
412.5000000000007
 20
1541.999999999999
 30
0.0
 11
412.5000000000007
 21
1571.5
 31
0.0
  0
LINE
  5
178B
330
5636
100
AcDbEntity
  8
0
100
AcDbLine
 10
417.0000000000007
 20
1541.999999999999
 30
0.0
 11
417.0000000000007
 21
1571.5
 31
0.0
  0
ARC
  5
178F
330
5636
100
AcDbEntity
  8
0
100
AcDbCircle
 10
409.4999999999999
 20
1617.499999999999
 30
0.0
 40
3.0
100
AcDbArc
 50
270.0
 51
0.0
  0
LINE
  5
1790
330
5636
100
AcDbEntity
  8
0
100
AcDbLine
 10
395.8564064605509
 20
1629.2
 30
0.0
 11
395.8564064605509
 21
1622.7
 31
0.0
  0
LINE
  5
1791
330
5636
100
AcDbEntity
  8
0
100
AcDbLine
 10
401.9906738308357
 20
1622.7
 30
0.0
 11
401.9906738308357
 21
1619.5
 31
0.0
  0
LINE
  5
1792
330
5636
100
AcDbEntity
  8
0
100
AcDbLine
 10
401.9999999999996
 20
1598.999999999999
 30
0.0
 11
403.4999999999997
 21
1598.999999999999
 31
0.0
  0
LINE
  5
1793
330
5636
100
AcDbEntity
  8
0
100
AcDbLine
 10
403.4999999999997
 20
1606.5
 30
0.0
 11
403.4999999999997
 21
1598.999999999999
 31
0.0
  0
LINE
  5
1794
330
5636
100
AcDbEntity
  8
0
100
AcDbLine
 10
401.9906738308357
 20
1619.5
 30
0.0
 11
401.9913889869404
 21
1614.5
 31
0.0
  0
ARC
  5
1795
330
5636
100
AcDbEntity
  8
0
100
AcDbCircle
 10
409.4999999999999
 20
1617.499999999999
 30
0.0
 40
7.5
100
AcDbArc
 50
270.0
 51
0.0
  0
LINE
  5
179B
330
5636
100
AcDbEntity
  8
0
100
AcDbLine
 10
405.0000000000009
 20
1653.3
 30
0.0
 11
392.1339312526823
 21
1653.3
 31
0.0
  0
ARC
  5
179C
330
5636
100
AcDbEntity
  8
0
100
AcDbCircle
 10
407.000000000001
 20
1653.3
 30
0.0
 40
17.0
100
AcDbArc
 50
97.66225566075878
 51
172.337744339241
  0
LINE
  5
179D
330
5636
100
AcDbEntity
  8
0
100
AcDbLine
 10
417.0000000000007
 20
1680.0
 30
0.0
 11
350.0000000000003
 21
1680.0
 31
0.0
  0
ARC
  5
179E
330
5636
100
AcDbEntity
  8
0
100
AcDbCircle
 10
392.1339312526823
 20
1655.3
 30
0.0
 40
2.0
100
AcDbArc
 50
172.337744339241
 51
270.0
  0
ARC
  5
179F
330
5636
100
AcDbEntity
  8
0
100
AcDbCircle
 10
359.0000000000007
 20
1668.166068747319
 30
0.0
 40
2.0
100
AcDbArc
 50
82.33774433924121
 51
180.0
  0
ARC
  5
17A0
330
5636
100
AcDbEntity
  8
0
100
AcDbCircle
 10
359.0000000000007
 20
1655.3
 30
0.0
 40
2.0
100
AcDbArc
 50
180.0
 51
270.0
  0
ARC
  5
17A1
330
5636
100
AcDbEntity
  8
0
100
AcDbCircle
 10
371.8660687473191
 20
1655.3
 30
0.0
 40
2.0
100
AcDbArc
 50
270.0
 51
7.662255660758973
  0
LINE
  5
17A2
330
5636
100
AcDbEntity
  8
0
100
AcDbLine
 10
359.0000000000007
 20
1653.3
 30
0.0
 11
371.8660687473191
 21
1653.3
 31
0.0
  0
LINE
  5
17A3
330
5636
100
AcDbEntity
  8
0
100
AcDbLine
 10
357.0000000000007
 20
1655.3
 30
0.0
 11
357.0000000000007
 21
1668.166068747319
 31
0.0
  0
ARC
  5
17A4
330
5636
100
AcDbEntity
  8
0
100
AcDbCircle
 10
357.0000000000007
 20
1653.3
 30
0.0
 40
17.0
100
AcDbArc
 50
7.662255660758973
 51
82.33774433924121
  0
ARC
  5
17A5
330
5636
100
AcDbEntity
  8
0
100
AcDbCircle
 10
405.0000000000006
 20
1668.166068747319
 30
0.0
 40
2.0
100
AcDbArc
 50
0.0
 51
97.66225566075878
  0
ARC
  5
17A6
330
5636
100
AcDbEntity
  8
0
100
AcDbCircle
 10
405.0000000000009
 20
1655.3
 30
0.0
 40
2.0
100
AcDbArc
 50
270.0
 51
0.0
  0
LINE
  5
17A7
330
5636
100
AcDbEntity
  8
0
100
AcDbLine
 10
407.000000000001
 20
1655.3
 30
0.0
 11
407.0000000000006
 21
1668.166068747319
 31
0.0
  0
LINE
  5
17BB
330
5636
100
AcDbEntity
  8
0
100
AcDbLine
 10
1244.999976297548
 20
1653.3
 30
0.0
 11
1257.866045044868
 21
1653.3
 31
0.0
  0
LINE
  5
17BC
330
5636
100
AcDbEntity
  8
0
100
AcDbLine
 10
1267.99997629755
 20
1619.5
 30
0.0
 11
1248.009302466714
 21
1619.5
 31
0.0
  0
LINE
  5
17BD
330
5636
100
AcDbEntity
  8
0
100
AcDbLine
 10
1267.99997629755
 20
1614.5
 30
0.0
 11
1240.49997629755
 21
1614.499999999999
 31
0.0
  0
LINE
  5
17BE
330
5636
100
AcDbEntity
  8
0
100
AcDbLine
 10
1267.99997629755
 20
1610.0
 30
0.0
 11
1240.499976297551
 21
1609.999999999998
 31
0.0
  0
LINE
  5
17BF
330
5636
100
AcDbEntity
  8
0
100
AcDbLine
 10
1267.99997629755
 20
1606.5
 30
0.0
 11
1246.49997629755
 21
1606.5
 31
0.0
  0
LINE
  5
17C0
330
5636
100
AcDbEntity
  8
0
100
AcDbLine
 10
1267.99997629755
 20
1598.999999999999
 30
0.0
 11
1247.99997629755
 21
1598.999999999999
 31
0.0
  0
ARC
  5
17C1
330
5636
100
AcDbEntity
  8
0
100
AcDbCircle
 10
1257.60767629755
 20
1588.109520999999
 30
0.0
 40
5.090450299999996
100
AcDbArc
 50
47.1166299999976
 51
132.883310000018
  0
ARC
  5
17C2
330
5636
100
AcDbEntity
  8
0
100
AcDbCircle
 10
1242.999976297548
 20
1653.3
 30
0.0
 40
17.0
100
AcDbArc
 50
7.662255660758988
 51
82.33774433924121
  0
LINE
  5
17C3
330
5636
100
AcDbEntity
  8
0
100
AcDbLine
 10
1232.99997629755
 20
1680.0
 30
0.0
 11
1299.99997629755
 21
1680.0
 31
0.0
  0
ARC
  5
17C4
330
5636
100
AcDbEntity
  8
0
100
AcDbCircle
 10
1257.607671452137
 20
1629.235714285714
 30
0.0
 40
3.464285714285712
100
AcDbArc
 50
359.4093113971839
 51
180.590688602816
  0
LINE
  5
17C5
330
5636
100
AcDbEntity
  8
0
100
AcDbLine
 10
1268.009524508587
 20
1622.7
 30
0.0
 11
1248.009302466714
 21
1622.7
 31
0.0
  0
ARC
  5
17C6
330
5636
100
AcDbEntity
  8
0
100
AcDbCircle
 10
1257.60767629755
 20
1588.290448999998
 30
0.0
 40
5.090450299999996
100
AcDbArc
 50
227.1166830000188
 51
312.8833600000159
  0
ARC
  5
17C7
330
5636
100
AcDbEntity
  8
0
100
AcDbCircle
 10
1257.607719729838
 20
1568.090466
 30
0.0
 40
5.090450299999996
100
AcDbArc
 50
227.1166799999836
 51
312.8833600000159
  0
LINE
  5
17C8
330
5636
100
AcDbEntity
  8
0
100
AcDbLine
 10
1282.99997629755
 20
1583.2
 30
0.0
 11
1252.99997629755
 21
1583.2
 31
0.0
  0
LINE
  5
17C9
330
5636
100
AcDbEntity
  8
0
100
AcDbLine
 10
1299.99997629755
 20
1579.999999999999
 30
0.0
 11
1241.49997629755
 21
1580.0
 31
0.0
  0
LINE
  5
17CA
330
5636
100
AcDbEntity
  8
0
100
AcDbLine
 10
1299.99997629755
 20
1575.499999999999
 30
0.0
 11
1241.49997629755
 21
1575.5
 31
0.0
  0
LINE
  5
17CB
330
5636
100
AcDbEntity
  8
0
100
AcDbLine
 10
1232.99997629755
 20
1541.999999999999
 30
0.0
 11
1293.699976297549
 21
1541.999999999999
 31
0.0
  0
LINE
  5
17CC
330
5636
100
AcDbEntity
  8
0
100
AcDbLine
 10
1285.99997629755
 20
1557.0
 30
0.0
 11
1254.99997629755
 21
1557.0
 31
0.0
  0
LINE
  5
17CD
330
5636
100
AcDbEntity
  8
0
100
AcDbLine
 10
1260.026520336172
 20
1598.999999999999
 30
0.0
 11
1260.024883773017
 21
1593.199969999998
 31
0.0
  0
LINE
  5
17CE
330
5636
100
AcDbEntity
  8
0
100
AcDbLine
 10
1276.02652091261
 20
1598.999999999999
 30
0.0
 11
1276.024884349454
 21
1593.199969999998
 31
0.0
  0
LINE
  5
17CF
330
5636
100
AcDbEntity
  8
0
100
AcDbLine
 10
1267.99997629755
 20
1636.659543302268
 30
0.0
 11
1267.99997629755
 21
1559.37616872948
 31
0.0
  0
ARC
  5
17D0
330
5636
100
AcDbEntity
  8
0
100
AcDbCircle
 10
1296.99997629755
 20
1544.999999999999
 30
0.0
 40
3.0
100
AcDbArc
 50
270.0
 51
0.000000000000007
  0
LINE
  5
17D1
330
5636
100
AcDbEntity
  8
0
100
AcDbLine
 10
1299.99997629755
 20
1544.999999999999
 30
0.0
 11
1299.99997629755
 21
1579.999999999999
 31
0.0
  0
LINE
  5
17D2
330
5636
100
AcDbEntity
  8
0
100
AcDbLine
 10
1292.999976297549
 20
1542.999999999999
 30
0.0
 11
1292.999976297549
 21
1550.0
 31
0.0
  0
LINE
  5
17D3
330
5636
100
AcDbEntity
  8
0
100
AcDbLine
 10
1293.99997629755
 20
1541.999999999999
 30
0.0
 11
1296.99997629755
 21
1541.999999999999
 31
0.0
  0
ARC
  5
17D4
330
5636
100
AcDbEntity
  8
0
100
AcDbCircle
 10
1293.99997629755
 20
1542.999999999999
 30
0.0
 40
1.0
100
AcDbArc
 50
180.0
 51
270.0
  0
ARC
  5
17D5
330
5636
100
AcDbEntity
  8
0
100
AcDbCircle
 10
1278.39228129755
 20
1588.109520999999
 30
0.0
 40
5.090450299999996
100
AcDbArc
 50
47.11667999998359
 51
132.8833600000159
  0
LINE
  5
17D6
330
5636
100
AcDbEntity
  8
0
100
AcDbLine
 10
1257.60767629755
 20
1593.199969999998
 30
0.0
 11
1278.39228129755
 21
1593.199969999998
 31
0.0
  0
ARC
  5
17D7
330
5636
100
AcDbEntity
  8
0
100
AcDbCircle
 10
1278.39228129755
 20
1588.290448999998
 30
0.0
 40
5.090450299999996
100
AcDbArc
 50
227.1166380000212
 51
312.8833100000179
  0
ARC
  5
17D8
330
5636
100
AcDbEntity
  8
0
100
AcDbCircle
 10
1278.392329729839
 20
1568.090466
 30
0.0
 40
5.090450299999996
100
AcDbArc
 50
227.1166299999976
 51
312.8833100000179
  0
LINE
  5
17D9
330
5636
100
AcDbEntity
  8
0
100
AcDbLine
 10
1278.392329729839
 20
1563.000016999999
 30
0.0
 11
1257.607719729838
 21
1563.000016999999
 31
0.0
  0
LINE
  5
17DA
330
5636
100
AcDbEntity
  8
0
100
AcDbLine
 10
1282.99997629755
 20
1579.999999999999
 30
0.0
 11
1282.99997629755
 21
1583.2
 31
0.0
  0
LINE
  5
17DB
330
5636
100
AcDbEntity
  8
0
100
AcDbLine
 10
1281.856419729839
 20
1564.360478
 30
0.0
 11
1281.856419729839
 21
1575.499999999999
 31
0.0
  0
ARC
  5
17DC
330
5636
100
AcDbEntity
  8
0
100
AcDbCircle
 10
1285.99997629755
 20
1550.0
 30
0.0
 40
7.0
100
AcDbArc
 50
0.000000000000007
 51
90.0
  0
LINE
  5
17DD
330
5636
100
AcDbEntity
  8
0
100
AcDbLine
 10
1281.85637029755
 20
1591.839502999999
 30
0.0
 11
1281.85637029755
 21
1584.560467
 31
0.0
  0
ARC
  5
17DE
330
5636
100
AcDbEntity
  8
0
100
AcDbCircle
 10
1267.99997629755
 20
1574.87879
 30
0.0
 40
18.321183
100
AcDbArc
 50
67.78066999999977
 51
112.2192899999902
  0
LINE
  5
17DF
330
5636
100
AcDbEntity
  8
0
100
AcDbLine
 10
1259.49997629755
 20
1580.0
 30
0.0
 11
1259.49997629755
 21
1575.5
 31
0.0
  0
LINE
  5
17E0
330
5636
100
AcDbEntity
  8
0
100
AcDbLine
 10
1261.071809729839
 20
1564.360478
 30
0.0
 11
1261.071809729839
 21
1575.499999999999
 31
0.0
  0
LINE
  5
17E1
330
5636
100
AcDbEntity
  8
0
100
AcDbLine
 10
1274.928229729838
 20
1564.360478
 30
0.0
 11
1274.928229729838
 21
1575.499999999999
 31
0.0
  0
LINE
  5
17E2
330
5636
100
AcDbEntity
  8
0
100
AcDbLine
 10
1276.49997629755
 20
1579.999999999999
 30
0.0
 11
1276.49997629755
 21
1575.499999999999
 31
0.0
  0
ARC
  5
17E3
330
5636
100
AcDbEntity
  8
0
100
AcDbCircle
 10
1267.99997629755
 20
1601.521172999999
 30
0.0
 40
18.321183
100
AcDbArc
 50
247.7807000000308
 51
292.2193199999979
  0
ARC
  5
17E4
330
5636
100
AcDbEntity
  8
0
100
AcDbCircle
 10
1268.000019729839
 20
1581.321179999999
 30
0.0
 40
18.321183
100
AcDbArc
 50
247.7806699999998
 51
292.2192899999903
  0
LINE
  5
17E5
330
5636
100
AcDbEntity
  8
0
100
AcDbLine
 10
1261.07178629755
 20
1591.839508999998
 30
0.0
 11
1261.07178629755
 21
1584.56046
 31
0.0
  0
LINE
  5
17E6
330
5636
100
AcDbEntity
  8
0
100
AcDbLine
 10
1274.92818529755
 20
1591.839508999998
 30
0.0
 11
1274.92818529755
 21
1584.56046
 31
0.0
  0
LINE
  5
17E7
330
5636
100
AcDbEntity
  8
0
100
AcDbLine
 10
1299.99997629755
 20
1610.0
 30
0.0
 11
1267.99997629755
 21
1609.999999999998
 31
0.0
  0
LINE
  5
17E8
330
5636
100
AcDbEntity
  8
0
100
AcDbLine
 10
1299.99997629755
 20
1614.5
 30
0.0
 11
1267.99997629755
 21
1614.499999999999
 31
0.0
  0
LINE
  5
17E9
330
5636
100
AcDbEntity
  8
0
100
AcDbLine
 10
1299.99997629755
 20
1680.0
 30
0.0
 11
1299.99997629755
 21
1610.0
 31
0.0
  0
ARC
  5
17EA
330
5636
100
AcDbEntity
  8
0
100
AcDbCircle
 10
1257.866045044868
 20
1655.3
 30
0.0
 40
2.0
100
AcDbArc
 50
270.0
 51
7.662255660758988
  0
ARC
  5
17EB
330
5636
100
AcDbEntity
  8
0
100
AcDbCircle
 10
1278.133907550231
 20
1655.3
 30
0.0
 40
2.0
100
AcDbArc
 50
172.337744339241
 51
270.0
  0
ARC
  5
17EC
330
5636
100
AcDbEntity
  8
0
100
AcDbCircle
 10
1290.999976297549
 20
1655.3
 30
0.0
 40
2.0
100
AcDbArc
 50
270.0
 51
0.000000000000007
  0
ARC
  5
17ED
330
5636
100
AcDbEntity
  8
0
100
AcDbCircle
 10
1278.392281142963
 20
1629.235714285714
 30
0.0
 40
3.464285714285712
100
AcDbArc
 50
359.4093113971839
 51
180.590688602816
  0
LINE
  5
17EE
330
5636
100
AcDbEntity
  8
0
100
AcDbLine
 10
1288.009303546438
 20
1622.7
 30
0.0
 11
1268.009524508587
 21
1622.699999999998
 31
0.0
  0
LINE
  5
17EF
330
5636
100
AcDbEntity
  8
0
100
AcDbLine
 10
1288.009303546438
 20
1619.5
 30
0.0
 11
1267.99997629755
 21
1619.5
 31
0.0
  0
LINE
  5
17F0
330
5636
100
AcDbEntity
  8
0
100
AcDbLine
 10
1289.49997629755
 20
1606.5
 30
0.0
 11
1267.99997629755
 21
1606.499999999999
 31
0.0
  0
LINE
  5
17F1
330
5636
100
AcDbEntity
  8
0
100
AcDbLine
 10
1287.99997629755
 20
1598.999999999999
 30
0.0
 11
1267.99997629755
 21
1598.999999999999
 31
0.0
  0
LINE
  5
17F2
330
5636
100
AcDbEntity
  8
0
100
AcDbLine
 10
1278.392281142963
 20
1632.7
 30
0.0
 11
1257.607671452137
 21
1632.7
 31
0.0
  0
LINE
  5
17F3
330
5636
100
AcDbEntity
  8
0
100
AcDbLine
 10
1290.999976297549
 20
1653.3
 30
0.0
 11
1278.133907550231
 21
1653.3
 31
0.0
  0
LINE
  5
17F4
330
5636
100
AcDbEntity
  8
0
100
AcDbLine
 10
1279.79997629755
 20
1606.499999999999
 30
0.0
 11
1279.79997629755
 21
1609.999999999998
 31
0.0
  0
LINE
  5
17F5
330
5636
100
AcDbEntity
  8
0
100
AcDbLine
 10
1289.49997629755
 20
1606.5
 30
0.0
 11
1289.49997629755
 21
1598.999999999999
 31
0.0
  0
LINE
  5
17F6
330
5636
100
AcDbEntity
  8
0
100
AcDbLine
 10
1288.009303546438
 20
1622.7
 30
0.0
 11
1288.009303546438
 21
1619.5
 31
0.0
  0
LINE
  5
17F7
330
5636
100
AcDbEntity
  8
0
100
AcDbLine
 10
1281.856382758102
 20
1622.7
 30
0.0
 11
1281.856382758102
 21
1629.2
 31
0.0
  0
LINE
  5
17F8
330
5636
100
AcDbEntity
  8
0
100
AcDbLine
 10
1288.009303546438
 20
1619.5
 30
0.0
 11
1288.008588390334
 21
1614.5
 31
0.0
  0
LINE
  5
17F9
330
5636
100
AcDbEntity
  8
0
100
AcDbLine
 10
1289.49997629755
 20
1598.999999999999
 30
0.0
 11
1287.99997629755
 21
1598.999999999999
 31
0.0
  0
LINE
  5
17FA
330
5636
100
AcDbEntity
  8
0
100
AcDbLine
 10
1261.071773067275
 20
1622.7
 30
0.0
 11
1261.071773067275
 21
1629.2
 31
0.0
  0
LINE
  5
17FB
330
5636
100
AcDbEntity
  8
0
100
AcDbLine
 10
1274.928179527825
 20
1622.7
 30
0.0
 11
1274.928179527825
 21
1629.2
 31
0.0
  0
ARC
  5
17FC
330
5636
100
AcDbEntity
  8
0
100
AcDbCircle
 10
1267.99997629755
 20
1624.092857142857
 30
0.0
 40
8.607142857142848
100
AcDbArc
 50
36.39587919809932
 51
143.6041208019006
  0
ARC
  5
17FD
330
5636
100
AcDbEntity
  8
0
100
AcDbCircle
 10
1292.999976297549
 20
1653.3
 30
0.0
 40
17.0
100
AcDbArc
 50
97.66225566075878
 51
172.337744339241
  0
ARC
  5
17FE
330
5636
100
AcDbEntity
  8
0
100
AcDbCircle
 10
1290.999976297549
 20
1668.166068747319
 30
0.0
 40
2.0
100
AcDbArc
 50
0.000000000000007
 51
97.66225566075878
  0
LINE
  5
17FF
330
5636
100
AcDbEntity
  8
0
100
AcDbLine
 10
1292.999976297549
 20
1655.3
 30
0.0
 11
1292.999976297549
 21
1668.166068747319
 31
0.0
  0
LINE
  5
1800
330
5636
100
AcDbEntity
  8
0
100
AcDbLine
 10
1237.49997629755
 20
1541.999999999999
 30
0.0
 11
1237.49997629755
 21
1571.5
 31
0.0
  0
LINE
  5
1801
330
5636
100
AcDbEntity
  8
0
100
AcDbLine
 10
1232.99997629755
 20
1541.999999999999
 30
0.0
 11
1232.99997629755
 21
1571.5
 31
0.0
  0
LINE
  5
1802
330
5636
100
AcDbEntity
  8
0
100
AcDbLine
 10
1247.999976297549
 20
1542.999999999999
 30
0.0
 11
1247.999976297549
 21
1550.0
 31
0.0
  0
ARC
  5
1803
330
5636
100
AcDbEntity
  8
0
100
AcDbCircle
 10
1246.99997629755
 20
1542.999999999999
 30
0.0
 40
1.0
100
AcDbArc
 50
270.0
 51
0.000000000000007
  0
ARC
  5
1804
330
5636
100
AcDbEntity
  8
0
100
AcDbCircle
 10
1241.49997629755
 20
1571.5
 30
0.0
 40
8.5
100
AcDbArc
 50
90.0
 51
180.0
  0
ARC
  5
1805
330
5636
100
AcDbEntity
  8
0
100
AcDbCircle
 10
1254.99997629755
 20
1550.0
 30
0.0
 40
7.0
100
AcDbArc
 50
90.0
 51
180.0
  0
LINE
  5
1806
330
5636
100
AcDbEntity
  8
0
100
AcDbLine
 10
1252.99997629755
 20
1580.0
 30
0.0
 11
1252.99997629755
 21
1583.2
 31
0.0
  0
LINE
  5
1807
330
5636
100
AcDbEntity
  8
0
100
AcDbLine
 10
1254.143629729839
 20
1564.360478
 30
0.0
 11
1254.143629729839
 21
1575.499999999999
 31
0.0
  0
ARC
  5
1808
330
5636
100
AcDbEntity
  8
0
100
AcDbCircle
 10
1241.49997629755
 20
1571.5
 30
0.0
 40
4.0
100
AcDbArc
 50
90.0
 51
180.0
  0
LINE
  5
1809
330
5636
100
AcDbEntity
  8
0
100
AcDbLine
 10
1254.143596297551
 20
1591.839508999998
 30
0.0
 11
1254.143596297551
 21
1584.56046
 31
0.0
  0
ARC
  5
180A
330
5636
100
AcDbEntity
  8
0
100
AcDbCircle
 10
1244.999976297548
 20
1655.3
 30
0.0
 40
2.0
100
AcDbArc
 50
180.0
 51
270.0
  0
LINE
  5
180B
330
5636
100
AcDbEntity
  8
0
100
AcDbLine
 10
1237.49997629755
 20
1680.0
 30
0.0
 11
1237.49997629755
 21
1617.499999999999
 31
0.0
  0
LINE
  5
180C
330
5636
100
AcDbEntity
  8
0
100
AcDbLine
 10
1232.99997629755
 20
1680.0
 30
0.0
 11
1232.99997629755
 21
1617.499999999999
 31
0.0
  0
ARC
  5
180D
330
5636
100
AcDbEntity
  8
0
100
AcDbCircle
 10
1240.49997629755
 20
1617.499999999999
 30
0.0
 40
7.5
100
AcDbArc
 50
180.0
 51
270.0
  0
LINE
  5
180E
330
5636
100
AcDbEntity
  8
0
100
AcDbLine
 10
1256.19997629755
 20
1606.5
 30
0.0
 11
1256.19997629755
 21
1609.999999999998
 31
0.0
  0
LINE
  5
180F
330
5636
100
AcDbEntity
  8
0
100
AcDbLine
 10
1254.143569836999
 20
1629.2
 30
0.0
 11
1254.143569836999
 21
1622.7
 31
0.0
  0
LINE
  5
1810
330
5636
100
AcDbEntity
  8
0
100
AcDbLine
 10
1248.009302466714
 20
1622.7
 30
0.0
 11
1248.009302466714
 21
1619.5
 31
0.0
  0
LINE
  5
1811
330
5636
100
AcDbEntity
  8
0
100
AcDbLine
 10
1247.99997629755
 20
1598.999999999999
 30
0.0
 11
1246.49997629755
 21
1598.999999999999
 31
0.0
  0
LINE
  5
1812
330
5636
100
AcDbEntity
  8
0
100
AcDbLine
 10
1246.49997629755
 20
1606.5
 30
0.0
 11
1246.49997629755
 21
1598.999999999999
 31
0.0
  0
LINE
  5
1813
330
5636
100
AcDbEntity
  8
0
100
AcDbLine
 10
1248.009302466714
 20
1619.5
 30
0.0
 11
1248.00858731061
 21
1614.5
 31
0.0
  0
ARC
  5
1814
330
5636
100
AcDbEntity
  8
0
100
AcDbCircle
 10
1240.49997629755
 20
1617.499999999999
 30
0.0
 40
3.0
100
AcDbArc
 50
180.0
 51
270.0
  0
ARC
  5
1815
330
5636
100
AcDbEntity
  8
0
100
AcDbCircle
 10
1244.999976297548
 20
1668.166068747319
 30
0.0
 40
2.0
100
AcDbArc
 50
82.33774433924121
 51
180.0
  0
LINE
  5
1816
330
5636
100
AcDbEntity
  8
0
100
AcDbLine
 10
1242.999976297548
 20
1655.3
 30
0.0
 11
1242.999976297548
 21
1668.166068747319
 31
0.0
  0
LINE
  5
1877
330
5636
100
AcDbEntity
  8
0
100
AcDbLine
 10
1299.99996249323
 20
722.9041341154578
 30
0.0
 11
349.9999624932264
 21
722.9040482475514
 31
0.0
  0
LINE
  5
1878
330
5636
100
AcDbEntity
  8
0
100
AcDbLine
 10
1269.999963873048
 20
782.9041355000787
 30
0.0
 11
379.9999638730481
 21
782.9040468629074
 31
0.0
  0
LINE
  5
187B
330
5636
100
AcDbEntity
  8
0
100
AcDbLine
 10
1299.99997066941
 20
1172.90403967173
 30
0.0
 11
349.9999706694226
 21
1172.90414286971
 31
0.0
  0
LINE
  5
187C
330
5636
100
AcDbEntity
  8
0
100
AcDbLine
 10
1269.999964151632
 20
1112.904046191546
 30
0.0
 11
379.9999641516425
 21
1112.904136349915
 31
0.0
  0
CIRCLE
  5
187D
330
5636
100
AcDbEntity
  8
0
100
AcDbCircle
 10
524.999963880076
 20
1142.90412424295
 30
0.0
 40
10.0
  0
LINE
  5
1884
330
5636
100
AcDbEntity
  8
0
100
AcDbLine
 10
524.999963880076
 20
1120.968346311426
 30
0.0
 11
524.999963880076
 21
1164.839902174474
 31
0.0
  0
LINE
  5
1885
330
5636
100
AcDbEntity
  8
0
100
AcDbLine
 10
379.9999638730481
 20
782.9040468629075
 30
0.0
 11
379.9999641516424
 21
1112.904136349915
 31
0.0
  0
LINE
  5
1886
330
5636
100
AcDbEntity
  8
0
100
AcDbLine
 10
349.9999624932264
 20
722.9040482475509
 30
0.0
 11
349.9999706694226
 21
1172.90414286971
 31
0.0
  0
CIRCLE
  5
1899
330
5636
100
AcDbEntity
  8
0
100
AcDbCircle
 10
524.999963880076
 20
752.9040582092701
 30
0.0
 40
10.0
  0
LINE
  5
189A
330
5636
100
AcDbEntity
  8
0
100
AcDbLine
 10
524.999963880076
 20
774.8398361407937
 30
0.0
 11
524.999963880076
 21
730.9682802777464
 31
0.0
  0
LINE
  5
189B
330
5636
100
AcDbEntity
  8
0
100
AcDbLine
 10
503.064185948552
 20
752.9040582092701
 30
0.0
 11
546.9357418116003
 21
752.9040582092701
 31
0.0
  0
LINE
  5
18A0
330
5636
100
AcDbEntity
  8
0
100
AcDbLine
 10
503.064185948552
 20
1142.90412424295
 30
0.0
 11
546.9357418116003
 21
1142.90412424295
 31
0.0
  0
CIRCLE
  5
18A1
330
5636
100
AcDbEntity
  8
0
100
AcDbCircle
 10
1124.999963880076
 20
1142.904058298489
 30
0.0
 40
10.0
  0
LINE
  5
18A7
330
5636
100
AcDbEntity
  8
0
100
AcDbLine
 10
1124.999963880076
 20
1120.968280366965
 30
0.0
 11
1124.999963880076
 21
1164.839836230013
 31
0.0
  0
LINE
  5
18A8
330
5636
100
AcDbEntity
  8
0
100
AcDbLine
 10
1103.064185948552
 20
752.9041241537308
 30
0.0
 11
1146.9357418116
 21
752.9041241537308
 31
0.0
  0
CIRCLE
  5
18A9
330
5636
100
AcDbEntity
  8
0
100
AcDbCircle
 10
1124.999963880076
 20
752.9041241537308
 30
0.0
 40
10.0
  0
LINE
  5
18AA
330
5636
100
AcDbEntity
  8
0
100
AcDbLine
 10
1124.999963880076
 20
774.8399020852554
 30
0.0
 11
1124.999963880076
 21
730.9683462222077
 31
0.0
  0
LINE
  5
18AB
330
5636
100
AcDbEntity
  8
0
100
AcDbLine
 10
1269.999963873049
 20
782.9041355000787
 30
0.0
 11
1269.999964151632
 21
1112.904046191546
 31
0.0
  0
LINE
  5
18AC
330
5636
100
AcDbEntity
  8
0
100
AcDbLine
 10
1299.99996249323
 20
722.9041341154578
 30
0.0
 11
1299.99997066941
 21
1172.90403967173
 31
0.0
  0
LINE
  5
18BF
330
5636
100
AcDbEntity
  8
0
100
AcDbLine
 10
1103.064185948552
 20
1142.904058298489
 30
0.0
 11
1146.9357418116
 21
1142.904058298489
 31
0.0
  0
LINE
  5
1A96
330
5636
100
AcDbEntity
  8
0
100
AcDbLine
 10
531.1457474952093
 20
733.8717345530276
 30
0.0
 11
553.3580020235087
 21
665.0846044177471
 31
0.0
  0
TEXT
  5
1C3F
330
5636
100
AcDbEntity
  8
0
100
AcDbText
 10
1187.720234431179
 20
1839.582004453635
 30
0.0
 40
24.0
  1
「配管側」ラベル
 50
359.9999965697933
100
AcDbText
  0
LINE
  5
1C40
330
5636
100
AcDbEntity
  8
0
100
AcDbLine
 10
1156.733911181735
 20
1851.199644849057
 30
0.0
 11
1181.402573291771
 21
1851.199644849057
 31
0.0
  0
LINE
  5
1C8A
330
5636
100
AcDbEntity
  8
0
100
AcDbLine
 10
249.9999554235244
 20
1541.999999999999
 30
0.0
 11
249.9999554235244
 21
1484.425838270156
 31
0.0
  0
LINE
  5
1DA6
330
5636
100
AcDbEntity
  8
0
100
AcDbLine
 10
1175.214650366197
 20
1922.263494700569
 30
0.0
 11
1156.733911181735
 21
1851.199644849057
 31
0.0
  0
LINE
  5
1F56
330
5636
100
AcDbEntity
  8
0
100
AcDbLine
 10
533.5433641908768
 20
2371.53944882089
 30
0.0
 11
581.693239487297
 21
2473.455973998448
 31
0.0
  0
CIRCLE
  5
2336
330
5636
100
AcDbEntity
  8
0
100
AcDbCircle
 10
524.9999554235244
 20
2353.456026394979
 30
0.0
 40
8.0
  0
CIRCLE
  5
2337
330
5636
100
AcDbEntity
  8
0
100
AcDbCircle
 10
1124.999955423524
 20
2353.455960450518
 30
0.0
 40
8.0
  0
CIRCLE
  5
2338
330
5636
100
AcDbEntity
  8
0
100
AcDbCircle
 10
524.9999554235244
 20
1943.455960361299
 30
0.0
 40
8.0
  0
CIRCLE
  5
2339
330
5636
100
AcDbEntity
  8
0
100
AcDbCircle
 10
1124.999955423524
 20
1943.45602630576
 30
0.0
 40
8.0
  0
LINE
  5
2381
330
5636
100
AcDbEntity
  8
0
100
AcDbLine
 10
416.9852813742393
 20
1571.999999999999
 30
0.0
 11
709.9999999996164
 21
1571.999999999999
 31
0.0
  0
LINE
  5
26DE
330
5636
100
AcDbEntity
  8
0
100
AcDbLine
 10
1220.000000000384
 20
1571.999999999999
 30
0.0
 11
1233.014653175259
 21
1571.999999999999
 31
0.0
  0
LINE
  5
26DF
330
5636
100
AcDbEntity
  8
0
100
AcDbLine
 10
770.000000000384
 20
1571.999999999999
 30
0.0
 11
1159.999999999616
 21
1571.999999999999
 31
0.0
  0
LINE
  5
3E91
330
5636
100
AcDbEntity
  8
0
100
AcDbLine
 10
484.9999554235242
 20
2313.456031182113
 30
0.0
 11
484.9999954434694
 21
1983.455965089859
 31
0.0
  0
LINE
  5
3E93
330
5636
100
AcDbEntity
  8
0
100
AcDbLine
 10
564.9999554235241
 20
2313.456031182113
 30
0.0
 11
564.9999273528163
 21
1983.455965089859
 31
0.0
  0
LINE
  5
3E95
330
5636
100
AcDbEntity
  8
0
100
AcDbLine
 10
1165.000020874026
 20
2313.456031182113
 30
0.0
 11
1164.999992803318
 21
1983.455965089859
 31
0.0
  0
LINE
  5
3E97
330
5636
100
AcDbEntity
  8
0
100
AcDbLine
 10
1085.000020874026
 20
2313.456031182113
 30
0.0
 11
1085.000060893971
 21
1983.455965089859
 31
0.0
  0
LINE
  5
408D
330
5636
100
AcDbEntity
  8
0
100
AcDbLine
 10
1642.627335892797
 20
1990.441274707771
 30
0.0
 11
1642.627335892797
 21
2306.455993422745
 31
0.0
  0
LINE
  5
408E
330
5636
100
AcDbEntity
  8
0
100
AcDbLine
 10
1534.627335892796
 20
1990.455993333532
 30
0.0
 11
1534.627335892796
 21
2306.455993422745
 31
0.0
  0
LINE
  5
408F
330
5636
100
AcDbEntity
  8
0
100
AcDbLine
 10
1564.627335892796
 20
1990.455993333532
 30
0.0
 11
1564.627335892796
 21
2306.455993422745
 31
0.0
  0
LINE
  5
4090
330
5636
100
AcDbEntity
  8
0
100
AcDbLine
 10
1672.627335892797
 20
1990.455993333532
 30
0.0
 11
1672.627335892797
 21
2306.455993422745
 31
0.0
  0
LINE
  5
4091
330
5636
100
AcDbEntity
  8
0
100
AcDbLine
 10
1615.627335892797
 20
1963.42944929491
 30
0.0
 11
1621.427365892795
 21
1963.431085858065
 31
0.0
  0
LINE
  5
4092
330
5636
100
AcDbEntity
  8
0
100
AcDbLine
 10
1615.627335892796
 20
1947.429448718472
 30
0.0
 11
1621.427365892795
 21
1947.431085281627
 31
0.0
  0
LINE
  5
4093
330
5636
100
AcDbEntity
  8
0
100
AcDbLine
 10
1577.967792590526
 20
1955.455993333531
 30
0.0
 11
1655.251167163315
 21
1955.455993333531
 31
0.0
  0
ARC
  5
4094
330
5636
100
AcDbEntity
  8
0
100
AcDbCircle
 10
1626.517814892796
 20
1945.063688333531
 30
0.0
 40
5.090450299999996
100
AcDbArc
 50
137.1166399999842
 51
222.8833200000171
  0
ARC
  5
4095
330
5636
100
AcDbEntity
  8
0
100
AcDbCircle
 10
1645.663050178511
 20
1945.063688488119
 30
0.0
 40
3.464285714285712
100
AcDbArc
 50
269.4093113971837
 51
90.59068860281611
  0
ARC
  5
4096
330
5636
100
AcDbEntity
  8
0
100
AcDbCircle
 10
1626.336886892797
 20
1945.063688333531
 30
0.0
 40
5.090450299999996
100
AcDbArc
 50
317.1166899999886
 51
42.88336199998551
  0
LINE
  5
4097
330
5636
100
AcDbEntity
  8
0
100
AcDbLine
 10
1672.627335892797
 20
1990.455993333532
 30
0.0
 11
1672.627335892797
 21
1929.755993333532
 31
0.0
  0
LINE
  5
4098
330
5636
100
AcDbEntity
  8
0
100
AcDbLine
 10
1631.427335892796
 20
1940.455993333531
 30
0.0
 11
1631.427335892796
 21
1970.455993333531
 31
0.0
  0
LINE
  5
4099
330
5636
100
AcDbEntity
  8
0
100
AcDbLine
 10
1657.627335892796
 20
1937.455993333532
 30
0.0
 11
1657.627335892796
 21
1968.455993333532
 31
0.0
  0
LINE
  5
409A
330
5636
100
AcDbEntity
  8
0
100
AcDbLine
 10
1634.627335892797
 20
1923.455993333532
 30
0.0
 11
1634.627335892796
 21
1981.955993333532
 31
0.0
  0
LINE
  5
409B
330
5636
100
AcDbEntity
  8
0
100
AcDbLine
 10
1639.127335892797
 20
1923.455993333532
 30
0.0
 11
1639.127335892796
 21
1981.955993333532
 31
0.0
  0
LINE
  5
409C
330
5636
100
AcDbEntity
  8
0
100
AcDbLine
 10
1671.627335892797
 20
1930.455993333532
 30
0.0
 11
1664.627335892796
 21
1930.455993333532
 31
0.0
  0
ARC
  5
409D
330
5636
100
AcDbEntity
  8
0
100
AcDbCircle
 10
1669.627335892796
 20
1926.455993333531
 30
0.0
 40
3.0
100
AcDbArc
 50
270.0
 51
0.0
  0
ARC
  5
409E
330
5636
100
AcDbEntity
  8
0
100
AcDbCircle
 10
1671.627335892797
 20
1929.455993333532
 30
0.0
 40
1.0
100
AcDbArc
 50
0.0
 51
90.0
  0
LINE
  5
409F
330
5636
100
AcDbEntity
  8
0
100
AcDbLine
 10
1672.627335892797
 20
1929.455993333532
 30
0.0
 11
1672.627335892797
 21
1926.455993333531
 31
0.0
  0
LINE
  5
40A0
330
5636
100
AcDbEntity
  8
0
100
AcDbLine
 10
1639.127335892796
 20
1941.59958687298
 30
0.0
 11
1645.627335892796
 21
1941.59958687298
 31
0.0
  0
LINE
  5
40A1
330
5636
100
AcDbEntity
  8
0
100
AcDbLine
 10
1634.627335892797
 20
1940.455993333531
 30
0.0
 11
1631.427335892796
 21
1940.455993333531
 31
0.0
  0
LINE
  5
40A2
330
5636
100
AcDbEntity
  8
0
100
AcDbLine
 10
1669.627335892796
 20
1923.455993333532
 30
0.0
 11
1634.627335892797
 21
1923.455993333532
 31
0.0
  0
ARC
  5
40A3
330
5636
100
AcDbEntity
  8
0
100
AcDbCircle
 10
1664.627335892796
 20
1937.455993333532
 30
0.0
 40
7.0
100
AcDbArc
 50
180.0
 51
270.0
  0
LINE
  5
40A4
330
5636
100
AcDbEntity
  8
0
100
AcDbLine
 10
1622.787832892797
 20
1941.599599333531
 30
0.0
 11
1630.066868892797
 21
1941.599599333531
 31
0.0
  0
LINE
  5
40A5
330
5636
100
AcDbEntity
  8
0
100
AcDbLine
 10
1671.627335892796
 20
1975.455993333532
 30
0.0
 11
1664.627335892796
 21
1975.455993333532
 31
0.0
  0
LINE
  5
40A6
330
5636
100
AcDbEntity
  8
0
100
AcDbLine
 10
1672.627335892797
 20
1985.955993333532
 30
0.0
 11
1643.127335892796
 21
1985.955993333532
 31
0.0
  0
LINE
  5
40A7
330
5636
100
AcDbEntity
  8
0
100
AcDbLine
 10
1672.627335892797
 20
1990.455993333532
 30
0.0
 11
1643.127335892796
 21
1990.455993333532
 31
0.0
  0
ARC
  5
40A8
330
5636
100
AcDbEntity
  8
0
100
AcDbCircle
 10
1671.627335892797
 20
1976.455993333532
 30
0.0
 40
1.0
100
AcDbArc
 50
270.0
 51
0.0
  0
ARC
  5
40A9
330
5636
100
AcDbEntity
  8
0
100
AcDbCircle
 10
1664.627335892796
 20
1968.455993333532
 30
0.0
 40
7.0
100
AcDbArc
 50
90.0
 51
180.0
  0
ARC
  5
40AA
330
5636
100
AcDbEntity
  8
0
100
AcDbCircle
 10
1626.517814892796
 20
1965.848293333531
 30
0.0
 40
5.090450299999996
100
AcDbArc
 50
137.1166899999886
 51
222.8833700000026
  0
LINE
  5
40AB
330
5636
100
AcDbEntity
  8
0
100
AcDbLine
 10
1621.427365892795
 20
1965.848293333531
 30
0.0
 11
1621.427365892795
 21
1945.063688333531
 31
0.0
  0
ARC
  5
40AC
330
5636
100
AcDbEntity
  8
0
100
AcDbCircle
 10
1639.748545892796
 20
1955.455993333531
 30
0.0
 40
18.321183
100
AcDbArc
 50
157.7807100000188
 51
202.2193300000039
  0
LINE
  5
40AD
330
5636
100
AcDbEntity
  8
0
100
AcDbLine
 10
1639.127335892796
 20
1962.384196563808
 30
0.0
 11
1645.627335892796
 21
1962.384196563808
 31
0.0
  0
LINE
  5
40AE
330
5636
100
AcDbEntity
  8
0
100
AcDbLine
 10
1645.627335892796
 20
1969.312399794082
 30
0.0
 11
1639.127335892796
 21
1969.312399794082
 31
0.0
  0
ARC
  5
40AF
330
5636
100
AcDbEntity
  8
0
100
AcDbCircle
 10
1645.663050178511
 20
1965.848298178945
 30
0.0
 40
3.464285714285712
100
AcDbArc
 50
269.4093113971837
 51
90.59068860281611
  0
LINE
  5
40B0
330
5636
100
AcDbEntity
  8
0
100
AcDbLine
 10
1634.627335892796
 20
1970.455993333531
 30
0.0
 11
1631.427335892796
 21
1970.455993333531
 31
0.0
  0
ARC
  5
40B1
330
5636
100
AcDbEntity
  8
0
100
AcDbCircle
 10
1626.336886892797
 20
1965.848293333531
 30
0.0
 40
5.090450299999996
100
AcDbArc
 50
317.1166399999842
 51
42.8833169999888
  0
LINE
  5
40B2
330
5636
100
AcDbEntity
  8
0
100
AcDbLine
 10
1634.627335892796
 20
1963.955993333531
 30
0.0
 11
1639.127335892796
 21
1963.955993333531
 31
0.0
  0
LINE
  5
40B3
330
5636
100
AcDbEntity
  8
0
100
AcDbLine
 10
1639.127335892796
 20
1948.527790103257
 30
0.0
 11
1645.627335892796
 21
1948.527790103257
 31
0.0
  0
LINE
  5
40B4
330
5636
100
AcDbEntity
  8
0
100
AcDbLine
 10
1634.627335892797
 20
1946.955993333531
 30
0.0
 11
1639.127335892796
 21
1946.955993333531
 31
0.0
  0
LINE
  5
40B5
330
5636
100
AcDbEntity
  8
0
100
AcDbLine
 10
1649.127335892796
 20
1945.063688488119
 30
0.0
 11
1649.127335892796
 21
1965.848298178945
 31
0.0
  0
ARC
  5
40B6
330
5636
100
AcDbEntity
  8
0
100
AcDbCircle
 10
1640.520193035654
 20
1955.455993333533
 30
0.0
 40
8.607142857142848
100
AcDbArc
 50
306.395879198099
 51
53.60412080190094
  0
ARC
  5
40B7
330
5636
100
AcDbEntity
  8
0
100
AcDbCircle
 10
1613.106162892797
 20
1955.455993333531
 30
0.0
 40
18.321183
100
AcDbArc
 50
337.7806799999988
 51
22.21929999997801
  0
LINE
  5
40B8
330
5636
100
AcDbEntity
  8
0
100
AcDbLine
 10
1622.787826892796
 20
1962.384183333531
 30
0.0
 11
1630.066875892796
 21
1962.384183333531
 31
0.0
  0
LINE
  5
40B9
330
5636
100
AcDbEntity
  8
0
100
AcDbLine
 10
1622.787826892796
 20
1969.312373333531
 30
0.0
 11
1630.066875892796
 21
1969.312373333531
 31
0.0
  0
LINE
  5
40BA
330
5636
100
AcDbEntity
  8
0
100
AcDbLine
 10
1622.787826892796
 20
1948.527784333531
 30
0.0
 11
1630.066875892796
 21
1948.527784333531
 31
0.0
  0
ARC
  5
40BB
330
5636
100
AcDbEntity
  8
0
100
AcDbCircle
 10
1643.127335892796
 20
1981.955993333532
 30
0.0
 40
4.0
100
AcDbArc
 50
90.0
 51
180.0
  0
ARC
  5
40BC
330
5636
100
AcDbEntity
  8
0
100
AcDbCircle
 10
1643.127335892796
 20
1981.955993333532
 30
0.0
 40
8.5
100
AcDbArc
 50
90.0
 51
180.0
  0
ARC
  5
40BD
330
5636
100
AcDbEntity
  8
0
100
AcDbCircle
 10
1592.717801892796
 20
1945.063699728837
 30
0.0
 40
5.090450299999996
100
AcDbArc
 50
137.1166399999842
 51
222.8833200000171
  0
LINE
  5
40BE
330
5636
100
AcDbEntity
  8
0
100
AcDbLine
 10
1561.327335892796
 20
1932.455993333532
 30
0.0
 11
1561.327335892796
 21
1945.322062080849
 31
0.0
  0
ARC
  5
40BF
330
5636
100
AcDbEntity
  8
0
100
AcDbCircle
 10
1561.327335892796
 20
1930.455993333532
 30
0.0
 40
17.0
100
AcDbArc
 50
97.66225566075904
 51
172.3377443392417
  0
LINE
  5
40C0
330
5636
100
AcDbEntity
  8
0
100
AcDbLine
 10
1534.627335892796
 20
1990.455993333532
 30
0.0
 11
1534.627335892796
 21
1923.455993333532
 31
0.0
  0
LINE
  5
40C1
330
5636
100
AcDbEntity
  8
0
100
AcDbLine
 10
1608.127335892796
 20
1933.955993333531
 30
0.0
 11
1608.127335892797
 21
1955.455993333531
 31
0.0
  0
LINE
  5
40C2
330
5636
100
AcDbEntity
  8
0
100
AcDbLine
 10
1604.627335892796
 20
1923.455993333532
 30
0.0
 11
1604.627335892797
 21
1955.455993333531
 31
0.0
  0
LINE
  5
40C3
330
5636
100
AcDbEntity
  8
0
100
AcDbLine
 10
1600.127335892796
 20
1923.455993333532
 30
0.0
 11
1600.127335892797
 21
1955.455993333531
 31
0.0
  0
LINE
  5
40C4
330
5636
100
AcDbEntity
  8
0
100
AcDbLine
 10
1615.627335892796
 20
1935.455993333531
 30
0.0
 11
1615.627335892796
 21
1955.455993333531
 31
0.0
  0
LINE
  5
40C5
330
5636
100
AcDbEntity
  8
0
100
AcDbLine
 10
1534.627335892796
 20
1923.455993333532
 30
0.0
 11
1604.627335892796
 21
1923.455993333532
 31
0.0
  0
ARC
  5
40C6
330
5636
100
AcDbEntity
  8
0
100
AcDbCircle
 10
1559.327335892796
 20
1932.455993333532
 30
0.0
 40
2.0
100
AcDbArc
 50
270.0
 51
0.0
  0
LINE
  5
40C7
330
5636
100
AcDbEntity
  8
0
100
AcDbLine
 10
1588.987813892797
 20
1941.599609728837
 30
0.0
 11
1600.127335892796
 21
1941.599609728837
 31
0.0
  0
LINE
  5
40C8
330
5636
100
AcDbEntity
  8
0
100
AcDbLine
 10
1608.127335892796
 20
1933.955993333531
 30
0.0
 11
1615.627335892796
 21
1933.955993333531
 31
0.0
  0
LINE
  5
40C9
330
5636
100
AcDbEntity
  8
0
100
AcDbLine
 10
1615.627335892796
 20
1933.955993333531
 30
0.0
 11
1615.627335892796
 21
1935.455993333531
 31
0.0
  0
ARC
  5
40CA
330
5636
100
AcDbEntity
  8
0
100
AcDbCircle
 10
1546.461267145477
 20
1932.455993333532
 30
0.0
 40
2.0
100
AcDbArc
 50
172.3377443392417
 51
270.0
  0
LINE
  5
40CB
330
5636
100
AcDbEntity
  8
0
100
AcDbLine
 10
1559.327335892796
 20
1930.455993333532
 30
0.0
 11
1546.461267145477
 21
1930.455993333532
 31
0.0
  0
ARC
  5
40CC
330
5636
100
AcDbEntity
  8
0
100
AcDbCircle
 10
1559.327335892796
 20
1965.589924586214
 30
0.0
 40
2.0
100
AcDbArc
 50
262.3377443392409
 51
0.0
  0
ARC
  5
40CD
330
5636
100
AcDbEntity
  8
0
100
AcDbCircle
 10
1559.327335892796
 20
1978.455993333533
 30
0.0
 40
2.0
100
AcDbArc
 50
0.0
 51
90.0
  0
LINE
  5
40CE
330
5636
100
AcDbEntity
  8
0
100
AcDbLine
 10
1534.627335892796
 20
1985.955993333532
 30
0.0
 11
1597.127335892797
 21
1985.955993333532
 31
0.0
  0
LINE
  5
40CF
330
5636
100
AcDbEntity
  8
0
100
AcDbLine
 10
1534.627335892796
 20
1990.455993333532
 30
0.0
 11
1597.127335892797
 21
1990.455993333532
 31
0.0
  0
ARC
  5
40D0
330
5636
100
AcDbEntity
  8
0
100
AcDbCircle
 10
1559.327335892796
 20
1945.322062080849
 30
0.0
 40
2.0
100
AcDbArc
 50
0.0
 51
97.66225566075904
  0
LINE
  5
40D1
330
5636
100
AcDbEntity
  8
0
100
AcDbLine
 10
1600.127335892796
 20
1955.455993333531
 30
0.0
 11
1600.127335892797
 21
1982.955993333532
 31
0.0
  0
LINE
  5
40D2
330
5636
100
AcDbEntity
  8
0
100
AcDbLine
 10
1604.627335892796
 20
1955.455993333531
 30
0.0
 11
1604.627335892797
 21
1982.955993333531
 31
0.0
  0
LINE
  5
40D3
330
5636
100
AcDbEntity
  8
0
100
AcDbLine
 10
1608.127335892796
 20
1955.455993333531
 30
0.0
 11
1608.127335892796
 21
1976.955993333531
 31
0.0
  0
LINE
  5
40D4
330
5636
100
AcDbEntity
  8
0
100
AcDbLine
 10
1615.627335892796
 20
1955.455993333531
 30
0.0
 11
1615.627335892796
 21
1975.455993333531
 31
0.0
  0
LINE
  5
40D5
330
5636
100
AcDbEntity
  8
0
100
AcDbLine
 10
1561.327335892796
 20
1978.455993333533
 30
0.0
 11
1561.327335892796
 21
1965.589924586214
 31
0.0
  0
LINE
  5
40D6
330
5636
100
AcDbEntity
  8
0
100
AcDbLine
 10
1588.987813892797
 20
1969.312399728837
 30
0.0
 11
1600.127335892796
 21
1969.312399728837
 31
0.0
  0
LINE
  5
40D7
330
5636
100
AcDbEntity
  8
0
100
AcDbLine
 10
1588.987813892797
 20
1962.384209728837
 30
0.0
 11
1600.127335892796
 21
1962.384209728837
 31
0.0
  0
ARC
  5
40D8
330
5636
100
AcDbEntity
  8
0
100
AcDbCircle
 10
1592.717801892796
 20
1965.848309728838
 30
0.0
 40
5.090450299999996
100
AcDbArc
 50
137.1166899999886
 51
222.8833700000026
  0
LINE
  5
40D9
330
5636
100
AcDbEntity
  8
0
100
AcDbLine
 10
1608.127335892796
 20
1967.255993333532
 30
0.0
 11
1604.627335892796
 21
1967.255993333532
 31
0.0
  0
LINE
  5
40DA
330
5636
100
AcDbEntity
  8
0
100
AcDbLine
 10
1588.987813892797
 20
1948.527789728836
 30
0.0
 11
1600.127335892796
 21
1948.527789728836
 31
0.0
  0
LINE
  5
40DB
330
5636
100
AcDbEntity
  8
0
100
AcDbLine
 10
1608.127335892796
 20
1943.655993333532
 30
0.0
 11
1604.627335892796
 21
1943.655993333532
 31
0.0
  0
LINE
  5
40DC
330
5636
100
AcDbEntity
  8
0
100
AcDbLine
 10
1587.627352892796
 20
1965.848309728838
 30
0.0
 11
1587.627352892796
 21
1945.063699728837
 31
0.0
  0
ARC
  5
40DD
330
5636
100
AcDbEntity
  8
0
100
AcDbCircle
 10
1605.948515892796
 20
1955.455999728837
 30
0.0
 40
18.321183
100
AcDbArc
 50
157.7807100000188
 51
202.2193300000039
  0
LINE
  5
40DE
330
5636
100
AcDbEntity
  8
0
100
AcDbLine
 10
1615.627335892796
 20
1975.455993333531
 30
0.0
 11
1615.627335892796
 21
1976.955993333531
 31
0.0
  0
LINE
  5
40DF
330
5636
100
AcDbEntity
  8
0
100
AcDbLine
 10
1608.127335892796
 20
1976.955993333531
 30
0.0
 11
1615.627335892796
 21
1976.955993333531
 31
0.0
  0
ARC
  5
40E0
330
5636
100
AcDbEntity
  8
0
100
AcDbCircle
 10
1597.127335892797
 20
1982.955993333532
 30
0.0
 40
3.0
100
AcDbArc
 50
0.0
 51
90.0
  0
ARC
  5
40E1
330
5636
100
AcDbEntity
  8
0
100
AcDbCircle
 10
1597.127335892797
 20
1982.955993333532
 30
0.0
 40
7.5
100
AcDbArc
 50
0.0
 51
90.0
  0
ARC
  5
40E2
330
5636
100
AcDbEntity
  8
0
100
AcDbCircle
 10
1561.327335892796
 20
1980.455993333533
 30
0.0
 40
17.0
100
AcDbArc
 50
187.6622556607582
 51
262.3377443392409
  0
ARC
  5
40E3
330
5636
100
AcDbEntity
  8
0
100
AcDbCircle
 10
1546.461267145477
 20
1978.455993333532
 30
0.0
 40
2.0
100
AcDbArc
 50
90.0
 51
187.6622556607582
  0
LINE
  5
40E4
330
5636
100
AcDbEntity
  8
0
100
AcDbLine
 10
1559.327335892796
 20
1980.455993333533
 30
0.0
 11
1546.461267145477
 21
1980.455993333532
 31
0.0
  0
LINE
  5
40E5
330
5636
100
AcDbEntity
  8
0
100
AcDbLine
 10
1600.127335892796
 20
2341.455993422747
 30
0.0
 11
1600.127335892797
 21
2313.955993422746
 31
0.0
  0
LINE
  5
40E6
330
5636
100
AcDbEntity
  8
0
100
AcDbLine
 10
1604.627335892796
 20
2341.455993422747
 30
0.0
 11
1604.627335892797
 21
2313.955993422746
 31
0.0
  0
ARC
  5
40E7
330
5636
100
AcDbEntity
  8
0
100
AcDbCircle
 10
1592.717801892796
 20
2331.06367702744
 30
0.0
 40
5.090450299999996
100
AcDbArc
 50
137.1166299999973
 51
222.8833100000113
  0
LINE
  5
40E8
330
5636
100
AcDbEntity
  8
0
100
AcDbLine
 10
1608.127335892796
 20
2341.455993422747
 30
0.0
 11
1608.127335892796
 21
2319.955993422746
 31
0.0
  0
LINE
  5
40E9
330
5636
100
AcDbEntity
  8
0
100
AcDbLine
 10
1615.627335892796
 20
2341.455993422747
 30
0.0
 11
1615.627335892796
 21
2321.455993422746
 31
0.0
  0
ARC
  5
40EA
330
5636
100
AcDbEntity
  8
0
100
AcDbCircle
 10
1626.517814892796
 20
2331.063693422746
 30
0.0
 40
5.090450299999996
100
AcDbArc
 50
137.1166299999973
 51
222.8833100000113
  0
ARC
  5
40EB
330
5636
100
AcDbEntity
  8
0
100
AcDbCircle
 10
1559.327335892796
 20
2331.322062170064
 30
0.0
 40
2.0
100
AcDbArc
 50
0.0
 51
97.66225566075904
  0
ARC
  5
40EC
330
5636
100
AcDbEntity
  8
0
100
AcDbCircle
 10
1561.327335892796
 20
2316.455993422744
 30
0.0
 40
17.0
100
AcDbArc
 50
97.66225566075904
 51
172.3377443392417
  0
LINE
  5
40ED
330
5636
100
AcDbEntity
  8
0
100
AcDbLine
 10
1534.627335892796
 20
2306.455993422745
 30
0.0
 11
1534.627335892796
 21
2373.455993422746
 31
0.0
  0
LINE
  5
40EE
330
5636
100
AcDbEntity
  8
0
100
AcDbLine
 10
1587.627352892796
 20
2331.06367702744
 30
0.0
 11
1587.627352892796
 21
2351.848287027441
 31
0.0
  0
LINE
  5
40EF
330
5636
100
AcDbEntity
  8
0
100
AcDbLine
 10
1621.427365892795
 20
2331.063693422746
 30
0.0
 11
1621.427365892795
 21
2351.848298422747
 31
0.0
  0
ARC
  5
40F0
330
5636
100
AcDbEntity
  8
0
100
AcDbCircle
 10
1645.663050178511
 20
2331.063688577332
 30
0.0
 40
3.464285714285712
100
AcDbArc
 50
269.4093113971837
 51
90.59068860281611
  0
ARC
  5
40F1
330
5636
100
AcDbEntity
  8
0
100
AcDbCircle
 10
1626.336886892797
 20
2331.063693422746
 30
0.0
 40
5.090450299999996
100
AcDbArc
 50
317.1166830000112
 51
42.88336000001573
  0
LINE
  5
40F2
330
5636
100
AcDbEntity
  8
0
100
AcDbLine
 10
1672.627335892797
 20
2306.455993422745
 30
0.0
 11
1672.627335892797
 21
2367.155993422745
 31
0.0
  0
LINE
  5
40F3
330
5636
100
AcDbEntity
  8
0
100
AcDbLine
 10
1649.127335892796
 20
2351.848298268158
 30
0.0
 11
1649.127335892796
 21
2331.063688577332
 31
0.0
  0
LINE
  5
40F4
330
5636
100
AcDbEntity
  8
0
100
AcDbLine
 10
1631.427335892796
 20
2356.455993422747
 30
0.0
 11
1631.427335892796
 21
2326.455993422746
 31
0.0
  0
LINE
  5
40F5
330
5636
100
AcDbEntity
  8
0
100
AcDbLine
 10
1657.627335892796
 20
2359.455993422745
 30
0.0
 11
1657.627335892796
 21
2328.455993422746
 31
0.0
  0
LINE
  5
40F6
330
5636
100
AcDbEntity
  8
0
100
AcDbLine
 10
1634.627335892797
 20
2373.455993422746
 30
0.0
 11
1634.627335892796
 21
2314.955993422746
 31
0.0
  0
LINE
  5
40F7
330
5636
100
AcDbEntity
  8
0
100
AcDbLine
 10
1639.127335892797
 20
2373.455993422746
 30
0.0
 11
1639.127335892796
 21
2314.955993422746
 31
0.0
  0
LINE
  5
40F8
330
5636
100
AcDbEntity
  8
0
100
AcDbLine
 10
1671.627335892796
 20
2321.455993422746
 30
0.0
 11
1664.627335892796
 21
2321.455993422746
 31
0.0
  0
LINE
  5
40F9
330
5636
100
AcDbEntity
  8
0
100
AcDbLine
 10
1672.627335892797
 20
2310.955993422746
 30
0.0
 11
1643.127335892796
 21
2310.955993422746
 31
0.0
  0
LINE
  5
40FA
330
5636
100
AcDbEntity
  8
0
100
AcDbLine
 10
1672.627335892797
 20
2306.455993422745
 30
0.0
 11
1643.127335892796
 21
2306.455993422745
 31
0.0
  0
ARC
  5
40FB
330
5636
100
AcDbEntity
  8
0
100
AcDbCircle
 10
1671.627335892797
 20
2320.455993422745
 30
0.0
 40
1.0
100
AcDbArc
 50
0.0
 51
90.0
  0
ARC
  5
40FC
330
5636
100
AcDbEntity
  8
0
100
AcDbCircle
 10
1643.127335892796
 20
2314.955993422746
 30
0.0
 40
4.0
100
AcDbArc
 50
180.0
 51
270.0
  0
ARC
  5
40FD
330
5636
100
AcDbEntity
  8
0
100
AcDbCircle
 10
1643.127335892796
 20
2314.955993422746
 30
0.0
 40
8.5
100
AcDbArc
 50
180.0
 51
270.0
  0
LINE
  5
40FE
330
5636
100
AcDbEntity
  8
0
100
AcDbLine
 10
1645.627335892796
 20
2327.599586962194
 30
0.0
 11
1639.127335892796
 21
2327.599586962194
 31
0.0
  0
LINE
  5
40FF
330
5636
100
AcDbEntity
  8
0
100
AcDbLine
 10
1634.627335892796
 20
2326.455993422746
 30
0.0
 11
1631.427335892796
 21
2326.455993422746
 31
0.0
  0
ARC
  5
4100
330
5636
100
AcDbEntity
  8
0
100
AcDbCircle
 10
1664.627335892796
 20
2328.455993422746
 30
0.0
 40
7.0
100
AcDbArc
 50
180.0
 51
270.0
  0
LINE
  5
4101
330
5636
100
AcDbEntity
  8
0
100
AcDbLine
 10
1622.787826892796
 20
2327.599613422747
 30
0.0
 11
1630.066875892796
 21
2327.599613422747
 31
0.0
  0
ARC
  5
4102
330
5636
100
AcDbEntity
  8
0
100
AcDbCircle
 10
1559.327335892796
 20
2318.455993422745
 30
0.0
 40
2.0
100
AcDbArc
 50
270.0
 51
0.0
  0
LINE
  5
4103
330
5636
100
AcDbEntity
  8
0
100
AcDbLine
 10
1534.627335892796
 20
2310.955993422746
 30
0.0
 11
1597.127335892797
 21
2310.955993422746
 31
0.0
  0
LINE
  5
4104
330
5636
100
AcDbEntity
  8
0
100
AcDbLine
 10
1534.627335892796
 20
2306.455993422745
 30
0.0
 11
1597.127335892797
 21
2306.455993422745
 31
0.0
  0
LINE
  5
4105
330
5636
100
AcDbEntity
  8
0
100
AcDbLine
 10
1588.987813892797
 20
2327.599587027441
 30
0.0
 11
1600.127335892796
 21
2327.599587027441
 31
0.0
  0
LINE
  5
4106
330
5636
100
AcDbEntity
  8
0
100
AcDbLine
 10
1608.127335892796
 20
2329.655993422747
 30
0.0
 11
1604.627335892796
 21
2329.655993422747
 31
0.0
  0
LINE
  5
4107
330
5636
100
AcDbEntity
  8
0
100
AcDbLine
 10
1615.627335892796
 20
2321.455993422746
 30
0.0
 11
1615.627335892796
 21
2319.955993422746
 31
0.0
  0
LINE
  5
4108
330
5636
100
AcDbEntity
  8
0
100
AcDbLine
 10
1608.127335892796
 20
2319.955993422746
 30
0.0
 11
1615.627335892796
 21
2319.955993422746
 31
0.0
  0
LINE
  5
4109
330
5636
100
AcDbEntity
  8
0
100
AcDbLine
 10
1561.327335892796
 20
2318.455993422745
 30
0.0
 11
1561.327335892796
 21
2331.322062170064
 31
0.0
  0
ARC
  5
410A
330
5636
100
AcDbEntity
  8
0
100
AcDbCircle
 10
1597.127335892797
 20
2313.955993422746
 30
0.0
 40
3.0
100
AcDbArc
 50
270.0
 51
0.0
  0
ARC
  5
410B
330
5636
100
AcDbEntity
  8
0
100
AcDbCircle
 10
1597.127335892797
 20
2313.955993422746
 30
0.0
 40
7.5
100
AcDbArc
 50
270.0
 51
0.0
  0
ARC
  5
410C
330
5636
100
AcDbEntity
  8
0
100
AcDbCircle
 10
1546.461267145477
 20
2318.455993422745
 30
0.0
 40
2.0
100
AcDbArc
 50
172.3377443392417
 51
270.0
  0
LINE
  5
410D
330
5636
100
AcDbEntity
  8
0
100
AcDbLine
 10
1559.327335892796
 20
2316.455993422744
 30
0.0
 11
1546.461267145477
 21
2316.455993422746
 31
0.0
  0
LINE
  5
410E
330
5636
100
AcDbEntity
  8
0
100
AcDbLine
 10
1615.627335892797
 20
2333.482537461367
 30
0.0
 11
1621.427365892795
 21
2333.480900898212
 31
0.0
  0
LINE
  5
410F
330
5636
100
AcDbEntity
  8
0
100
AcDbLine
 10
1615.627335892796
 20
2349.482538037805
 30
0.0
 11
1621.427365892795
 21
2349.480901474652
 31
0.0
  0
LINE
  5
4110
330
5636
100
AcDbEntity
  8
0
100
AcDbLine
 10
1577.967792590526
 20
2341.455993422747
 30
0.0
 11
1655.251167163315
 21
2341.455993422747
 31
0.0
  0
LINE
  5
4111
330
5636
100
AcDbEntity
  8
0
100
AcDbLine
 10
1671.627335892797
 20
2366.455993422746
 30
0.0
 11
1664.627335892796
 21
2366.455993422746
 31
0.0
  0
ARC
  5
4112
330
5636
100
AcDbEntity
  8
0
100
AcDbCircle
 10
1669.627335892796
 20
2370.455993422746
 30
0.0
 40
3.0
100
AcDbArc
 50
0.0
 51
90.0
  0
ARC
  5
4113
330
5636
100
AcDbEntity
  8
0
100
AcDbCircle
 10
1671.627335892797
 20
2367.455993422746
 30
0.0
 40
1.0
100
AcDbArc
 50
270.0
 51
0.0
  0
LINE
  5
4114
330
5636
100
AcDbEntity
  8
0
100
AcDbLine
 10
1672.627335892797
 20
2367.455993422746
 30
0.0
 11
1672.627335892797
 21
2370.455993422746
 31
0.0
  0
ARC
  5
4115
330
5636
100
AcDbEntity
  8
0
100
AcDbCircle
 10
1664.627335892796
 20
2359.455993422745
 30
0.0
 40
7.0
100
AcDbArc
 50
90.0
 51
180.0
  0
ARC
  5
4116
330
5636
100
AcDbEntity
  8
0
100
AcDbCircle
 10
1626.517814892796
 20
2351.848298422747
 30
0.0
 40
5.090450299999996
100
AcDbArc
 50
137.1166799999828
 51
222.8833600000157
  0
ARC
  5
4117
330
5636
100
AcDbEntity
  8
0
100
AcDbCircle
 10
1639.748545892796
 20
2341.455993422747
 30
0.0
 40
18.321183
100
AcDbArc
 50
157.7806699999961
 51
202.219289999981
  0
LINE
  5
4118
330
5636
100
AcDbEntity
  8
0
100
AcDbLine
 10
1639.127335892796
 20
2334.527790192469
 30
0.0
 11
1645.627335892796
 21
2334.527790192469
 31
0.0
  0
LINE
  5
4119
330
5636
100
AcDbEntity
  8
0
100
AcDbLine
 10
1634.627335892796
 20
2332.955993422745
 30
0.0
 11
1639.127335892796
 21
2332.955993422745
 31
0.0
  0
ARC
  5
411A
330
5636
100
AcDbEntity
  8
0
100
AcDbCircle
 10
1645.663050178511
 20
2351.848298268158
 30
0.0
 40
3.464285714285712
100
AcDbArc
 50
269.4093113971837
 51
90.59068860281611
  0
LINE
  5
411B
330
5636
100
AcDbEntity
  8
0
100
AcDbLine
 10
1639.127335892796
 20
2355.312399883296
 30
0.0
 11
1645.627335892796
 21
2355.312399883296
 31
0.0
  0
LINE
  5
411C
330
5636
100
AcDbEntity
  8
0
100
AcDbLine
 10
1639.127335892796
 20
2348.38419665302
 30
0.0
 11
1645.627335892796
 21
2348.38419665302
 31
0.0
  0
ARC
  5
411D
330
5636
100
AcDbEntity
  8
0
100
AcDbCircle
 10
1626.336886892797
 20
2351.848298422747
 30
0.0
 40
5.090450299999996
100
AcDbArc
 50
317.1166380000145
 51
42.88331000001131
  0
LINE
  5
411E
330
5636
100
AcDbEntity
  8
0
100
AcDbLine
 10
1634.627335892797
 20
2356.455993422747
 30
0.0
 11
1631.427335892796
 21
2356.455993422747
 31
0.0
  0
LINE
  5
411F
330
5636
100
AcDbEntity
  8
0
100
AcDbLine
 10
1634.627335892797
 20
2349.955993422746
 30
0.0
 11
1639.127335892796
 21
2349.955993422746
 31
0.0
  0
ARC
  5
4120
330
5636
100
AcDbEntity
  8
0
100
AcDbCircle
 10
1640.520193035654
 20
2341.455993422745
 30
0.0
 40
8.607142857142848
100
AcDbArc
 50
306.395879198099
 51
53.60412080190094
  0
ARC
  5
4121
330
5636
100
AcDbEntity
  8
0
100
AcDbCircle
 10
1613.106162892797
 20
2341.455993422747
 30
0.0
 40
18.321183
100
AcDbArc
 50
337.7807000000217
 51
22.21932000000121
  0
LINE
  5
4122
330
5636
100
AcDbEntity
  8
0
100
AcDbLine
 10
1622.787826892796
 20
2334.527803422746
 30
0.0
 11
1630.066875892796
 21
2334.527803422746
 31
0.0
  0
LINE
  5
4123
330
5636
100
AcDbEntity
  8
0
100
AcDbLine
 10
1622.787832892797
 20
2355.312387422745
 30
0.0
 11
1630.066868892797
 21
2355.312387422745
 31
0.0
  0
LINE
  5
4124
330
5636
100
AcDbEntity
  8
0
100
AcDbLine
 10
1622.787826892796
 20
2348.384202422746
 30
0.0
 11
1630.066875892796
 21
2348.384202422746
 31
0.0
  0
LINE
  5
4125
330
5636
100
AcDbEntity
  8
0
100
AcDbLine
 10
1669.627335892796
 20
2373.455993422746
 30
0.0
 11
1634.627335892797
 21
2373.455993422746
 31
0.0
  0
LINE
  5
4126
330
5636
100
AcDbEntity
  8
0
100
AcDbLine
 10
1534.627335892796
 20
2373.455993422746
 30
0.0
 11
1604.627335892796
 21
2373.455993422746
 31
0.0
  0
ARC
  5
4127
330
5636
100
AcDbEntity
  8
0
100
AcDbCircle
 10
1559.327335892796
 20
2364.455993422746
 30
0.0
 40
2.0
100
AcDbArc
 50
0.0
 51
90.0
  0
ARC
  5
4128
330
5636
100
AcDbEntity
  8
0
100
AcDbCircle
 10
1559.327335892796
 20
2351.589924675427
 30
0.0
 40
2.0
100
AcDbArc
 50
262.3377443392409
 51
0.0
  0
LINE
  5
4129
330
5636
100
AcDbEntity
  8
0
100
AcDbLine
 10
1561.327335892796
 20
2364.455993422746
 30
0.0
 11
1561.327335892796
 21
2351.589924675427
 31
0.0
  0
LINE
  5
412A
330
5636
100
AcDbEntity
  8
0
100
AcDbLine
 10
1608.127335892796
 20
2362.955993422747
 30
0.0
 11
1608.127335892797
 21
2341.455993422747
 31
0.0
  0
LINE
  5
412B
330
5636
100
AcDbEntity
  8
0
100
AcDbLine
 10
1604.627335892796
 20
2373.455993422746
 30
0.0
 11
1604.627335892797
 21
2341.455993422747
 31
0.0
  0
LINE
  5
412C
330
5636
100
AcDbEntity
  8
0
100
AcDbLine
 10
1600.127335892796
 20
2373.455993422746
 30
0.0
 11
1600.127335892797
 21
2341.455993422747
 31
0.0
  0
LINE
  5
412D
330
5636
100
AcDbEntity
  8
0
100
AcDbLine
 10
1615.627335892796
 20
2361.455993422747
 30
0.0
 11
1615.627335892796
 21
2341.455993422747
 31
0.0
  0
LINE
  5
412E
330
5636
100
AcDbEntity
  8
0
100
AcDbLine
 10
1588.987813892797
 20
2334.527777027441
 30
0.0
 11
1600.127335892796
 21
2334.527777027441
 31
0.0
  0
LINE
  5
412F
330
5636
100
AcDbEntity
  8
0
100
AcDbLine
 10
1588.987813892797
 20
2355.31237702744
 30
0.0
 11
1600.127335892796
 21
2355.31237702744
 31
0.0
  0
LINE
  5
4130
330
5636
100
AcDbEntity
  8
0
100
AcDbLine
 10
1588.987813892797
 20
2348.38419702744
 30
0.0
 11
1600.127335892796
 21
2348.38419702744
 31
0.0
  0
ARC
  5
4131
330
5636
100
AcDbEntity
  8
0
100
AcDbCircle
 10
1592.717801892796
 20
2351.848287027441
 30
0.0
 40
5.090450299999996
100
AcDbArc
 50
137.1166799999828
 51
222.8833600000157
  0
LINE
  5
4132
330
5636
100
AcDbEntity
  8
0
100
AcDbLine
 10
1608.127335892796
 20
2353.255993422745
 30
0.0
 11
1604.627335892796
 21
2353.255993422746
 31
0.0
  0
ARC
  5
4133
330
5636
100
AcDbEntity
  8
0
100
AcDbCircle
 10
1605.948515892796
 20
2341.45598702744
 30
0.0
 40
18.321183
100
AcDbArc
 50
157.7806699999961
 51
202.219289999981
  0
LINE
  5
4134
330
5636
100
AcDbEntity
  8
0
100
AcDbLine
 10
1608.127335892796
 20
2362.955993422747
 30
0.0
 11
1615.627335892796
 21
2362.955993422747
 31
0.0
  0
LINE
  5
4135
330
5636
100
AcDbEntity
  8
0
100
AcDbLine
 10
1615.627335892796
 20
2362.955993422747
 30
0.0
 11
1615.627335892796
 21
2361.455993422747
 31
0.0
  0
ARC
  5
4136
330
5636
100
AcDbEntity
  8
0
100
AcDbCircle
 10
1561.327335892796
 20
2366.455993422746
 30
0.0
 40
17.0
100
AcDbArc
 50
187.6622556607582
 51
262.3377443392409
  0
ARC
  5
4137
330
5636
100
AcDbEntity
  8
0
100
AcDbCircle
 10
1546.461267145477
 20
2364.455993422746
 30
0.0
 40
2.0
100
AcDbArc
 50
90.0
 51
187.6622556607582
  0
LINE
  5
4138
330
5636
100
AcDbEntity
  8
0
100
AcDbLine
 10
1559.327335892796
 20
2366.455993422746
 30
0.0
 11
1546.461267145477
 21
2366.455993422746
 31
0.0
  0
LINE
  5
4766
330
5636
100
AcDbEntity
  8
0
100
AcDbLine
 10
1152.490549348222
 20
1935.784196290452
 30
0.0
 11
1216.786813859809
 21
1935.784196290452
 31
0.0
  0
LINE
  5
4767
330
5636
100
AcDbEntity
  8
0
100
AcDbLine
 10
1152.490549348222
 20
1955.784196290452
 30
0.0
 11
1216.786813859809
 21
1955.784196290452
 31
0.0
  0
LINE
  5
4768
330
5636
100
AcDbEntity
  8
0
100
AcDbLine
 10
1152.490549348222
 20
1955.784196290452
 30
0.0
 11
1152.490549348222
 21
1935.784196290452
 31
0.0
  0
LINE
  5
4769
330
5636
100
AcDbEntity
  8
0
100
AcDbLine
 10
1216.786813859809
 20
1955.784196290452
 30
0.0
 11
1216.786813859809
 21
1935.784196290452
 31
0.0
  0
ARC
  5
4A34
330
5636
100
AcDbEntity
  8
0
100
AcDbCircle
 10
774.9999999993998
 20
1600.499999999607
 30
0.0
 40
1.0
100
AcDbArc
 50
270.0
 51
90.0
  0
ARC
  5
4A35
330
5636
100
AcDbEntity
  8
0
100
AcDbCircle
 10
764.9999999993998
 20
1622.243557214409
 30
0.0
 40
10.0
100
AcDbArc
 50
0.0
 51
14.32271997981844
  0
LINE
  5
4A36
330
5636
100
AcDbEntity
  8
0
100
AcDbLine
 10
774.9999999993998
 20
1591.499999999608
 30
0.0
 11
774.9999999993998
 21
1599.499999999609
 31
0.0
  0
LINE
  5
4A37
330
5636
100
AcDbEntity
  8
0
100
AcDbLine
 10
774.9999999993998
 20
1601.499999999608
 30
0.0
 11
774.9999999993998
 21
1622.243557214409
 31
0.0
  0
LINE
  5
4A38
330
5636
100
AcDbEntity
  8
0
100
AcDbLine
 10
774.6891771055
 20
1624.717389667409
 30
0.0
 11
768.9999999986995
 21
1647.000000000009
 31
0.0
  0
ARC
  5
4A39
330
5636
100
AcDbEntity
  8
0
100
AcDbCircle
 10
767.9999999986995
 20
1648.000000000008
 30
0.0
 40
1.0
100
AcDbArc
 50
0.0
 51
90.0
  0
LINE
  5
4A3A
330
5636
100
AcDbEntity
  8
0
100
AcDbLine
 10
768.9999999986995
 20
1647.000000000009
 30
0.0
 11
768.9999999986995
 21
1648.000000000008
 31
0.0
  0
LINE
  5
4A3B
330
5636
100
AcDbEntity
  8
0
100
AcDbLine
 10
740.0000000000001
 20
1601.499999999608
 30
0.0
 11
774.9999999993998
 21
1601.499999999608
 31
0.0
  0
LINE
  5
4A3C
330
5636
100
AcDbEntity
  8
0
100
AcDbLine
 10
740.0000000000001
 20
1599.499999999609
 30
0.0
 11
774.9999999993998
 21
1599.499999999609
 31
0.0
  0
LINE
  5
4A3D
330
5636
100
AcDbEntity
  8
0
100
AcDbLine
 10
740.0000000000001
 20
1591.499999999608
 30
0.0
 11
774.9999999993998
 21
1591.499999999608
 31
0.0
  0
LINE
  5
4A3E
330
5636
100
AcDbEntity
  8
0
100
AcDbLine
 10
740.0000000000001
 20
1649.000000000008
 30
0.0
 11
767.9999999986995
 21
1649.000000000008
 31
0.0
  0
LINE
  5
4A3F
330
5636
100
AcDbEntity
  8
0
100
AcDbLine
 10
770.000000000384
 20
1560.999999999999
 30
0.0
 11
740.0000000000001
 21
1560.999999999999
 31
0.0
  0
LINE
  5
4A40
330
5636
100
AcDbEntity
  8
0
100
AcDbLine
 10
770.000000000384
 20
1560.999999999999
 30
0.0
 11
770.000000000384
 21
1573.999999999999
 31
0.0
  0
LINE
  5
4A42
330
5636
100
AcDbEntity
  8
0
100
AcDbLine
 10
769.0000000000001
 20
1573.999999999998
 30
0.0
 11
769.0000000000001
 21
1591.500000000147
 31
0.0
  0
LINE
  5
4A43
330
5636
100
AcDbEntity
  8
0
100
AcDbLine
 10
770.000000000384
 20
1573.999999999999
 30
0.0
 11
770.000000000384
 21
1571.999999999999
 31
0.0
  0
LINE
  5
4A44
330
5636
100
AcDbEntity
  8
0
100
AcDbLine
 10
770.000000000384
 20
1573.999999999999
 30
0.0
 11
740.0000000000001
 21
1573.999999999999
 31
0.0
  0
LINE
  5
4A45
330
5636
100
AcDbEntity
  8
0
100
AcDbLine
 10
740.0000000000001
 20
1591.500000000147
 30
0.0
 11
769.0000000000001
 21
1591.500000000147
 31
0.0
  0
LINE
  5
4A46
330
5636
100
AcDbEntity
  8
0
100
AcDbLine
 10
757.0000000000001
 20
1650.0
 30
0.0
 11
757.0000000000001
 21
1649.000000000008
 31
0.0
  0
LINE
  5
4A47
330
5636
100
AcDbEntity
  8
0
100
AcDbLine
 10
757.0000000000001
 20
1650.0
 30
0.0
 11
740.0000000000001
 21
1650.0
 31
0.0
  0
ARC
  5
4A48
330
5636
100
AcDbEntity
  8
0
100
AcDbCircle
 10
705.0000000006001
 20
1600.499999999607
 30
0.0
 40
1.0
100
AcDbArc
 50
90.0
 51
270.0
  0
ARC
  5
4A49
330
5636
100
AcDbEntity
  8
0
100
AcDbCircle
 10
715.0000000006001
 20
1622.243557214409
 30
0.0
 40
10.0
100
AcDbArc
 50
165.6772800201816
 51
180.0
  0
LINE
  5
4A4A
330
5636
100
AcDbEntity
  8
0
100
AcDbLine
 10
705.0000000006001
 20
1591.499999999608
 30
0.0
 11
705.0000000006001
 21
1599.499999999609
 31
0.0
  0
LINE
  5
4A4B
330
5636
100
AcDbEntity
  8
0
100
AcDbLine
 10
705.0000000006001
 20
1601.499999999608
 30
0.0
 11
705.0000000006001
 21
1622.243557214409
 31
0.0
  0
LINE
  5
4A4C
330
5636
100
AcDbEntity
  8
0
100
AcDbLine
 10
705.3108228945005
 20
1624.717389667409
 30
0.0
 11
711.0000000012997
 21
1647.000000000009
 31
0.0
  0
ARC
  5
4A4D
330
5636
100
AcDbEntity
  8
0
100
AcDbCircle
 10
712.0000000013
 20
1648.000000000008
 30
0.0
 40
1.0
100
AcDbArc
 50
90.0
 51
180.0
  0
LINE
  5
4A4E
330
5636
100
AcDbEntity
  8
0
100
AcDbLine
 10
711.0000000012997
 20
1647.000000000009
 30
0.0
 11
711.0000000012997
 21
1648.000000000008
 31
0.0
  0
LINE
  5
4A4F
330
5636
100
AcDbEntity
  8
0
100
AcDbLine
 10
740.0000000000001
 20
1601.499999999608
 30
0.0
 11
705.0000000006001
 21
1601.499999999608
 31
0.0
  0
LINE
  5
4A50
330
5636
100
AcDbEntity
  8
0
100
AcDbLine
 10
740.0000000000001
 20
1599.499999999609
 30
0.0
 11
705.0000000006001
 21
1599.499999999609
 31
0.0
  0
LINE
  5
4A51
330
5636
100
AcDbEntity
  8
0
100
AcDbLine
 10
740.0000000000001
 20
1591.499999999608
 30
0.0
 11
705.0000000006001
 21
1591.499999999608
 31
0.0
  0
LINE
  5
4A52
330
5636
100
AcDbEntity
  8
0
100
AcDbLine
 10
740.0000000000001
 20
1649.000000000008
 30
0.0
 11
712.0000000013
 21
1649.000000000008
 31
0.0
  0
LINE
  5
4A53
330
5636
100
AcDbEntity
  8
0
100
AcDbLine
 10
709.9999999996164
 20
1560.999999999999
 30
0.0
 11
740.0000000000001
 21
1560.999999999999
 31
0.0
  0
LINE
  5
4A54
330
5636
100
AcDbEntity
  8
0
100
AcDbLine
 10
709.9999999996164
 20
1560.999999999999
 30
0.0
 11
709.9999999996164
 21
1573.999999999999
 31
0.0
  0
LINE
  5
4A56
330
5636
100
AcDbEntity
  8
0
100
AcDbLine
 10
711.0000000000001
 20
1573.999999999999
 30
0.0
 11
711.0000000000001
 21
1591.500000000147
 31
0.0
  0
LINE
  5
4A57
330
5636
100
AcDbEntity
  8
0
100
AcDbLine
 10
709.9999999996164
 20
1573.999999999999
 30
0.0
 11
709.9999999996164
 21
1571.999999999999
 31
0.0
  0
LINE
  5
4A58
330
5636
100
AcDbEntity
  8
0
100
AcDbLine
 10
709.9999999996164
 20
1573.999999999999
 30
0.0
 11
740.0000000000001
 21
1573.999999999999
 31
0.0
  0
LINE
  5
4A59
330
5636
100
AcDbEntity
  8
0
100
AcDbLine
 10
740.0000000000001
 20
1591.500000000147
 30
0.0
 11
711.0000000000001
 21
1591.500000000147
 31
0.0
  0
LINE
  5
4A5A
330
5636
100
AcDbEntity
  8
0
100
AcDbLine
 10
723.0000000000001
 20
1650.0
 30
0.0
 11
723.0000000000001
 21
1649.000000000008
 31
0.0
  0
LINE
  5
4A5B
330
5636
100
AcDbEntity
  8
0
100
AcDbLine
 10
723.0000000000001
 20
1650.0
 30
0.0
 11
740.0000000000001
 21
1650.0
 31
0.0
  0
ARC
  5
4A5C
330
5636
100
AcDbEntity
  8
0
100
AcDbCircle
 10
1224.9999999994
 20
1600.499999999607
 30
0.0
 40
1.0
100
AcDbArc
 50
270.0
 51
90.0
  0
ARC
  5
4A5D
330
5636
100
AcDbEntity
  8
0
100
AcDbCircle
 10
1214.9999999994
 20
1622.243557214409
 30
0.0
 40
10.0
100
AcDbArc
 50
0.0
 51
14.32271997981844
  0
LINE
  5
4A5E
330
5636
100
AcDbEntity
  8
0
100
AcDbLine
 10
1224.9999999994
 20
1591.499999999608
 30
0.0
 11
1224.9999999994
 21
1599.499999999609
 31
0.0
  0
LINE
  5
4A5F
330
5636
100
AcDbEntity
  8
0
100
AcDbLine
 10
1224.9999999994
 20
1601.499999999608
 30
0.0
 11
1224.9999999994
 21
1622.243557214409
 31
0.0
  0
LINE
  5
4A60
330
5636
100
AcDbEntity
  8
0
100
AcDbLine
 10
1224.6891771055
 20
1624.717389667409
 30
0.0
 11
1218.9999999987
 21
1647.000000000009
 31
0.0
  0
ARC
  5
4A61
330
5636
100
AcDbEntity
  8
0
100
AcDbCircle
 10
1217.999999998699
 20
1648.000000000008
 30
0.0
 40
1.0
100
AcDbArc
 50
0.0
 51
90.0
  0
LINE
  5
4A62
330
5636
100
AcDbEntity
  8
0
100
AcDbLine
 10
1218.9999999987
 20
1647.000000000009
 30
0.0
 11
1218.9999999987
 21
1648.000000000008
 31
0.0
  0
LINE
  5
4A63
330
5636
100
AcDbEntity
  8
0
100
AcDbLine
 10
1190.0
 20
1601.499999999608
 30
0.0
 11
1224.9999999994
 21
1601.499999999608
 31
0.0
  0
LINE
  5
4A64
330
5636
100
AcDbEntity
  8
0
100
AcDbLine
 10
1190.0
 20
1599.499999999609
 30
0.0
 11
1224.9999999994
 21
1599.499999999609
 31
0.0
  0
LINE
  5
4A65
330
5636
100
AcDbEntity
  8
0
100
AcDbLine
 10
1190.0
 20
1591.499999999608
 30
0.0
 11
1224.9999999994
 21
1591.499999999608
 31
0.0
  0
LINE
  5
4A66
330
5636
100
AcDbEntity
  8
0
100
AcDbLine
 10
1190.0
 20
1649.000000000008
 30
0.0
 11
1217.999999998699
 21
1649.000000000008
 31
0.0
  0
LINE
  5
4A67
330
5636
100
AcDbEntity
  8
0
100
AcDbLine
 10
1220.000000000384
 20
1560.999999999999
 30
0.0
 11
1190.0
 21
1560.999999999999
 31
0.0
  0
LINE
  5
4A68
330
5636
100
AcDbEntity
  8
0
100
AcDbLine
 10
1220.000000000384
 20
1560.999999999999
 30
0.0
 11
1220.000000000384
 21
1573.999999999999
 31
0.0
  0
LINE
  5
4A6A
330
5636
100
AcDbEntity
  8
0
100
AcDbLine
 10
1219.0
 20
1573.999999999998
 30
0.0
 11
1219.0
 21
1591.500000000147
 31
0.0
  0
LINE
  5
4A6B
330
5636
100
AcDbEntity
  8
0
100
AcDbLine
 10
1220.000000000384
 20
1573.999999999999
 30
0.0
 11
1220.000000000384
 21
1571.999999999999
 31
0.0
  0
LINE
  5
4A6C
330
5636
100
AcDbEntity
  8
0
100
AcDbLine
 10
1220.000000000384
 20
1573.999999999999
 30
0.0
 11
1190.0
 21
1573.999999999999
 31
0.0
  0
LINE
  5
4A6D
330
5636
100
AcDbEntity
  8
0
100
AcDbLine
 10
1190.0
 20
1591.500000000147
 30
0.0
 11
1219.0
 21
1591.500000000147
 31
0.0
  0
LINE
  5
4A6E
330
5636
100
AcDbEntity
  8
0
100
AcDbLine
 10
1207.0
 20
1650.0
 30
0.0
 11
1207.0
 21
1649.000000000008
 31
0.0
  0
LINE
  5
4A6F
330
5636
100
AcDbEntity
  8
0
100
AcDbLine
 10
1207.0
 20
1650.0
 30
0.0
 11
1190.0
 21
1650.0
 31
0.0
  0
ARC
  5
4A70
330
5636
100
AcDbEntity
  8
0
100
AcDbCircle
 10
1155.0000000006
 20
1600.499999999607
 30
0.0
 40
1.0
100
AcDbArc
 50
90.0
 51
270.0
  0
ARC
  5
4A71
330
5636
100
AcDbEntity
  8
0
100
AcDbCircle
 10
1165.0000000006
 20
1622.243557214409
 30
0.0
 40
10.0
100
AcDbArc
 50
165.6772800201816
 51
180.0
  0
LINE
  5
4A72
330
5636
100
AcDbEntity
  8
0
100
AcDbLine
 10
1155.0000000006
 20
1591.499999999608
 30
0.0
 11
1155.0000000006
 21
1599.499999999609
 31
0.0
  0
LINE
  5
4A73
330
5636
100
AcDbEntity
  8
0
100
AcDbLine
 10
1155.0000000006
 20
1601.499999999608
 30
0.0
 11
1155.0000000006
 21
1622.243557214409
 31
0.0
  0
LINE
  5
4A74
330
5636
100
AcDbEntity
  8
0
100
AcDbLine
 10
1155.3108228945
 20
1624.717389667409
 30
0.0
 11
1161.0000000013
 21
1647.000000000009
 31
0.0
  0
ARC
  5
4A75
330
5636
100
AcDbEntity
  8
0
100
AcDbCircle
 10
1162.0000000013
 20
1648.000000000008
 30
0.0
 40
1.0
100
AcDbArc
 50
90.0
 51
180.0
  0
LINE
  5
4A76
330
5636
100
AcDbEntity
  8
0
100
AcDbLine
 10
1161.0000000013
 20
1647.000000000009
 30
0.0
 11
1161.0000000013
 21
1648.000000000008
 31
0.0
  0
LINE
  5
4A77
330
5636
100
AcDbEntity
  8
0
100
AcDbLine
 10
1190.0
 20
1601.499999999608
 30
0.0
 11
1155.0000000006
 21
1601.499999999608
 31
0.0
  0
LINE
  5
4A78
330
5636
100
AcDbEntity
  8
0
100
AcDbLine
 10
1190.0
 20
1599.499999999609
 30
0.0
 11
1155.0000000006
 21
1599.499999999609
 31
0.0
  0
LINE
  5
4A79
330
5636
100
AcDbEntity
  8
0
100
AcDbLine
 10
1190.0
 20
1591.499999999608
 30
0.0
 11
1155.0000000006
 21
1591.499999999608
 31
0.0
  0
LINE
  5
4A7A
330
5636
100
AcDbEntity
  8
0
100
AcDbLine
 10
1190.0
 20
1649.000000000008
 30
0.0
 11
1162.0000000013
 21
1649.000000000008
 31
0.0
  0
LINE
  5
4A7B
330
5636
100
AcDbEntity
  8
0
100
AcDbLine
 10
1159.999999999616
 20
1560.999999999999
 30
0.0
 11
1190.0
 21
1560.999999999999
 31
0.0
  0
LINE
  5
4A7C
330
5636
100
AcDbEntity
  8
0
100
AcDbLine
 10
1159.999999999616
 20
1560.999999999999
 30
0.0
 11
1159.999999999616
 21
1573.999999999999
 31
0.0
  0
LINE
  5
4A7E
330
5636
100
AcDbEntity
  8
0
100
AcDbLine
 10
1161.0
 20
1573.999999999999
 30
0.0
 11
1161.0
 21
1591.500000000147
 31
0.0
  0
LINE
  5
4A7F
330
5636
100
AcDbEntity
  8
0
100
AcDbLine
 10
1159.999999999616
 20
1573.999999999999
 30
0.0
 11
1159.999999999616
 21
1571.999999999999
 31
0.0
  0
LINE
  5
4A80
330
5636
100
AcDbEntity
  8
0
100
AcDbLine
 10
1159.999999999616
 20
1573.999999999999
 30
0.0
 11
1190.0
 21
1573.999999999999
 31
0.0
  0
LINE
  5
4A81
330
5636
100
AcDbEntity
  8
0
100
AcDbLine
 10
1190.0
 20
1591.500000000147
 30
0.0
 11
1161.0
 21
1591.500000000147
 31
0.0
  0
LINE
  5
4A82
330
5636
100
AcDbEntity
  8
0
100
AcDbLine
 10
1173.0
 20
1650.0
 30
0.0
 11
1173.0
 21
1649.000000000008
 31
0.0
  0
LINE
  5
4A83
330
5636
100
AcDbEntity
  8
0
100
AcDbLine
 10
1173.0
 20
1650.0
 30
0.0
 11
1190.0
 21
1650.0
 31
0.0
  0
LINE
  5
4B9F
330
5636
100
AcDbEntity
  8
0
100
AcDbLine
 10
80.0
 20
2808.0
 30
0.0
 11
1880.0
 21
2808.0
 31
0.0
  0
LINE
  5
4BA1
330
5636
100
AcDbEntity
  8
0
100
AcDbLine
 10
80.0
 20
2808.0
 30
0.0
 11
80.0
 21
-0.0000000000000089
 31
0.0
  0
LINE
  5
4C70
330
5636
100
AcDbEntity
  8
0
100
AcDbLine
 10
1880.0
 20
2808.0
 30
0.0
 11
1880.0
 21
-0.000000000000453
 31
0.0
  0
LINE
  5
4C7C
330
5636
100
AcDbEntity
  8
0
100
AcDbLine
 10
80.0
 20
0.0
 30
0.0
 11
1880.0
 21
0.0
 31
0.0
  0
LINE
  5
4C7D
330
5636
100
AcDbEntity
  8
0
100
AcDbLine
 10
80.0
 20
0.0
 30
0.0
 11
1880.0
 21
0.0
 31
0.0
  0
LINE
  5
4DE5
330
5636
100
AcDbEntity
  8
0
100
AcDbLine
 10
502.064185948552
 20
1142.90412424295
 30
0.0
 11
183.4307750359931
 21
1142.90412424295
 31
0.0
  0
LINE
  5
4DE6
330
5636
100
AcDbEntity
  8
0
100
AcDbLine
 10
502.064185948552
 20
752.9040582092701
 30
0.0
 11
183.430775035993
 21
752.9040582092703
 31
0.0
  0
LINE
  5
4DE7
330
5636
100
AcDbEntity
  8
0
100
AcDbLine
 10
201.4307750359931
 20
1122.90412424295
 30
0.0
 11
201.430775035993
 21
772.9040582092701
 31
0.0
  0
LINE
  5
4DEB
330
5636
100
AcDbEntity
  8
0
100
AcDbLine
 10
1124.999963880076
 20
1165.839836230012
 30
0.0
 11
1124.999963880076
 21
1256.190528806667
 31
0.0
  0
LINE
  5
4DEC
330
5636
100
AcDbEntity
  8
0
100
AcDbLine
 10
524.999963880076
 20
1165.839836230012
 30
0.0
 11
524.999963880076
 21
1256.190528806667
 31
0.0
  0
LINE
  5
4DED
330
5636
100
AcDbEntity
  8
0
100
AcDbLine
 10
1104.999963880076
 20
1238.190528806667
 30
0.0
 11
544.999963880076
 21
1238.190528806667
 31
0.0
  0
LINE
  5
4DF1
330
5636
100
AcDbEntity
  8
0
100
AcDbLine
 10
538.3888025823273
 20
2369.250249361838
 30
0.0
 11
524.9999554235244
 21
2353.456026394979
 31
0.0
  0
LINE
  5
4DF2
330
5636
100
AcDbEntity
  8
0
100
AcDbLine
 10
524.9999554235244
 20
2353.456026394979
 30
0.0
 11
528.6979257994264
 21
2373.82864827994
 31
0.0
  0
LINE
  5
4DF3
330
5636
100
AcDbEntity
  8
0
100
AcDbLine
 10
524.9999554235244
 20
2353.456026394979
 30
0.0
 11
533.5433641908768
 21
2371.53944882089
 31
0.0
  0
LINE
  5
4DF4
330
5636
100
AcDbEntity
  8
0
100
AcDbLine
 10
1170.028178792023
 20
1923.612279330873
 30
0.0
 11
1180.24838318063
 21
1941.61967030302
 31
0.0
  0
LINE
  5
4DF5
330
5636
100
AcDbEntity
  8
0
100
AcDbLine
 10
1180.24838318063
 20
1941.61967030302
 30
0.0
 11
1180.401121940372
 21
1920.914710070265
 31
0.0
  0
LINE
  5
4DF6
330
5636
100
AcDbEntity
  8
0
100
AcDbLine
 10
1180.24838318063
 20
1941.61967030302
 30
0.0
 11
1175.214650366197
 21
1922.263494700569
 31
0.0
  0
LINE
  5
4DF7
330
5636
100
AcDbEntity
  8
0
100
AcDbLine
 10
349.0000000000003
 20
1571.999999999998
 30
0.0
 11
231.9999554235244
 21
1571.999999999998
 31
0.0
  0
LINE
  5
4DF8
330
5636
100
AcDbEntity
  8
0
100
AcDbLine
 10
248.9999554235243
 20
1541.999999999999
 30
0.0
 11
231.9999554235244
 21
1541.999999999999
 31
0.0
  0
LINE
  5
4DF9
330
5636
100
AcDbEntity
  8
0
100
AcDbLine
 10
249.9999554235244
 20
1571.999999999998
 30
0.0
 11
249.9999554235244
 21
1541.999999999999
 31
0.0
  0
LINE
  5
4DFD
330
5636
100
AcDbEntity
  8
0
100
AcDbLine
 10
349.0000000000003
 20
1650.0
 30
0.0
 11
231.9999554235244
 21
1650.0
 31
0.0
  0
LINE
  5
4DFE
330
5636
100
AcDbEntity
  8
0
100
AcDbLine
 10
248.9999554235244
 20
1680.0
 30
0.0
 11
231.9999554235244
 21
1680.0
 31
0.0
  0
LINE
  5
4DFF
330
5636
100
AcDbEntity
  8
0
100
AcDbLine
 10
249.9999554235244
 20
1650.0
 30
0.0
 11
249.9999554235244
 21
1680.0
 31
0.0
  0
LINE
  5
4E00
330
5636
100
AcDbEntity
  8
0
100
AcDbLine
 10
249.9999554235244
 20
1680.0
 30
0.0
 11
249.9999554235244
 21
1737.5
 31
0.0
  0
LINE
  5
4E04
330
5636
100
AcDbEntity
  8
0
100
AcDbLine
 10
181.0385061452493
 20
1680.0
 30
0.0
 11
131.9999554235242
 21
1680.0
 31
0.0
  0
LINE
  5
4E05
330
5636
100
AcDbEntity
  8
0
100
AcDbLine
 10
180.9999554235244
 20
1541.999999999999
 30
0.0
 11
131.9999554235242
 21
1541.999999999999
 31
0.0
  0
LINE
  5
4E06
330
5636
100
AcDbEntity
  8
0
100
AcDbLine
 10
149.9999554235242
 20
1660.0
 30
0.0
 11
149.9999554235242
 21
1561.999999999999
 31
0.0
  0
LINE
  5
4E0A
330
5636
100
AcDbEntity
  8
0
100
AcDbLine
 10
349.0000000000003
 20
1680.0
 30
0.0
 11
181.9999554235244
 21
1680.0
 31
0.0
  0
LINE
  5
4E0B
330
5636
100
AcDbEntity
  8
0
100
AcDbLine
 10
352.0000000000003
 20
1541.999999999999
 30
0.0
 11
181.9999554235244
 21
1541.999999999999
 31
0.0
  0
LINE
  5
4E10
330
5636
100
AcDbEntity
  8
0
100
AcDbLine
 10
372.9999791759801
 20
2373.456
 30
0.0
 11
131.9999554235244
 21
2373.456
 31
0.0
  0
LINE
  5
4E11
330
5636
100
AcDbEntity
  8
0
100
AcDbLine
 10
372.4999791759795
 20
1923.456164039523
 30
0.0
 11
131.9999554235243
 21
1923.456164039523
 31
0.0
  0
LINE
  5
4E12
330
5636
100
AcDbEntity
  8
0
100
AcDbLine
 10
149.9999554235244
 20
2353.456000000001
 30
0.0
 11
149.9999554235243
 21
1943.456164039522
 31
0.0
  0
LINE
  5
4E16
330
5636
100
AcDbEntity
  8
0
100
AcDbLine
 10
1299.99997629755
 20
2350.955911358386
 30
0.0
 11
1299.99997629755
 21
2591.455949101932
 31
0.0
  0
LINE
  5
4E17
330
5636
100
AcDbEntity
  8
0
100
AcDbLine
 10
350.0000000000003
 20
2350.95600000001
 30
0.0
 11
350.0000000000003
 21
2591.455949101932
 31
0.0
  0
LINE
  5
4E18
330
5636
100
AcDbEntity
  8
0
100
AcDbLine
 10
1279.99997629755
 20
2573.455949101932
 30
0.0
 11
370.0000000000001
 21
2573.455949101932
 31
0.0
  0
LINE
  5
4E1C
330
5636
100
AcDbEntity
  8
0
100
AcDbLine
 10
524.999963880076
 20
752.9040582092701
 30
0.0
 11
536.2454432489868
 21
735.5184923095588
 31
0.0
  0
LINE
  5
4E1D
330
5636
100
AcDbEntity
  8
0
100
AcDbLine
 10
524.999963880076
 20
752.9040582092701
 30
0.0
 11
526.0460517414314
 21
732.2249767964964
 31
0.0
  0
LINE
  5
4E1E
330
5636
100
AcDbEntity
  8
0
100
AcDbLine
 10
531.1457474952093
 20
733.8717345530276
 30
0.0
 11
524.999963880076
 21
752.9040582092701
 31
0.0
  0
CIRCLE
  5
4E1F
330
5636
100
AcDbEntity
  8
0
100
AcDbCircle
 10
1267.99997629755
 20
2341.455952922279
 30
0.0
 40
12.0000000000005
  0
CIRCLE
  5
4E21
330
5636
100
AcDbEntity
  8
0
100
AcDbCircle
 10
1267.99997629755
 20
1955.456033833996
 30
0.0
 40
12.0000000000005
  0
CIRCLE
  5
4E23
330
5636
100
AcDbEntity
  8
0
100
AcDbCircle
 10
382.0000000000001
 20
2341.456041563902
 30
0.0
 40
12.0000000000005
  0
CIRCLE
  5
4E25
330
5636
100
AcDbEntity
  8
0
100
AcDbCircle
 10
382.0000000000001
 20
1955.456122475621
 30
0.0
 40
12.0000000000005
  0
TEXT
  5
4E27
330
5636
100
AcDbEntity
  8
0
100
AcDbText
 10
573.8871266602028
 20
670.3320419924129
 30
0.0
 40
25.0
  1
4-∅20
100
AcDbText
  0
LINE
  5
4E28
330
5636
100
AcDbEntity
  8
0
100
AcDbLine
 10
388.9282032302757
 20
1967.456122475621
 30
0.0
 11
395.8564064605512
 21
1955.456122475621
 31
0.0
  0
LINE
  5
4E29
330
5636
100
AcDbEntity
  8
0
100
AcDbLine
 10
395.8564064605512
 20
1955.456122475621
 30
0.0
 11
388.9282032302757
 21
1943.456122475621
 31
0.0
  0
LINE
  5
4E2A
330
5636
100
AcDbEntity
  8
0
100
AcDbLine
 10
388.9282032302757
 20
1943.456122475621
 30
0.0
 11
375.0717967697247
 21
1943.456122475621
 31
0.0
  0
LINE
  5
4E2B
330
5636
100
AcDbEntity
  8
0
100
AcDbLine
 10
375.0717967697247
 20
1943.456122475621
 30
0.0
 11
368.1435935394492
 21
1955.456122475621
 31
0.0
  0
LINE
  5
4E2C
330
5636
100
AcDbEntity
  8
0
100
AcDbLine
 10
368.1435935394492
 20
1955.456122475621
 30
0.0
 11
375.0717967697247
 21
1967.456122475621
 31
0.0
  0
LINE
  5
4E2D
330
5636
100
AcDbEntity
  8
0
100
AcDbLine
 10
375.0717967697247
 20
1967.456122475621
 30
0.0
 11
388.9282032302757
 21
1967.456122475621
 31
0.0
  0
LINE
  5
4E2E
330
5636
100
AcDbEntity
  8
0
100
AcDbLine
 10
1261.071773067275
 20
2329.455952922279
 30
0.0
 11
1254.143569836999
 21
2341.455952922279
 31
0.0
  0
LINE
  5
4E2F
330
5636
100
AcDbEntity
  8
0
100
AcDbLine
 10
1254.143569836999
 20
2341.455952922279
 30
0.0
 11
1261.071773067275
 21
2353.45595292228
 31
0.0
  0
LINE
  5
4E30
330
5636
100
AcDbEntity
  8
0
100
AcDbLine
 10
1261.071773067275
 20
2353.45595292228
 30
0.0
 11
1274.928179527825
 21
2353.45595292228
 31
0.0
  0
LINE
  5
4E31
330
5636
100
AcDbEntity
  8
0
100
AcDbLine
 10
1274.928179527825
 20
2353.45595292228
 30
0.0
 11
1281.856382758101
 21
2341.455952922279
 31
0.0
  0
LINE
  5
4E32
330
5636
100
AcDbEntity
  8
0
100
AcDbLine
 10
1281.856382758101
 20
2341.455952922279
 30
0.0
 11
1274.928179527825
 21
2329.455952922279
 31
0.0
  0
LINE
  5
4E33
330
5636
100
AcDbEntity
  8
0
100
AcDbLine
 10
1274.928179527825
 20
2329.455952922279
 30
0.0
 11
1261.071773067275
 21
2329.455952922279
 31
0.0
  0
TEXT
  5
4E34
330
5636
100
AcDbEntity
  8
0
100
AcDbText
 10
188.9307750359929
 20
916.6540912261099
 30
0.0
 40
25.0
  1
390
 50
90.0
100
AcDbText
  0
LINE
  5
4E35
330
5636
100
AcDbEntity
  8
0
100
AcDbLine
 10
201.430775035993
 20
752.9040582092703
 30
0.0
 11
196.0717911873708
 21
772.9040582092701
 31
0.0
  0
LINE
  5
4E36
330
5636
100
AcDbEntity
  8
0
100
AcDbLine
 10
201.430775035993
 20
752.9040582092703
 30
0.0
 11
206.7897588846151
 21
772.9040582092701
 31
0.0
  0
LINE
  5
4E37
330
5636
100
AcDbEntity
  8
0
100
AcDbLine
 10
201.430775035993
 20
772.9040582092701
 30
0.0
 11
201.430775035993
 21
752.9040582092703
 31
0.0
  0
LINE
  5
4E38
330
5636
100
AcDbEntity
  8
0
100
AcDbLine
 10
201.4307750359931
 20
1142.90412424295
 30
0.0
 11
206.7897588846152
 21
1122.90412424295
 31
0.0
  0
LINE
  5
4E39
330
5636
100
AcDbEntity
  8
0
100
AcDbLine
 10
201.4307750359931
 20
1142.90412424295
 30
0.0
 11
196.0717911873708
 21
1122.90412424295
 31
0.0
  0
LINE
  5
4E3A
330
5636
100
AcDbEntity
  8
0
100
AcDbLine
 10
201.4307750359931
 20
1122.90412424295
 30
0.0
 11
201.4307750359931
 21
1142.90412424295
 31
0.0
  0
TEXT
  5
4E3B
330
5636
100
AcDbEntity
  8
0
100
AcDbText
 10
795.8332972134094
 20
1250.690528806667
 30
0.0
 40
25.0
  1
600
100
AcDbText
  0
LINE
  5
4E3C
330
5636
100
AcDbEntity
  8
0
100
AcDbLine
 10
524.999963880076
 20
1238.190528806667
 30
0.0
 11
544.999963880076
 21
1243.549512655288
 31
0.0
  0
LINE
  5
4E3D
330
5636
100
AcDbEntity
  8
0
100
AcDbLine
 10
524.999963880076
 20
1238.190528806667
 30
0.0
 11
544.999963880076
 21
1232.831544958045
 31
0.0
  0
LINE
  5
4E3E
330
5636
100
AcDbEntity
  8
0
100
AcDbLine
 10
544.999963880076
 20
1238.190528806667
 30
0.0
 11
524.999963880076
 21
1238.190528806667
 31
0.0
  0
LINE
  5
4E3F
330
5636
100
AcDbEntity
  8
0
100
AcDbLine
 10
1124.999963880076
 20
1238.190528806667
 30
0.0
 11
1104.999963880076
 21
1232.831544958045
 31
0.0
  0
LINE
  5
4E40
330
5636
100
AcDbEntity
  8
0
100
AcDbLine
 10
1124.999963880076
 20
1238.190528806667
 30
0.0
 11
1104.999963880076
 21
1243.549512655288
 31
0.0
  0
LINE
  5
4E41
330
5636
100
AcDbEntity
  8
0
100
AcDbLine
 10
1104.999963880076
 20
1238.190528806667
 30
0.0
 11
1124.999963880076
 21
1238.190528806667
 31
0.0
  0
TEXT
  5
4E44
330
5636
100
AcDbEntity
  8
0
100
AcDbText
 10
237.8359159768387
 20
1487.584516102295
 30
0.0
 40
25.0
  1
30
 50
90.0
100
AcDbText
  0
TEXT
  5
4E45
330
5636
100
AcDbEntity
  8
0
100
AcDbText
 10
237.4999554235242
 20
1700.0
 30
0.0
 40
25.0
  1
30
 50
90.0
100
AcDbText
  0
LINE
  5
4E48
330
5636
100
AcDbEntity
  8
0
100
AcDbLine
 10
149.9999554235242
 20
1541.999999999999
 30
0.0
 11
144.640971574902
 21
1561.999999999999
 31
0.0
  0
LINE
  5
4E49
330
5636
100
AcDbEntity
  8
0
100
AcDbLine
 10
149.9999554235242
 20
1541.999999999999
 30
0.0
 11
155.3589392721463
 21
1561.999999999999
 31
0.0
  0
LINE
  5
4E4A
330
5636
100
AcDbEntity
  8
0
100
AcDbLine
 10
149.9999554235242
 20
1561.999999999999
 30
0.0
 11
149.9999554235242
 21
1541.999999999999
 31
0.0
  0
LINE
  5
4E4B
330
5636
100
AcDbEntity
  8
0
100
AcDbLine
 10
149.9999554235242
 20
1680.0
 30
0.0
 11
155.3589392721463
 21
1660.0
 31
0.0
  0
LINE
  5
4E4C
330
5636
100
AcDbEntity
  8
0
100
AcDbLine
 10
149.9999554235242
 20
1680.0
 30
0.0
 11
144.6409715749022
 21
1660.0
 31
0.0
  0
LINE
  5
4E4D
330
5636
100
AcDbEntity
  8
0
100
AcDbLine
 10
149.9999554235242
 20
1660.0
 30
0.0
 11
149.9999554235242
 21
1680.0
 31
0.0
  0
TEXT
  5
4E4E
330
5636
100
AcDbEntity
  8
0
100
AcDbText
 10
131.999955423524
 20
1509.095238095238
 30
0.0
 40
25.0
  1
据付時約 138
 50
90.0
100
AcDbText
  0
TEXT
  5
4E56
330
5636
100
AcDbEntity
  8
0
100
AcDbText
 10
137.499955423524
 20
2117.206082019762
 30
0.0
 40
25.0
  1
450
 50
90.0
100
AcDbText
  0
LINE
  5
4E57
330
5636
100
AcDbEntity
  8
0
100
AcDbLine
 10
149.9999554235243
 20
1923.456164039523
 30
0.0
 11
144.6409715749022
 21
1943.456164039522
 31
0.0
  0
LINE
  5
4E58
330
5636
100
AcDbEntity
  8
0
100
AcDbLine
 10
149.9999554235243
 20
1923.456164039523
 30
0.0
 11
155.3589392721464
 21
1943.456164039522
 31
0.0
  0
LINE
  5
4E59
330
5636
100
AcDbEntity
  8
0
100
AcDbLine
 10
149.9999554235243
 20
1943.456164039522
 30
0.0
 11
149.9999554235243
 21
1923.456164039523
 31
0.0
  0
LINE
  5
4E5A
330
5636
100
AcDbEntity
  8
0
100
AcDbLine
 10
149.9999554235244
 20
2373.456
 30
0.0
 11
155.3589392721464
 21
2353.456000000001
 31
0.0
  0
LINE
  5
4E5B
330
5636
100
AcDbEntity
  8
0
100
AcDbLine
 10
149.9999554235244
 20
2373.456
 30
0.0
 11
144.6409715749024
 21
2353.456000000001
 31
0.0
  0
LINE
  5
4E5C
330
5636
100
AcDbEntity
  8
0
100
AcDbLine
 10
149.9999554235244
 20
2353.456000000001
 30
0.0
 11
149.9999554235244
 21
2373.456
 31
0.0
  0
TEXT
  5
4E5D
330
5636
100
AcDbEntity
  8
0
100
AcDbText
 10
793.7499881487751
 20
2585.955949101932
 30
0.0
 40
25.0
  1
950
100
AcDbText
  0
LINE
  5
4E5E
330
5636
100
AcDbEntity
  8
0
100
AcDbLine
 10
350.0000000000003
 20
2573.455949101932
 30
0.0
 11
370.0000000000001
 21
2578.814932950554
 31
0.0
  0
LINE
  5
4E5F
330
5636
100
AcDbEntity
  8
0
100
AcDbLine
 10
350.0000000000003
 20
2573.455949101932
 30
0.0
 11
370.0000000000001
 21
2568.096965253309
 31
0.0
  0
LINE
  5
4E60
330
5636
100
AcDbEntity
  8
0
100
AcDbLine
 10
370.0000000000001
 20
2573.455949101932
 30
0.0
 11
350.0000000000003
 21
2573.455949101932
 31
0.0
  0
LINE
  5
4E61
330
5636
100
AcDbEntity
  8
0
100
AcDbLine
 10
1299.99997629755
 20
2573.455949101932
 30
0.0
 11
1279.99997629755
 21
2568.096965253311
 31
0.0
  0
LINE
  5
4E62
330
5636
100
AcDbEntity
  8
0
100
AcDbLine
 10
1299.99997629755
 20
2573.455949101932
 30
0.0
 11
1279.99997629755
 21
2578.814932950554
 31
0.0
  0
LINE
  5
4E63
330
5636
100
AcDbEntity
  8
0
100
AcDbLine
 10
1279.99997629755
 20
2573.455949101932
 30
0.0
 11
1299.99997629755
 21
2573.455949101932
 31
0.0
  0
LINE
  5
4E64
330
5636
100
AcDbEntity
  8
0
100
AcDbLine
 10
1261.071773067275
 20
1967.456033833997
 30
0.0
 11
1254.143569836999
 21
1955.456033833996
 31
0.0
  0
LINE
  5
4E65
330
5636
100
AcDbEntity
  8
0
100
AcDbLine
 10
1254.143569836999
 20
1955.456033833996
 30
0.0
 11
1261.071773067275
 21
1943.456033833997
 31
0.0
  0
LINE
  5
4E66
330
5636
100
AcDbEntity
  8
0
100
AcDbLine
 10
1261.071773067275
 20
1943.456033833997
 30
0.0
 11
1274.928179527825
 21
1943.456033833997
 31
0.0
  0
LINE
  5
4E67
330
5636
100
AcDbEntity
  8
0
100
AcDbLine
 10
1274.928179527825
 20
1943.456033833997
 30
0.0
 11
1281.856382758101
 21
1955.456033833996
 31
0.0
  0
LINE
  5
4E68
330
5636
100
AcDbEntity
  8
0
100
AcDbLine
 10
1281.856382758101
 20
1955.456033833996
 30
0.0
 11
1274.928179527825
 21
1967.456033833997
 31
0.0
  0
LINE
  5
4E69
330
5636
100
AcDbEntity
  8
0
100
AcDbLine
 10
1274.928179527825
 20
1967.456033833997
 30
0.0
 11
1261.071773067275
 21
1967.456033833997
 31
0.0
  0
LINE
  5
4E6A
330
5636
100
AcDbEntity
  8
0
100
AcDbLine
 10
388.9282032302757
 20
2329.456041563902
 30
0.0
 11
395.8564064605512
 21
2341.456041563902
 31
0.0
  0
LINE
  5
4E6B
330
5636
100
AcDbEntity
  8
0
100
AcDbLine
 10
395.8564064605512
 20
2341.456041563902
 30
0.0
 11
388.9282032302757
 21
2353.456041563902
 31
0.0
  0
LINE
  5
4E6C
330
5636
100
AcDbEntity
  8
0
100
AcDbLine
 10
388.9282032302757
 20
2353.456041563902
 30
0.0
 11
375.0717967697247
 21
2353.456041563902
 31
0.0
  0
LINE
  5
4E6D
330
5636
100
AcDbEntity
  8
0
100
AcDbLine
 10
375.0717967697247
 20
2353.456041563902
 30
0.0
 11
368.1435935394492
 21
2341.456041563902
 31
0.0
  0
LINE
  5
4E6E
330
5636
100
AcDbEntity
  8
0
100
AcDbLine
 10
368.1435935394492
 20
2341.456041563902
 30
0.0
 11
375.0717967697247
 21
2329.456041563902
 31
0.0
  0
LINE
  5
4E6F
330
5636
100
AcDbEntity
  8
0
100
AcDbLine
 10
375.0717967697247
 20
2329.456041563902
 30
0.0
 11
388.9282032302757
 21
2329.456041563902
 31
0.0
  0
ARC
  5
4E70
330
5636
100
AcDbEntity
  8
0
100
AcDbCircle
 10
249.9999554235244
 20
1541.999999999999
 30
0.0
 40
1.25
100
AcDbArc
 50
90.0
 51
270.0
  0
ARC
  5
4E71
330
5636
100
AcDbEntity
  8
0
100
AcDbCircle
 10
249.9999554235244
 20
1541.999999999999
 30
0.0
 40
1.25
100
AcDbArc
 50
270.0
 51
90.0
  0
ARC
  5
4E72
330
5636
100
AcDbEntity
  8
0
100
AcDbCircle
 10
249.9999554235244
 20
1571.999999999998
 30
0.0
 40
1.25
100
AcDbArc
 50
270.0
 51
90.0
  0
ARC
  5
4E73
330
5636
100
AcDbEntity
  8
0
100
AcDbCircle
 10
249.9999554235244
 20
1571.999999999998
 30
0.0
 40
1.25
100
AcDbArc
 50
90.0
 51
270.0
  0
ARC
  5
4E74
330
5636
100
AcDbEntity
  8
0
100
AcDbCircle
 10
249.9999554235244
 20
1680.0
 30
0.0
 40
1.25
100
AcDbArc
 50
270.0
 51
90.0
  0
ARC
  5
4E75
330
5636
100
AcDbEntity
  8
0
100
AcDbCircle
 10
249.9999554235244
 20
1680.0
 30
0.0
 40
1.25
100
AcDbArc
 50
90.0
 51
270.0
  0
ARC
  5
4E76
330
5636
100
AcDbEntity
  8
0
100
AcDbCircle
 10
249.9999554235244
 20
1650.0
 30
0.0
 40
1.25
100
AcDbArc
 50
90.0
 51
270.0
  0
ARC
  5
4E77
330
5636
100
AcDbEntity
  8
0
100
AcDbCircle
 10
249.9999554235244
 20
1650.0
 30
0.0
 40
1.25
100
AcDbArc
 50
270.0
 51
90.0
  0
TEXT
  5
50C0
330
5636
100
AcDbEntity
  8
0
100
AcDbText
 10
348.8836892324834
 20
1453.510492247233
 30
0.0
 40
30.0
  1
※搭載機器や施工状況等によって、据付高さは若干異なる可能性があります。
100
AcDbText
  0
LINE
  5
5768
330
5636
100
AcDbEntity
  8
0
100
AcDbLine
 10
524.999963880076
 20
1174.839902174474
 30
0.0
 11
524.999963880076
 21
1256.190528806667
 31
0.0
  0
LINE
  5
5769
330
5636
100
AcDbEntity
  8
0
100
AcDbLine
 10
349.9999706694226
 20
1182.90414286971
 30
0.0
 11
349.9999706694226
 21
1256.190528806667
 31
0.0
  0
LINE
  5
576A
330
5636
100
AcDbEntity
  8
0
100
AcDbLine
 10
504.999963880076
 20
1238.190528806667
 30
0.0
 11
369.9999706694226
 21
1238.190528806667
 31
0.0
  0
LINE
  5
576E
330
5636
100
AcDbEntity
  8
0
100
AcDbLine
 10
1124.999977458757
 20
1174.839902174474
 30
0.0
 11
1124.999977458757
 21
1256.190528806667
 31
0.0
  0
LINE
  5
576F
330
5636
100
AcDbEntity
  8
0
100
AcDbLine
 10
1299.99997066941
 20
1182.90414286971
 30
0.0
 11
1299.99997066941
 21
1256.190528806667
 31
0.0
  0
LINE
  5
5770
330
5636
100
AcDbEntity
  8
0
100
AcDbLine
 10
1144.999977458756
 20
1238.190528806667
 30
0.0
 11
1279.99997066941
 21
1238.190528806667
 31
0.0
  0
LINE
  5
5774
330
5636
100
AcDbEntity
  8
0
  6
ByBlock
100
AcDbLine
 10
504.999963880076
 20
1243.549512606667
 30
0.0
 11
524.999963880076
 21
1238.190528806667
 31
0.0
  0
LINE
  5
5775
330
5636
100
AcDbEntity
  8
0
  6
ByBlock
100
AcDbLine
 10
524.999963880076
 20
1238.190528806667
 30
0.0
 11
504.999963880076
 21
1232.831545006667
 31
0.0
  0
LINE
  5
5776
330
5636
100
AcDbEntity
  8
0
  6
ByBlock
100
AcDbLine
 10
524.999963880076
 20
1238.190528806667
 30
0.0
 11
504.999963880076
 21
1238.190528806667
 31
0.0
  0
LINE
  5
5777
330
5636
100
AcDbEntity
  8
0
  6
ByBlock
100
AcDbLine
 10
369.9999706694226
 20
1232.831545006667
 30
0.0
 11
349.9999706694226
 21
1238.190528806667
 31
0.0
  0
LINE
  5
5778
330
5636
100
AcDbEntity
  8
0
  6
ByBlock
100
AcDbLine
 10
349.9999706694226
 20
1238.190528806667
 30
0.0
 11
369.9999706694226
 21
1243.549512606667
 31
0.0
  0
LINE
  5
5779
330
5636
100
AcDbEntity
  8
0
  6
ByBlock
100
AcDbLine
 10
349.9999706694226
 20
1238.190528806667
 30
0.0
 11
369.9999706694226
 21
1238.190528806667
 31
0.0
  0
TEXT
  5
577A
330
5636
100
AcDbEntity
  8
0
100
AcDbText
 10
408.3333006080826
 20
1253.190528806667
 30
0.0
 40
25.0
  1
175
100
AcDbText
  0
LINE
  5
577B
330
5636
100
AcDbEntity
  8
0
  6
ByBlock
100
AcDbLine
 10
1144.999977458756
 20
1232.831545006667
 30
0.0
 11
1124.999977458757
 21
1238.190528806667
 31
0.0
  0
LINE
  5
577C
330
5636
100
AcDbEntity
  8
0
  6
ByBlock
100
AcDbLine
 10
1124.999977458757
 20
1238.190528806667
 30
0.0
 11
1144.999977458756
 21
1243.549512606667
 31
0.0
  0
LINE
  5
577D
330
5636
100
AcDbEntity
  8
0
  6
ByBlock
100
AcDbLine
 10
1124.999977458757
 20
1238.190528806667
 30
0.0
 11
1144.999977458756
 21
1238.190528806667
 31
0.0
  0
LINE
  5
577E
330
5636
100
AcDbEntity
  8
0
  6
ByBlock
100
AcDbLine
 10
1279.99997066941
 20
1243.549512606667
 30
0.0
 11
1299.99997066941
 21
1238.190528806667
 31
0.0
  0
LINE
  5
577F
330
5636
100
AcDbEntity
  8
0
  6
ByBlock
100
AcDbLine
 10
1299.99997066941
 20
1238.190528806667
 30
0.0
 11
1279.99997066941
 21
1232.831545006667
 31
0.0
  0
LINE
  5
5780
330
5636
100
AcDbEntity
  8
0
  6
ByBlock
100
AcDbLine
 10
1299.99997066941
 20
1238.190528806667
 30
0.0
 11
1279.99997066941
 21
1238.190528806667
 31
0.0
  0
TEXT
  5
5781
330
5636
100
AcDbEntity
  8
0
100
AcDbText
 10
1183.333307397417
 20
1253.190528806667
 30
0.0
 40
25.0
  1
175
100
AcDbText
  0
ENDSEC
  0
SECTION
  2
OBJECTS
  0
DICTIONARY
  5
55D3
330
0
100
AcDbDictionary
281
     1
  3
ACAD_CIP_PREVIOUS_PRODUCT_INFO
350
568A
  3
ACAD_COLOR
350
5629
  3
ACAD_DETAILVIEWSTYLE
350
5630
  3
ACAD_FIELDLIST
350
56DB
  3
ACAD_GROUP
350
55D4
  3
ACAD_LAYOUT
350
5628
  3
ACAD_MATERIAL
350
55D7
  3
ACAD_MLEADERSTYLE
350
562C
  3
ACAD_MLINESTYLE
350
5625
  3
ACAD_PLOTSETTINGS
350
5627
  3
ACAD_PLOTSTYLENAME
350
55D5
  3
ACAD_SCALELIST
350
5609
  3
ACAD_SECTIONVIEWSTYLE
350
562E
  3
ACAD_TABLESTYLE
350
562A
  3
ACAD_VISUALSTYLE
350
55F0
  3
ACDB_RECOMPOSE_DATA
350
5793
  3
AcDbVariableDictionary
350
5786
  3
AcmDictionary
350
56B0
  3
AMG
350
568B
  3
AMGSNAPSETTINGS
350
56F0
  0
DICTIONARY
  5
5782
330
561B
100
AcDbDictionary
280
     1
281
     1
  3
ADSK_XREC_LAYER_RECONCILED
360
5783
  0
DICTIONARY
  5
5784
330
5644
100
AcDbDictionary
280
     1
281
     1
  3
ADSK_XREC_LAYER_RECONCILED
360
5785
  0
DICTIONARY
  5
5766
330
5636
100
AcDbDictionary
280
     1
281
     1
  3
ACAD_SORTENTS
360
5767
  0
XRECORD
  5
568A
102
{ACAD_REACTORS
330
55D3
102
}
330
55D3
100
AcDbXrecord
280
     1
300
AMECH_PP
300
2021
300
87400AMECH_PP_2021_0F
  0
DICTIONARY
  5
5629
102
{ACAD_REACTORS
330
55D3
102
}
330
55D3
100
AcDbDictionary
281
     1
  0
DICTIONARY
  5
5630
102
{ACAD_REACTORS
330
55D3
102
}
330
55D3
100
AcDbDictionary
281
     1
  3
Imperial24
350
5631
  0
FIELDLIST
  5
56DB
102
{ACAD_REACTORS
330
55D3
102
}
330
55D3
100
AcDbIdSet
 90
        8
330
56D9
330
56DA
330
56DC
330
56DD
330
56E1
330
56E2
330
56E3
330
56E4
100
AcDbFieldList
  0
DICTIONARY
  5
55D4
102
{ACAD_REACTORS
330
55D3
102
}
330
55D3
100
AcDbDictionary
281
     1
  0
DICTIONARY
  5
5628
102
{ACAD_REACTORS
330
55D3
102
}
330
55D3
100
AcDbDictionary
281
     1
  3
Model
350
5639
  3
レイアウト1
350
5635
  0
DICTIONARY
  5
55D7
102
{ACAD_REACTORS
330
55D3
102
}
330
55D3
100
AcDbDictionary
281
     1
  3
ByBlock
350
55E0
  3
ByLayer
350
55D8
  3
Global
350
55E8
  0
DICTIONARY
  5
562C
102
{ACAD_REACTORS
330
55D3
102
}
330
55D3
100
AcDbDictionary
281
     1
  3
Standard
350
562D
  0
DICTIONARY
  5
5625
102
{ACAD_REACTORS
330
55D3
102
}
330
55D3
100
AcDbDictionary
281
     1
  3
Standard
350
5626
  0
DICTIONARY
  5
5627
102
{ACAD_REACTORS
330
55D3
102
}
330
55D3
100
AcDbDictionary
281
     1
  0
ACDBDICTIONARYWDFLT
  5
55D5
102
{ACAD_REACTORS
330
55D3
102
}
330
55D3
100
AcDbDictionary
281
     1
  3
Normal
350
55D6
100
AcDbDictionaryWithDefault
340
55D6
  0
DICTIONARY
  5
5609
102
{ACAD_REACTORS
330
55D3
102
}
330
55D3
100
AcDbDictionary
281
     1
  3
A0
350
560A
  3
A1
350
560B
  3
A2
350
560C
  3
A3
350
560D
  3
A4
350
560E
  3
A5
350
560F
  3
A6
350
5610
  3
A7
350
5611
  3
A8
350
5612
  3
A9
350
5613
  3
B0
350
5614
  3
B1
350
5615
  3
B2
350
5616
  3
B3
350
5617
  3
B4
350
5618
  3
B5
350
5619
  3
B6
350
561A
  0
DICTIONARY
  5
562E
102
{ACAD_REACTORS
330
55D3
102
}
330
55D3
100
AcDbDictionary
281
     1
  3
Imperial24
350
562F
  0
DICTIONARY
  5
562A
102
{ACAD_REACTORS
330
55D3
102
}
330
55D3
100
AcDbDictionary
281
     1
  3
Standard
350
562B
  0
DICTIONARY
  5
55F0
102
{ACAD_REACTORS
330
55D3
102
}
330
55D3
100
AcDbDictionary
281
     1
  3
2dWireframe
350
55F6
  3
Basic
350
55F5
  3
Brighten
350
55FC
  3
ColorChange
350
5600
  3
Conceptual
350
55F9
  3
Dim
350
55FB
  3
EdgeColorOff
350
5608
  3
Facepattern
350
55FF
  3
Flat
350
55F1
  3
FlatWithEdges
350
55F2
  3
Gouraud
350
55F3
  3
GouraudWithEdges
350
55F4
  3
Hidden
350
55F8
  3
JitterOff
350
5606
  3
Linepattern
350
55FE
  3
OverhangOff
350
5607
  3
Realistic
350
55FA
  3
Shaded
350
5605
  3
Shaded with edges
350
5604
  3
Shades of Gray
350
5601
  3
Sketchy
350
5602
  3
Thicken
350
55FD
  3
Wireframe
350
55F7
  3
X-Ray
350
5603
  0
XRECORD
  5
5793
102
{ACAD_REACTORS
330
55D3
102
}
330
55D3
100
AcDbXrecord
280
     1
 90
        1
330
562B
  0
DICTIONARY
  5
5786
102
{ACAD_REACTORS
330
55D3
102
}
330
55D3
100
AcDbDictionary
281
     1
  3
CANNOSCALE
350
578C
  3
CMLEADERSTYLE
350
5788
  3
CTABLESTYLE
350
5787
  3
CVIEWDETAILSTYLE
350
5789
  3
CVIEWSECTIONSTYLE
350
578A
  3
LAYEREVAL
350
578E
  3
LAYERNOTIFY
350
578F
  3
LIGHTINGUNITS
350
578D
  3
MSLTSCALE
350
578B
  3
XCLIPFRAME
350
5790
  0
DICTIONARY
  5
56B0
102
{ACAD_REACTORS
330
55D3
102
}
330
55D3
100
AcDbDictionary
281
     1
  3
AcmStdDictionary
350
56B7
  0
DICTIONARY
  5
568B
102
{ACAD_REACTORS
330
55D3
102
}
330
55D3
100
AcDbDictionary
281
     1
  0
DICTIONARY
  5
56F0
102
{ACAD_REACTORS
330
55D3
102
}
330
55D3
100
AcDbDictionary
281
     1
  0
XRECORD
  5
5783
102
{ACAD_REACTORS
330
5782
102
}
330
5782
100
AcDbXrecord
280
     1
290
     1
  0
XRECORD
  5
5785
102
{ACAD_REACTORS
330
5784
102
}
330
5784
100
AcDbXrecord
280
     1
290
     1
  0
SORTENTSTABLE
  5
5767
102
{ACAD_REACTORS
330
5766
102
}
330
5766
100
AcDbSortentsTable
330
5636
331
576E
  5
5778
331
576F
  5
5779
331
5770
  5
577A
331
5774
  5
576E
331
5775
  5
576F
331
5776
  5
5770
331
5777
  5
5774
331
5778
  5
5775
331
5779
  5
5776
331
577A
  5
5777
  0
ACDBDETAILVIEWSTYLE
  5
5631
102
{ACAD_XDICTIONARY
360
57C6
102
}
102
{ACAD_REACTORS
330
5630
330
56D4
102
}
330
5630
100
AcDbModelDocViewStyle
 70
     0
  3
Imperial24
290
     0
100
AcDbDetailViewStyle
 70
     0
 71
     0
 90
        3
 71
     1
340
561C
 62
   256
 40
0.24
340
0
 62
   256
 40
0.24
300

 40
0.36
280
     3
 71
     2
340
5623
 90
       25
 62
   256
 71
     3
340
561C
 62
   256
 40
0.24
 90
        1
 40
0.75
 90
        1
300
%<\AcVar ViewType \f "%tc1">% %<\AcVar ViewDetailId>%\PSCALE %<\AcVar ViewScale \f "%sn">%
 71
     4
340
5623
 90
       25
 62
   256
340
5623
 90
       25
 62
   256
280
     0
  0
LAYOUT
  5
5639
102
{ACAD_REACTORS
330
5628
102
}
330
5628
100
AcDbPlotSettings
  1

  2
産機2F_DocuPrint 4050
  4

  6

 40
0.0
 41
0.0
 42
0.0
 43
0.0
 44
0.0
 45
0.0
 46
0.0
 47
0.0
 48
0.0
 49
0.0
140
0.0
141
0.0
142
1.0
143
1.0
 70
  1712
 72
     0
 73
     0
 74
     0
  7

 75
     0
147
1.0
 76
     0
 77
     2
 78
   300
148
0.0
149
0.0
100
AcDbLayout
  1
Model
 70
     1
 71
     0
 10
0.0
 20
0.0
 11
12.0
 21
9.0
 12
0.0
 22
0.0
 32
0.0
 14
0.0
 24
0.0
 34
0.0
 15
0.0
 25
0.0
 35
0.0
146
0.0
 13
0.0
 23
0.0
 33
0.0
 16
1.0
 26
0.0
 36
0.0
 17
0.0
 27
1.0
 37
0.0
 76
     0
330
5636
331
563A
  0
LAYOUT
  5
5635
102
{ACAD_REACTORS
330
5628
102
}
330
5628
100
AcDbPlotSettings
  1

  2
産機2F_DocuPrint 4050
  4

  6

 40
0.0
 41
0.0
 42
0.0
 43
0.0
 44
0.0
 45
0.0
 46
0.0
 47
0.0
 48
0.0
 49
0.0
140
0.0
141
0.0
142
1.0
143
1.0
 70
   688
 72
     0
 73
     0
 74
     5
  7

 75
    16
147
1.0
 76
     0
 77
     2
 78
   300
148
0.0
149
0.0
100
AcDbLayout
  1
レイアウト1
 70
     0
 71
     1
 10
0.0
 20
0.0
 11
12.0
 21
9.0
 12
0.0
 22
0.0
 32
0.0
 14
1.000000000000000E+20
 24
1.000000000000000E+20
 34
1.000000000000000E+20
 15
-1.000000000000000E+20
 25
-1.000000000000000E+20
 35
-1.000000000000000E+20
146
0.0
 13
0.0
 23
0.0
 33
0.0
 16
1.0
 26
0.0
 36
0.0
 17
0.0
 27
1.0
 37
0.0
 76
     0
330
5632
  0
MATERIAL
  5
55E0
102
{ACAD_XDICTIONARY
360
55E1
102
}
102
{ACAD_REACTORS
330
55D7
102
}
330
55D7
100
AcDbMaterial
  1
ByBlock
 72
     0
 43
0.0208333333333333
 43
0.0
 43
0.0
 43
0.0
 43
0.0
 43
0.0208333333333333
 43
0.0
 43
0.0
 43
0.0
 43
0.0
 43
1.0
 43
0.0
 43
0.0
 43
0.0
 43
0.0
 43
1.0
 77
     0
 47
0.0208333333333333
 47
0.0
 47
0.0
 47
0.0
 47
0.0
 47
0.0208333333333333
 47
0.0
 47
0.0
 47
0.0
 47
0.0
 47
1.0
 47
0.0
 47
0.0
 47
0.0
 47
0.0
 47
1.0
171
     0
 49
0.0208333333333333
 49
0.0
 49
0.0
 49
0.0
 49
0.0
 49
0.0208333333333333
 49
0.0
 49
0.0
 49
0.0
 49
0.0
 49
1.0
 49
0.0
 49
0.0
 49
0.0
 49
0.0
 49
1.0
175
     0
142
0.0208333333333333
142
0.0
142
0.0
142
0.0
142
0.0
142
0.0208333333333333
142
0.0
142
0.0
142
0.0
142
0.0
142
1.0
142
0.0
142
0.0
142
0.0
142
0.0
142
1.0
179
     0
144
0.0208333333333333
144
0.0
144
0.0
144
0.0
144
0.0
144
0.0208333333333333
144
0.0
144
0.0
144
0.0
144
0.0
144
1.0
144
0.0
144
0.0
144
0.0
144
0.0
144
1.0
147
0.0208333333333333
147
0.0
147
0.0
147
0.0
147
0.0
147
0.0208333333333333
147
0.0
147
0.0
147
0.0
147
0.0
147
1.0
147
0.0
147
0.0
147
0.0
147
0.0
147
1.0
  0
MATERIAL
  5
55D8
102
{ACAD_XDICTIONARY
360
55D9
102
}
102
{ACAD_REACTORS
330
55D7
102
}
330
55D7
100
AcDbMaterial
  1
ByLayer
 72
     0
 43
0.0208333333333333
 43
0.0
 43
0.0
 43
0.0
 43
0.0
 43
0.0208333333333333
 43
0.0
 43
0.0
 43
0.0
 43
0.0
 43
1.0
 43
0.0
 43
0.0
 43
0.0
 43
0.0
 43
1.0
 77
     0
 47
0.0208333333333333
 47
0.0
 47
0.0
 47
0.0
 47
0.0
 47
0.0208333333333333
 47
0.0
 47
0.0
 47
0.0
 47
0.0
 47
1.0
 47
0.0
 47
0.0
 47
0.0
 47
0.0
 47
1.0
171
     0
 49
0.0208333333333333
 49
0.0
 49
0.0
 49
0.0
 49
0.0
 49
0.0208333333333333
 49
0.0
 49
0.0
 49
0.0
 49
0.0
 49
1.0
 49
0.0
 49
0.0
 49
0.0
 49
0.0
 49
1.0
175
     0
142
0.0208333333333333
142
0.0
142
0.0
142
0.0
142
0.0
142
0.0208333333333333
142
0.0
142
0.0
142
0.0
142
0.0
142
1.0
142
0.0
142
0.0
142
0.0
142
0.0
142
1.0
179
     0
144
0.0208333333333333
144
0.0
144
0.0
144
0.0
144
0.0
144
0.0208333333333333
144
0.0
144
0.0
144
0.0
144
0.0
144
1.0
144
0.0
144
0.0
144
0.0
144
0.0
144
1.0
147
0.0208333333333333
147
0.0
147
0.0
147
0.0
147
0.0
147
0.0208333333333333
147
0.0
147
0.0
147
0.0
147
0.0
147
1.0
147
0.0
147
0.0
147
0.0
147
0.0
147
1.0
  0
MATERIAL
  5
55E8
102
{ACAD_XDICTIONARY
360
55E9
102
}
102
{ACAD_REACTORS
330
55D7
102
}
330
55D7
100
AcDbMaterial
  1
Global
 72
     0
 43
0.0208333333333333
 43
0.0
 43
0.0
 43
0.0
 43
0.0
 43
0.0208333333333333
 43
0.0
 43
0.0
 43
0.0
 43
0.0
 43
1.0
 43
0.0
 43
0.0
 43
0.0
 43
0.0
 43
1.0
 77
     0
 47
0.0208333333333333
 47
0.0
 47
0.0
 47
0.0
 47
0.0
 47
0.0208333333333333
 47
0.0
 47
0.0
 47
0.0
 47
0.0
 47
1.0
 47
0.0
 47
0.0
 47
0.0
 47
0.0
 47
1.0
171
     0
 49
0.0208333333333333
 49
0.0
 49
0.0
 49
0.0
 49
0.0
 49
0.0208333333333333
 49
0.0
 49
0.0
 49
0.0
 49
0.0
 49
1.0
 49
0.0
 49
0.0
 49
0.0
 49
0.0
 49
1.0
175
     0
142
0.0208333333333333
142
0.0
142
0.0
142
0.0
142
0.0
142
0.0208333333333333
142
0.0
142
0.0
142
0.0
142
0.0
142
1.0
142
0.0
142
0.0
142
0.0
142
0.0
142
1.0
179
     0
144
0.0208333333333333
144
0.0
144
0.0
144
0.0
144
0.0
144
0.0208333333333333
144
0.0
144
0.0
144
0.0
144
0.0
144
1.0
144
0.0
144
0.0
144
0.0
144
0.0
144
1.0
147
0.0208333333333333
147
0.0
147
0.0
147
0.0
147
0.0
147
0.0208333333333333
147
0.0
147
0.0
147
0.0
147
0.0
147
1.0
147
0.0
147
0.0
147
0.0
147
0.0
147
1.0
  0
MLEADERSTYLE
  5
562D
102
{ACAD_REACTORS
330
562C
102
}
330
562C
100
AcDbMLeaderStyle
170
     2
171
     1
172
     0
 90
        2
 40
0.0
 41
0.0
173
     1
 91
-1056964608
340
5621
 92
       -2
290
     1
 42
0.09
291
     1
 43
0.36
  3
Standard
 44
0.18
300

342
561C
174
     1
178
     6
175
     1
176
     0
 93
-1056964608
 45
0.18
292
     0
297
     0
 46
0.18
 94
-1056964608
 47
1.0
 49
1.0
140
1.0
293
     1
141
0.0
294
     1
177
     0
142
1.0
295
     0
296
     0
143
0.125
1001
ACAD_MLEADERVER
1070
     2
  0
MLINESTYLE
  5
5626
102
{ACAD_REACTORS
330
5625
102
}
330
5625
100
AcDbMlineStyle
  2
STANDARD
 70
     0
  3

 62
   256
 51
90.0
 52
90.0
 71
     2
 49
0.5
 62
   256
  6
BYLAYER
 49
-0.5
 62
   256
  6
BYLAYER
  0
ACDBPLACEHOLDER
  5
55D6
102
{ACAD_REACTORS
330
55D5
102
}
330
55D5
  0
SCALE
  5
560A
102
{ACAD_REACTORS
330
5609
102
}
330
5609
100
AcDbScale
 70
     0
300
1:1
140
1.0
141
1.0
290
     1
  0
SCALE
  5
560B
102
{ACAD_REACTORS
330
5609
102
}
330
5609
100
AcDbScale
 70
     0
300
1/128" = 1'-0"
140
0.0078125
141
12.0
290
     0
  0
SCALE
  5
560C
102
{ACAD_REACTORS
330
5609
102
}
330
5609
100
AcDbScale
 70
     0
300
1/64" = 1'-0"
140
0.015625
141
12.0
290
     0
  0
SCALE
  5
560D
102
{ACAD_REACTORS
330
5609
102
}
330
5609
100
AcDbScale
 70
     0
300
1/32" = 1'-0"
140
0.03125
141
12.0
290
     0
  0
SCALE
  5
560E
102
{ACAD_REACTORS
330
5609
102
}
330
5609
100
AcDbScale
 70
     0
300
1/16" = 1'-0"
140
0.0625
141
12.0
290
     0
  0
SCALE
  5
560F
102
{ACAD_REACTORS
330
5609
102
}
330
5609
100
AcDbScale
 70
     0
300
3/32" = 1'-0"
140
0.09375
141
12.0
290
     0
  0
SCALE
  5
5610
102
{ACAD_REACTORS
330
5609
102
}
330
5609
100
AcDbScale
 70
     0
300
1/8" = 1'-0"
140
0.125
141
12.0
290
     0
  0
SCALE
  5
5611
102
{ACAD_REACTORS
330
5609
102
}
330
5609
100
AcDbScale
 70
     0
300
3/16" = 1'-0"
140
0.1875
141
12.0
290
     0
  0
SCALE
  5
5612
102
{ACAD_REACTORS
330
5609
102
}
330
5609
100
AcDbScale
 70
     0
300
1/4" = 1'-0"
140
0.25
141
12.0
290
     0
  0
SCALE
  5
5613
102
{ACAD_REACTORS
330
5609
102
}
330
5609
100
AcDbScale
 70
     0
300
3/8" = 1'-0"
140
0.375
141
12.0
290
     0
  0
SCALE
  5
5614
102
{ACAD_REACTORS
330
5609
102
}
330
5609
100
AcDbScale
 70
     0
300
1/2" = 1'-0"
140
0.5
141
12.0
290
     0
  0
SCALE
  5
5615
102
{ACAD_REACTORS
330
5609
102
}
330
5609
100
AcDbScale
 70
     0
300
3/4" = 1'-0"
140
0.75
141
12.0
290
     0
  0
SCALE
  5
5616
102
{ACAD_REACTORS
330
5609
102
}
330
5609
100
AcDbScale
 70
     0
300
1" = 1'-0"
140
1.0
141
12.0
290
     0
  0
SCALE
  5
5617
102
{ACAD_REACTORS
330
5609
102
}
330
5609
100
AcDbScale
 70
     0
300
1-1/2" = 1'-0"
140
1.5
141
12.0
290
     0
  0
SCALE
  5
5618
102
{ACAD_REACTORS
330
5609
102
}
330
5609
100
AcDbScale
 70
     0
300
3" = 1'-0"
140
3.0
141
12.0
290
     0
  0
SCALE
  5
5619
102
{ACAD_REACTORS
330
5609
102
}
330
5609
100
AcDbScale
 70
     0
300
6" = 1'-0"
140
6.0
141
12.0
290
     0
  0
SCALE
  5
561A
102
{ACAD_REACTORS
330
5609
102
}
330
5609
100
AcDbScale
 70
     0
300
1'-0" = 1'-0"
140
12.0
141
12.0
290
     0
  0
ACDBSECTIONVIEWSTYLE
  5
562F
102
{ACAD_XDICTIONARY
360
57C4
102
}
102
{ACAD_REACTORS
330
562E
330
56D3
102
}
330
562E
100
AcDbModelDocViewStyle
 70
     0
  3
Imperial24
290
     0
100
AcDbSectionViewStyle
 70
     0
 71
     0
 90
       78
 71
     1
340
561C
 62
   256
 40
0.24
340
0
340
0
 62
   256
 40
0.24
300
I, O, Q, S, X, Z
 40
0.48
 90
        3
 40
0.18
 90
        1
 71
     2
340
5623
 90
       25
 62
   256
340
5623
 90
       50
 62
   256
 40
0.24
 40
0.0
 40
0.24
 71
     3
340
561C
 62
   256
 40
0.24
 90
        1
 40
0.75
 90
        1
300
%<\AcVar ViewType \f "%tc1">% %<\AcVar ViewSectionStartId>%-%<\AcVar ViewSectionEndId>%\PSCALE %<\AcVar ViewScale \f "%sn">%
 71
     4
 62
   256
 62
   257
300
ANSI31
 40
1.0
 90
        0
290
     0
290
     0
 90
        6
 40
0.0
 40
1.570796326794896
 40
0.2617993877991494
 40
1.308996938995747
 40
-0.2617993877991494
 40
1.832595714594046
  0
TABLESTYLE
  5
562B
102
{ACAD_XDICTIONARY
360
5791
102
}
102
{ACAD_REACTORS
330
562A
102
}
330
562A
100
AcDbTableStyle
  3
Standard
 70
     0
 71
     0
 40
0.06
 41
0.06
280
     0
281
     0
  7
STANDARD
140
0.18
170
     2
 62
     0
 63
     7
283
     0
 90
      512
 91
        0
  1

274
    -2
284
     1
 64
     0
275
    -2
285
     1
 65
     0
276
    -2
286
     1
 66
     0
277
    -2
287
     1
 67
     0
278
    -2
288
     1
 68
     0
279
    -2
289
     1
 69
     0
  7
STANDARD
140
0.25
170
     5
 62
     0
 63
     7
283
     0
 90
      512
 91
        0
  1

274
    -2
284
     1
 64
     0
275
    -2
285
     1
 65
     0
276
    -2
286
     1
 66
     0
277
    -2
287
     1
 67
     0
278
    -2
288
     1
 68
     0
279
    -2
289
     1
 69
     0
  7
STANDARD
140
0.18
170
     5
 62
     0
 63
     7
283
     0
 90
      512
 91
        0
  1

274
    -2
284
     1
 64
     0
275
    -2
285
     1
 65
     0
276
    -2
286
     1
 66
     0
277
    -2
287
     1
 67
     0
278
    -2
288
     1
 68
     0
279
    -2
289
     1
 69
     0
  0
VISUALSTYLE
  5
55F6
102
{ACAD_XDICTIONARY
360
579E
102
}
102
{ACAD_REACTORS
330
55F0
102
}
330
55F0
100
AcDbVisualStyle
  2
2dWireframe
 70
     4
 71
     0
 72
     2
 73
     0
 90
        0
 40
-0.6
 41
-30.0
 62
     5
 63
     7
421
 16777215
 74
     1
 91
        4
 64
     7
 65
   257
 75
     1
175
     1
 42
1.0
 92
        0
 66
   257
 43
1.0
 76
     1
 77
     6
 78
     2
 67
     7
 79
     5
170
     0
171
     0
290
     0
174
     0
 93
        1
 44
0.0
173
     0
291
     0
 45
0.0
1001
ACAD
1000
AcDbSavedByObjectVersion
1070
     0
  0
VISUALSTYLE
  5
55F5
102
{ACAD_XDICTIONARY
360
579C
102
}
102
{ACAD_REACTORS
330
55F0
102
}
330
55F0
100
AcDbVisualStyle
  2
Basic
 70
     7
 71
     1
 72
     0
 73
     1
 90
        0
 40
-0.6
 41
-30.0
 62
     5
 63
     7
421
 16777215
 74
     0
 91
        4
 64
     7
 65
   257
 75
     1
175
     1
 42
1.0
 92
        8
 66
     7
 43
1.0
 76
     1
 77
     6
 78
     2
 67
     7
 79
     5
170
     0
171
     0
290
     0
174
     0
 93
        1
 44
0.0
173
     0
291
     1
 45
0.0
1001
ACAD
1000
AcDbSavedByObjectVersion
1070
     0
  0
VISUALSTYLE
  5
55FC
102
{ACAD_XDICTIONARY
360
57AA
102
}
102
{ACAD_REACTORS
330
55F0
102
}
330
55F0
100
AcDbVisualStyle
  2
Brighten
 70
    12
 71
     2
 72
     2
 73
     0
 90
        0
 40
-0.6
 41
-30.0
 62
     5
 63
     7
421
 16777215
 74
     1
 91
        4
 64
     7
 65
   257
 75
     1
175
     1
 42
1.0
 92
        8
 66
     7
 43
1.0
 76
     1
 77
     6
 78
     2
 67
     7
 79
     5
170
     0
171
     0
290
     0
174
     0
 93
        1
 44
50.0
173
     0
291
     1
 45
0.0
1001
ACAD
1000
AcDbSavedByObjectVersion
1070
     0
  0
VISUALSTYLE
  5
5600
102
{ACAD_XDICTIONARY
360
57B2
102
}
102
{ACAD_REACTORS
330
55F0
102
}
330
55F0
100
AcDbVisualStyle
  2
ColorChange
 70
    16
 71
     2
 72
     2
 73
     3
 90
        0
 40
-0.6
 41
-30.0
 62
     5
 63
     8
421
  8421504
 74
     1
 91
        4
 64
     7
 65
   257
 75
     1
175
     1
 42
1.0
 92
        8
 66
     8
424
  8421504
 43
1.0
 76
     1
 77
     6
 78
     2
 67
     7
 79
     5
170
     0
171
     0
290
     0
174
     0
 93
        1
 44
0.0
173
     0
291
     1
 45
0.0
1001
ACAD
1000
AcDbSavedByObjectVersion
1070
     0
  0
VISUALSTYLE
  5
55F9
102
{ACAD_XDICTIONARY
360
57A4
102
}
102
{ACAD_REACTORS
330
55F0
102
}
330
55F0
100
AcDbVisualStyle
  2
Conceptual
 70
     9
 71
     3
 72
     2
 73
     0
 90
        0
 40
-0.6
 41
-30.0
 62
     5
 63
     7
421
 16777215
 74
     2
 91
        2
 64
     7
 65
   257
 75
     1
175
     1
 42
179.0
 92
        8
 66
     7
 43
1.0
 76
     1
 77
     6
 78
     2
 67
     7
 79
     3
170
     0
171
     0
290
     0
174
     0
 93
        1
 44
0.0
173
     0
291
     0
 45
0.0
1001
ACAD
1000
AcDbSavedByObjectVersion
1070
     0
  0
VISUALSTYLE
  5
55FB
102
{ACAD_XDICTIONARY
360
57A8
102
}
102
{ACAD_REACTORS
330
55F0
102
}
330
55F0
100
AcDbVisualStyle
  2
Dim
 70
    11
 71
     2
 72
     2
 73
     0
 90
        0
 40
-0.6
 41
-30.0
 62
     5
 63
     7
421
 16777215
 74
     1
 91
        4
 64
     7
 65
   257
 75
     1
175
     1
 42
1.0
 92
        8
 66
     7
 43
1.0
 76
     1
 77
     6
 78
     2
 67
     7
 79
     5
170
     0
171
     0
290
     0
174
     0
 93
        1
 44
-50.0
173
     0
291
     1
 45
0.0
1001
ACAD
1000
AcDbSavedByObjectVersion
1070
     0
  0
VISUALSTYLE
  5
5608
102
{ACAD_XDICTIONARY
360
57C2
102
}
102
{ACAD_REACTORS
330
55F0
102
}
330
55F0
100
AcDbVisualStyle
  2
EdgeColorOff
 70
    22
 71
     2
 72
     2
 73
     0
 90
        0
 40
-0.6
 41
-30.0
 62
     5
 63
     7
421
 16777215
 74
     1
 91
        4
 64
     7
 65
   257
 75
     1
175
     1
 42
1.0
 92
        8
 66
     7
 43
1.0
 76
     1
 77
     6
 78
     2
 67
     7
 79
     5
170
     0
171
     0
290
     0
174
     0
 93
        1
 44
0.0
173
     0
291
     1
 45
0.0
1001
ACAD
1000
AcDbSavedByObjectVersion
1070
     0
  0
VISUALSTYLE
  5
55FF
102
{ACAD_XDICTIONARY
360
57B0
102
}
102
{ACAD_REACTORS
330
55F0
102
}
330
55F0
100
AcDbVisualStyle
  2
Facepattern
 70
    15
 71
     2
 72
     2
 73
     0
 90
        0
 40
-0.6
 41
-30.0
 62
     5
 63
     7
421
 16777215
 74
     1
 91
        4
 64
     7
 65
   257
 75
     1
175
     1
 42
1.0
 92
        8
 66
     7
 43
1.0
 76
     1
 77
     6
 78
     2
 67
     7
 79
     5
170
     0
171
     0
290
     0
174
     0
 93
        1
 44
0.0
173
     0
291
     1
 45
0.0
1001
ACAD
1000
AcDbSavedByObjectVersion
1070
     0
  0
VISUALSTYLE
  5
55F1
102
{ACAD_XDICTIONARY
360
5794
102
}
102
{ACAD_REACTORS
330
55F0
102
}
330
55F0
100
AcDbVisualStyle
  2
Flat
 70
     0
 71
     2
 72
     1
 73
     1
 90
        2
 40
-0.6
 41
30.0
 62
     5
 63
     7
421
 16777215
 74
     0
 91
        0
 64
     7
 65
   257
 75
     1
175
     1
 42
1.0
 92
        8
 66
     7
 43
1.0
 76
     1
 77
     6
 78
     2
 67
     7
 79
     5
170
     0
171
     0
290
     0
174
     0
 93
       13
 44
0.0
173
     0
291
     1
 45
0.0
1001
ACAD
1000
AcDbSavedByObjectVersion
1070
     0
  0
VISUALSTYLE
  5
55F2
102
{ACAD_XDICTIONARY
360
5796
102
}
102
{ACAD_REACTORS
330
55F0
102
}
330
55F0
100
AcDbVisualStyle
  2
FlatWithEdges
 70
     1
 71
     2
 72
     1
 73
     1
 90
        2
 40
-0.6
 41
30.0
 62
     5
 63
     7
421
 16777215
 74
     1
 91
        0
 64
     7
 65
   257
 75
     1
175
     1
 42
1.0
 92
        0
 66
   257
 43
1.0
 76
     1
 77
     6
 78
     2
 67
     7
 79
     5
170
     0
171
     0
290
     0
174
     0
 93
       13
 44
0.0
173
     0
291
     1
 45
0.0
1001
ACAD
1000
AcDbSavedByObjectVersion
1070
     0
  0
VISUALSTYLE
  5
55F3
102
{ACAD_XDICTIONARY
360
5798
102
}
102
{ACAD_REACTORS
330
55F0
102
}
330
55F0
100
AcDbVisualStyle
  2
Gouraud
 70
     2
 71
     2
 72
     2
 73
     1
 90
        2
 40
-0.6
 41
30.0
 62
     5
 63
     7
421
 16777215
 74
     0
 91
        0
 64
     7
 65
   257
 75
     1
175
     1
 42
1.0
 92
        0
 66
     7
 43
1.0
 76
     1
 77
     6
 78
     2
 67
     7
 79
     5
170
     0
171
     0
290
     0
174
     0
 93
       13
 44
0.0
173
     0
291
     1
 45
0.0
1001
ACAD
1000
AcDbSavedByObjectVersion
1070
     0
  0
VISUALSTYLE
  5
55F4
102
{ACAD_XDICTIONARY
360
579A
102
}
102
{ACAD_REACTORS
330
55F0
102
}
330
55F0
100
AcDbVisualStyle
  2
GouraudWithEdges
 70
     3
 71
     2
 72
     2
 73
     1
 90
        2
 40
-0.6
 41
30.0
 62
     5
 63
     7
421
 16777215
 74
     1
 91
        0
 64
     7
 65
   257
 75
     1
175
     1
 42
1.0
 92
        0
 66
   257
 43
1.0
 76
     1
 77
     6
 78
     2
 67
     7
 79
     5
170
     0
171
     0
290
     0
174
     0
 93
       13
 44
0.0
173
     0
291
     1
 45
0.0
1001
ACAD
1000
AcDbSavedByObjectVersion
1070
     0
  0
VISUALSTYLE
  5
55F8
102
{ACAD_XDICTIONARY
360
57A2
102
}
102
{ACAD_REACTORS
330
55F0
102
}
330
55F0
100
AcDbVisualStyle
  2
Hidden
 70
     6
 71
     1
 72
     2
 73
     2
 90
        0
 40
-0.6
 41
-30.0
 62
     5
 63
     7
421
 16777215
 74
     2
 91
        2
 64
     7
 65
   257
 75
     2
175
     1
 42
40.0
 92
        0
 66
   257
 43
1.0
 76
     1
 77
     6
 78
     2
 67
     7
 79
     3
170
     0
171
     0
290
     0
174
     0
 93
        1
 44
0.0
173
     0
291
     0
 45
0.0
1001
ACAD
1000
AcDbSavedByObjectVersion
1070
     0
  0
VISUALSTYLE
  5
5606
102
{ACAD_XDICTIONARY
360
57BE
102
}
102
{ACAD_REACTORS
330
55F0
102
}
330
55F0
100
AcDbVisualStyle
  2
JitterOff
 70
    20
 71
     2
 72
     2
 73
     0
 90
        0
 40
-0.6
 41
-30.0
 62
     5
 63
     7
421
 16777215
 74
     1
 91
        4
 64
     7
 65
   257
 75
     1
175
     1
 42
1.0
 92
       10
 66
     7
 43
1.0
 76
     1
 77
     6
 78
     2
 67
     7
 79
     5
170
     0
171
     0
290
     0
174
     0
 93
        1
 44
0.0
173
     0
291
     1
 45
0.0
1001
ACAD
1000
AcDbSavedByObjectVersion
1070
     0
  0
VISUALSTYLE
  5
55FE
102
{ACAD_XDICTIONARY
360
57AE
102
}
102
{ACAD_REACTORS
330
55F0
102
}
330
55F0
100
AcDbVisualStyle
  2
Linepattern
 70
    14
 71
     2
 72
     2
 73
     0
 90
        0
 40
-0.6
 41
-30.0
 62
     5
 63
     7
421
 16777215
 74
     1
 91
        4
 64
     7
 65
   257
 75
     7
175
     7
 42
1.0
 92
        8
 66
     7
 43
1.0
 76
     1
 77
     6
 78
     2
 67
     7
 79
     5
170
     0
171
     0
290
     0
174
     0
 93
        1
 44
0.0
173
     0
291
     1
 45
0.0
1001
ACAD
1000
AcDbSavedByObjectVersion
1070
     0
  0
VISUALSTYLE
  5
5607
102
{ACAD_XDICTIONARY
360
57C0
102
}
102
{ACAD_REACTORS
330
55F0
102
}
330
55F0
100
AcDbVisualStyle
  2
OverhangOff
 70
    21
 71
     2
 72
     2
 73
     0
 90
        0
 40
-0.6
 41
-30.0
 62
     5
 63
     7
421
 16777215
 74
     1
 91
        4
 64
     7
 65
   257
 75
     1
175
     1
 42
1.0
 92
        9
 66
     7
 43
1.0
 76
     1
 77
     6
 78
     2
 67
     7
 79
     5
170
     0
171
     0
290
     0
174
     0
 93
        1
 44
0.0
173
     0
291
     1
 45
0.0
1001
ACAD
1000
AcDbSavedByObjectVersion
1070
     0
  0
VISUALSTYLE
  5
55FA
102
{ACAD_XDICTIONARY
360
57A6
102
}
102
{ACAD_REACTORS
330
55F0
102
}
330
55F0
100
AcDbVisualStyle
  2
Realistic
 70
     8
 71
     2
 72
     3
 73
     0
 90
        2
 40
-0.6
 41
30.0
 62
     5
 63
     7
421
 16777215
 74
     0
 91
        0
 64
     7
 65
   257
 75
     1
175
     1
 42
1.0
 92
        8
 66
   257
 43
1.0
 76
     1
 77
     6
 78
     2
 67
     7
 79
     3
170
     0
171
     0
290
     0
174
     0
 93
       13
 44
0.0
173
     0
291
     0
 45
0.0
1001
ACAD
1000
AcDbSavedByObjectVersion
1070
     0
  0
VISUALSTYLE
  5
5605
102
{ACAD_XDICTIONARY
360
57BC
102
}
102
{ACAD_REACTORS
330
55F0
102
}
330
55F0
100
AcDbVisualStyle
  2
Shaded
 70
    27
 71
     2
 72
     2
 73
     1
 90
        2
 40
-0.6
 41
30.0
 62
     5
 63
     7
421
 16777215
 74
     0
 91
        4
 64
     7
 65
   257
 75
     1
175
     1
 42
1.0
 92
        8
 66
   257
 43
1.0
 76
     1
 77
     6
 78
     2
 67
     8
425
  7895160
 79
     3
170
     0
171
     0
290
     0
174
     0
 93
        5
 44
0.0
173
     0
291
     0
 45
0.0
1001
ACAD
1000
AcDbSavedByObjectVersion
1070
     0
  0
VISUALSTYLE
  5
5604
102
{ACAD_XDICTIONARY
360
57BA
102
}
102
{ACAD_REACTORS
330
55F0
102
}
330
55F0
100
AcDbVisualStyle
  2
Shaded with edges
 70
    26
 71
     2
 72
     2
 73
     1
 90
        2
 40
-0.6
 41
30.0
 62
     5
 63
     7
421
 16777215
 74
     1
 91
        2
 64
     7
 65
   257
 75
     2
175
     1
 42
1.0
 92
        8
 66
   257
 43
1.0
 76
     1
 77
     6
 78
     2
 67
     7
 79
     3
170
     0
171
     0
290
     0
174
     0
 93
        5
 44
0.0
173
     0
291
     0
 45
0.0
1001
ACAD
1000
AcDbSavedByObjectVersion
1070
     0
  0
VISUALSTYLE
  5
5601
102
{ACAD_XDICTIONARY
360
57B4
102
}
102
{ACAD_REACTORS
330
55F0
102
}
330
55F0
100
AcDbVisualStyle
  2
Shades of Gray
 70
    23
 71
     2
 72
     2
 73
     3
 90
        0
 40
-0.6
 41
-30.0
 62
     5
 63
     7
421
 16777215
 74
     2
 91
        2
 64
     7
 65
     7
 75
     1
175
     1
 42
40.0
 92
        8
 66
     7
 43
1.0
 76
     1
 77
     6
 78
     2
 67
     7
 79
     3
170
     0
171
     0
290
     0
174
     0
 93
        1
 44
0.0
173
     0
291
     0
 45
0.0
1001
ACAD
1000
AcDbSavedByObjectVersion
1070
     0
  0
VISUALSTYLE
  5
5602
102
{ACAD_XDICTIONARY
360
57B6
102
}
102
{ACAD_REACTORS
330
55F0
102
}
330
55F0
100
AcDbVisualStyle
  2
Sketchy
 70
    24
 71
     1
 72
     2
 73
     2
 90
        0
 40
-0.6
 41
-30.0
 62
     5
 63
     7
421
 16777215
 74
     2
 91
        2
 64
     7
 65
     7
 75
     1
175
     1
 42
40.0
 92
       11
 66
     7
 43
1.0
 76
     1
 77
     6
 78
     2
 67
     7
 79
     6
170
     0
171
     0
290
     0
174
     0
 93
        1
 44
0.0
173
     0
291
     0
 45
0.0
1001
ACAD
1000
AcDbSavedByObjectVersion
1070
     0
  0
VISUALSTYLE
  5
55FD
102
{ACAD_XDICTIONARY
360
57AC
102
}
102
{ACAD_REACTORS
330
55F0
102
}
330
55F0
100
AcDbVisualStyle
  2
Thicken
 70
    13
 71
     2
 72
     2
 73
     0
 90
        0
 40
-0.6
 41
-30.0
 62
     5
 63
     7
421
 16777215
 74
     1
 91
        4
 64
     7
 65
   257
 75
     1
175
     1
 42
1.0
 92
       12
 66
     7
 43
1.0
 76
     1
 77
     6
 78
     2
 67
     7
 79
     5
170
     0
171
     0
290
     0
174
     0
 93
        1
 44
0.0
173
     0
291
     1
 45
0.0
1001
ACAD
1000
AcDbSavedByObjectVersion
1070
     0
  0
VISUALSTYLE
  5
55F7
102
{ACAD_XDICTIONARY
360
57A0
102
}
102
{ACAD_REACTORS
330
55F0
102
}
330
55F0
100
AcDbVisualStyle
  2
Wireframe
 70
     5
 71
     0
 72
     2
 73
     0
 90
        0
 40
-0.6
 41
-30.0
 62
     5
 63
     7
421
 16777215
 74
     1
 91
        4
 64
     7
 65
   257
 75
     1
175
     1
 42
1.0
 92
        0
 66
   257
 43
1.0
 76
     1
 77
     6
 78
     2
 67
     7
 79
     3
170
     0
171
     0
290
     0
174
     0
 93
        1
 44
0.0
173
     0
291
     0
 45
0.0
1001
ACAD
1000
AcDbSavedByObjectVersion
1070
     0
  0
VISUALSTYLE
  5
5603
102
{ACAD_XDICTIONARY
360
57B8
102
}
102
{ACAD_REACTORS
330
55F0
102
}
330
55F0
100
AcDbVisualStyle
  2
X-Ray
 70
    25
 71
     2
 72
     2
 73
     1
 90
        1
 40
0.5
 41
-30.0
 62
     5
 63
     7
421
 16777215
 74
     1
 91
        0
 64
     7
 65
   257
 75
     1
175
     1
 42
1.0
 92
        8
 66
     7
 43
1.0
 76
     1
 77
     6
 78
     2
 67
     7
 79
     3
170
     0
171
     0
290
     0
174
     0
 93
       13
 44
0.0
173
     0
291
     0
 45
0.0
1001
ACAD
1000
AcDbSavedByObjectVersion
1070
     0
  0
DICTIONARYVAR
  5
578C
102
{ACAD_REACTORS
330
5786
102
}
330
5786
100
DictionaryVariables
280
     0
  1
1:1
  0
DICTIONARYVAR
  5
5788
102
{ACAD_REACTORS
330
5786
102
}
330
5786
100
DictionaryVariables
280
     0
  1
STANDARD
  0
DICTIONARYVAR
  5
5787
102
{ACAD_REACTORS
330
5786
102
}
330
5786
100
DictionaryVariables
280
     0
  1
STANDARD
  0
DICTIONARYVAR
  5
5789
102
{ACAD_REACTORS
330
5786
102
}
330
5786
100
DictionaryVariables
280
     0
  1
Imperial24
  0
DICTIONARYVAR
  5
578A
102
{ACAD_REACTORS
330
5786
102
}
330
5786
100
DictionaryVariables
280
     0
  1
Imperial24
  0
DICTIONARYVAR
  5
578E
102
{ACAD_REACTORS
330
5786
102
}
330
5786
100
DictionaryVariables
280
     0
  1
1
  0
DICTIONARYVAR
  5
578F
102
{ACAD_REACTORS
330
5786
102
}
330
5786
100
DictionaryVariables
280
     0
  1
15
  0
DICTIONARYVAR
  5
578D
102
{ACAD_REACTORS
330
5786
102
}
330
5786
100
DictionaryVariables
280
     0
  1
0
  0
DICTIONARYVAR
  5
578B
102
{ACAD_REACTORS
330
5786
102
}
330
5786
100
DictionaryVariables
280
     0
  1
0
  0
DICTIONARYVAR
  5
5790
102
{ACAD_REACTORS
330
5786
102
}
330
5786
100
DictionaryVariables
280
     0
  1
2
  0
DICTIONARY
  5
56B7
102
{ACAD_REACTORS
330
56B0
102
}
330
56B0
100
AcDbDictionary
281
     1
  0
DICTIONARY
  5
57C6
330
5631
100
AcDbDictionary
280
     1
281
     1
  3
ACAD_XREC_ROUNDTRIP
360
57C7
  0
DICTIONARY
  5
55E1
330
55E0
100
AcDbDictionary
280
     1
281
     1
  3
BUMPTILE
360
55E3
  3
DIFFUSETILE
360
55E2
  3
OPACITYTILE
360
55E6
  3
REFLECTIONTILE
360
55E5
  3
REFRACTIONTILE
360
55E7
  3
SPECULARTILE
360
55E4
  0
DICTIONARY
  5
55D9
330
55D8
100
AcDbDictionary
280
     1
281
     1
  3
BUMPTILE
360
55DB
  3
DIFFUSETILE
360
55DA
  3
OPACITYTILE
360
55DE
  3
REFLECTIONTILE
360
55DD
  3
REFRACTIONTILE
360
55DF
  3
SPECULARTILE
360
55DC
  0
DICTIONARY
  5
55E9
330
55E8
100
AcDbDictionary
280
     1
281
     1
  3
BUMPTILE
360
55EB
  3
DIFFUSETILE
360
55EA
  3
OPACITYTILE
360
55EE
  3
REFLECTIONTILE
360
55ED
  3
REFRACTIONTILE
360
55EF
  3
SPECULARTILE
360
55EC
  0
DICTIONARY
  5
57C4
330
562F
100
AcDbDictionary
280
     1
281
     1
  3
ACAD_XREC_ROUNDTRIP
360
57C5
  0
DICTIONARY
  5
5791
330
562B
100
AcDbDictionary
280
     1
281
     1
  3
ACAD_ROUNDTRIP_2008_TABLESTYLE_CELLSTYLEMAP
360
5792
  0
DICTIONARY
  5
579E
330
55F6
100
AcDbDictionary
280
     1
281
     1
  3
ACAD_XREC_ROUNDTRIP
360
579F
  0
DICTIONARY
  5
579C
330
55F5
100
AcDbDictionary
280
     1
281
     1
  3
ACAD_XREC_ROUNDTRIP
360
579D
  0
DICTIONARY
  5
57AA
330
55FC
100
AcDbDictionary
280
     1
281
     1
  3
ACAD_XREC_ROUNDTRIP
360
57AB
  0
DICTIONARY
  5
57B2
330
5600
100
AcDbDictionary
280
     1
281
     1
  3
ACAD_XREC_ROUNDTRIP
360
57B3
  0
DICTIONARY
  5
57A4
330
55F9
100
AcDbDictionary
280
     1
281
     1
  3
ACAD_XREC_ROUNDTRIP
360
57A5
  0
DICTIONARY
  5
57A8
330
55FB
100
AcDbDictionary
280
     1
281
     1
  3
ACAD_XREC_ROUNDTRIP
360
57A9
  0
DICTIONARY
  5
57C2
330
5608
100
AcDbDictionary
280
     1
281
     1
  3
ACAD_XREC_ROUNDTRIP
360
57C3
  0
DICTIONARY
  5
57B0
330
55FF
100
AcDbDictionary
280
     1
281
     1
  3
ACAD_XREC_ROUNDTRIP
360
57B1
  0
DICTIONARY
  5
5794
330
55F1
100
AcDbDictionary
280
     1
281
     1
  3
ACAD_XREC_ROUNDTRIP
360
5795
  0
DICTIONARY
  5
5796
330
55F2
100
AcDbDictionary
280
     1
281
     1
  3
ACAD_XREC_ROUNDTRIP
360
5797
  0
DICTIONARY
  5
5798
330
55F3
100
AcDbDictionary
280
     1
281
     1
  3
ACAD_XREC_ROUNDTRIP
360
5799
  0
DICTIONARY
  5
579A
330
55F4
100
AcDbDictionary
280
     1
281
     1
  3
ACAD_XREC_ROUNDTRIP
360
579B
  0
DICTIONARY
  5
57A2
330
55F8
100
AcDbDictionary
280
     1
281
     1
  3
ACAD_XREC_ROUNDTRIP
360
57A3
  0
DICTIONARY
  5
57BE
330
5606
100
AcDbDictionary
280
     1
281
     1
  3
ACAD_XREC_ROUNDTRIP
360
57BF
  0
DICTIONARY
  5
57AE
330
55FE
100
AcDbDictionary
280
     1
281
     1
  3
ACAD_XREC_ROUNDTRIP
360
57AF
  0
DICTIONARY
  5
57C0
330
5607
100
AcDbDictionary
280
     1
281
     1
  3
ACAD_XREC_ROUNDTRIP
360
57C1
  0
DICTIONARY
  5
57A6
330
55FA
100
AcDbDictionary
280
     1
281
     1
  3
ACAD_XREC_ROUNDTRIP
360
57A7
  0
DICTIONARY
  5
57BC
330
5605
100
AcDbDictionary
280
     1
281
     1
  3
ACAD_XREC_ROUNDTRIP
360
57BD
  0
DICTIONARY
  5
57BA
330
5604
100
AcDbDictionary
280
     1
281
     1
  3
ACAD_XREC_ROUNDTRIP
360
57BB
  0
DICTIONARY
  5
57B4
330
5601
100
AcDbDictionary
280
     1
281
     1
  3
ACAD_XREC_ROUNDTRIP
360
57B5
  0
DICTIONARY
  5
57B6
330
5602
100
AcDbDictionary
280
     1
281
     1
  3
ACAD_XREC_ROUNDTRIP
360
57B7
  0
DICTIONARY
  5
57AC
330
55FD
100
AcDbDictionary
280
     1
281
     1
  3
ACAD_XREC_ROUNDTRIP
360
57AD
  0
DICTIONARY
  5
57A0
330
55F7
100
AcDbDictionary
280
     1
281
     1
  3
ACAD_XREC_ROUNDTRIP
360
57A1
  0
DICTIONARY
  5
57B8
330
5603
100
AcDbDictionary
280
     1
281
     1
  3
ACAD_XREC_ROUNDTRIP
360
57B9
  0
XRECORD
  5
57C7
102
{ACAD_REACTORS
330
57C6
102
}
330
57C6
100
AcDbXrecord
280
     1
102
DISPLAYNAME
  1
Imperial24
102
FLAGS
 90
        0
  0
XRECORD
  5
55E3
102
{ACAD_REACTORS
330
55E1
102
}
330
55E1
100
AcDbXrecord
280
     1
270
     1
271
     1
  0
XRECORD
  5
55E2
102
{ACAD_REACTORS
330
55E1
102
}
330
55E1
100
AcDbXrecord
280
     1
270
     1
271
     1
  0
XRECORD
  5
55E6
102
{ACAD_REACTORS
330
55E1
102
}
330
55E1
100
AcDbXrecord
280
     1
270
     1
271
     1
  0
XRECORD
  5
55E5
102
{ACAD_REACTORS
330
55E1
102
}
330
55E1
100
AcDbXrecord
280
     1
270
     1
271
     1
  0
XRECORD
  5
55E7
102
{ACAD_REACTORS
330
55E1
102
}
330
55E1
100
AcDbXrecord
280
     1
270
     1
271
     1
  0
XRECORD
  5
55E4
102
{ACAD_REACTORS
330
55E1
102
}
330
55E1
100
AcDbXrecord
280
     1
270
     1
271
     1
  0
XRECORD
  5
55DB
102
{ACAD_REACTORS
330
55D9
102
}
330
55D9
100
AcDbXrecord
280
     1
270
     1
271
     1
  0
XRECORD
  5
55DA
102
{ACAD_REACTORS
330
55D9
102
}
330
55D9
100
AcDbXrecord
280
     1
270
     1
271
     1
  0
XRECORD
  5
55DE
102
{ACAD_REACTORS
330
55D9
102
}
330
55D9
100
AcDbXrecord
280
     1
270
     1
271
     1
  0
XRECORD
  5
55DD
102
{ACAD_REACTORS
330
55D9
102
}
330
55D9
100
AcDbXrecord
280
     1
270
     1
271
     1
  0
XRECORD
  5
55DF
102
{ACAD_REACTORS
330
55D9
102
}
330
55D9
100
AcDbXrecord
280
     1
270
     1
271
     1
  0
XRECORD
  5
55DC
102
{ACAD_REACTORS
330
55D9
102
}
330
55D9
100
AcDbXrecord
280
     1
270
     1
271
     1
  0
XRECORD
  5
55EB
102
{ACAD_REACTORS
330
55E9
102
}
330
55E9
100
AcDbXrecord
280
     1
270
     1
271
     1
  0
XRECORD
  5
55EA
102
{ACAD_REACTORS
330
55E9
102
}
330
55E9
100
AcDbXrecord
280
     1
270
     1
271
     1
  0
XRECORD
  5
55EE
102
{ACAD_REACTORS
330
55E9
102
}
330
55E9
100
AcDbXrecord
280
     1
270
     1
271
     1
  0
XRECORD
  5
55ED
102
{ACAD_REACTORS
330
55E9
102
}
330
55E9
100
AcDbXrecord
280
     1
270
     1
271
     1
  0
XRECORD
  5
55EF
102
{ACAD_REACTORS
330
55E9
102
}
330
55E9
100
AcDbXrecord
280
     1
270
     1
271
     1
  0
XRECORD
  5
55EC
102
{ACAD_REACTORS
330
55E9
102
}
330
55E9
100
AcDbXrecord
280
     1
270
     1
271
     1
  0
XRECORD
  5
57C5
102
{ACAD_REACTORS
330
57C4
102
}
330
57C4
100
AcDbXrecord
280
     1
102
DISPLAYNAME
  1
Imperial24
102
FLAGS
 90
        0
  0
CELLSTYLEMAP
  5
5792
102
{ACAD_REACTORS
330
5791
102
}
330
5791
100
AcDbCellStyleMap
 90
        3
300
CELLSTYLE
  1
TABLEFORMAT_BEGIN
 90
        5
170
     1
 91
        0
 92
    32768
 62
   257
 93
        1
300
CONTENTFORMAT
  1
CONTENTFORMAT_BEGIN
 90
        0
 91
        0
 92
      512
 93
        0
300

 40
0.0
140
1.0
 94
        5
 62
     0
340
561C
144
0.25
309
CONTENTFORMAT_END
171
     0
 94
        0
309
TABLEFORMAT_END
  1
CELLSTYLE_BEGIN
 90
        1
 91
        1
300
_TITLE
309
CELLSTYLE_END
300
CELLSTYLE
  1
TABLEFORMAT_BEGIN
 90
        5
170
     1
 91
        0
 92
        0
 62
   257
 93
        1
300
CONTENTFORMAT
  1
CONTENTFORMAT_BEGIN
 90
        0
 91
        0
 92
      512
 93
        0
300

 40
0.0
140
1.0
 94
        5
 62
     0
340
561C
144
0.18
309
CONTENTFORMAT_END
171
     0
 94
        0
309
TABLEFORMAT_END
  1
CELLSTYLE_BEGIN
 90
        2
 91
        1
300
_HEADER
309
CELLSTYLE_END
300
CELLSTYLE
  1
TABLEFORMAT_BEGIN
 90
        5
170
     1
 91
        0
 92
        0
 62
   257
 93
        1
300
CONTENTFORMAT
  1
CONTENTFORMAT_BEGIN
 90
        0
 91
        0
 92
      512
 93
        0
300

 40
0.0
140
1.0
 94
        2
 62
     0
340
561C
144
0.18
309
CONTENTFORMAT_END
171
     0
 94
        0
309
TABLEFORMAT_END
  1
CELLSTYLE_BEGIN
 90
        3
 91
        2
300
_DATA
309
CELLSTYLE_END
  0
XRECORD
  5
579F
102
{ACAD_REACTORS
330
579E
102
}
330
579E
100
AcDbXrecord
280
     1
102
RTVSPost2010Prop28
280
     1
102
RTVSPost2010PropOp28
 70
     1
102
RTVSPost2010Prop29
280
     1
102
RTVSPost2010PropOp29
 70
     1
102
RTVSPost2010Prop30
280
     0
102
RTVSPost2010PropOp30
 70
     1
102
RTVSPost2010Prop31
280
     0
102
RTVSPost2010PropOp31
 70
     1
102
RTVSPost2010Prop32
280
     0
102
RTVSPost2010PropOp32
 70
     1
102
RTVSPost2010Prop33
280
     0
102
RTVSPost2010PropOp33
 70
     1
102
RTVSPost2010Prop34
280
     0
102
RTVSPost2010PropOp34
 70
     1
102
RTVSPost2010Prop35
280
     0
102
RTVSPost2010PropOp35
 70
     1
102
RTVSPost2010Prop36
280
     0
102
RTVSPost2010PropOp36
 70
     1
102
RTVSPost2010Prop37
 90
       50
102
RTVSPost2010PropOp37
 70
     1
102
RTVSPost2010Prop38
140
0.0
102
RTVSPost2010PropOp38
 70
     1
102
RTVSPost2010Prop39
140
1.0
102
RTVSPost2010PropOp39
 70
     1
102
RTVSPost2010Prop40
 90
        0
102
RTVSPost2010PropOp40
 70
     1
102
RTVSPost2010Prop41ColorIndex
 90
       18
102
RTVSPost2010Prop41ColorRGB
 90
        0
102
RTVSPost2010PropOp41
 70
     1
102
RTVSPost2010Prop42
 90
       50
102
RTVSPost2010PropOp42
 70
     1
102
RTVSPost2010Prop43
 90
        3
102
RTVSPost2010PropOp43
 70
     1
102
RTVSPost2010Prop44ColorIndex
 90
        5
102
RTVSPost2010Prop44ColorRGB
 90
      255
102
RTVSPost2010PropOp44
 70
     1
102
RTVSPost2010Prop45
280
     0
102
RTVSPost2010PropOp45
 70
     1
102
RTVSPost2010Prop46
 90
       50
102
RTVSPost2010PropOp46
 70
     1
102
RTVSPost2010Prop47
 90
       50
102
RTVSPost2010PropOp47
 70
     1
102
RTVSPost2010Prop48
 90
       50
102
RTVSPost2010PropOp48
 70
     1
102
RTVSPost2010Prop49
280
     0
102
RTVSPost2010PropOp49
 70
     1
102
RTVSPost2010Prop50
 90
       50
102
RTVSPost2010PropOp50
 70
     1
102
RTVSPost2010Prop51ColorIndex
 90
      256
102
RTVSPost2010Prop51ColorRGB
 90
-16777216
102
RTVSPost2010PropOp51
 70
     0
102
RTVSPost2010Prop52
140
1.0
102
RTVSPost2010PropOp52
 70
     0
102
RTVSPost2010Prop53
 90
        2
102
RTVSPost2010PropOp53
 70
     1
102
RTVSPost2010Prop54
  1
strokes_ogs.tif
102
RTVSPost2010PropOp54
 70
     1
102
RTVSPost2010Prop55
280
     0
102
RTVSPost2010PropOp55
 70
     1
102
RTVSPost2010Prop56
140
1.0
102
RTVSPost2010PropOp56
 70
     1
102
RTVSPost2010Prop57
140
1.0
102
RTVSPost2010PropOp57
 70
     1
102
RTVSPropertyOp0
 70
     1
102
RTVSPropertyOp1
 70
     1
102
RTVSPropertyOp2
 70
     1
102
RTVSPropertyOp3
 70
     1
102
RTVSPropertyOp4
 70
     1
102
RTVSPropertyOp5
 70
     1
102
RTVSPropertyOp6
 70
     1
102
RTVSPropertyOp7
 70
     1
102
RTVSPropertyOp8
 70
     1
102
RTVSPropertyOp9
 70
     1
102
RTVSPropertyOp10
 70
     1
102
RTVSPropertyOp11
 70
     1
102
RTVSPropertyOp12
 70
     1
102
RTVSPropertyOp13
 70
     1
102
RTVSPropertyOp14
 70
     1
102
RTVSPropertyOp15
 70
     1
102
RTVSPropertyOp16
 70
     1
102
RTVSPropertyOp17
 70
     1
102
RTVSPropertyOp18
 70
     1
102
RTVSPropertyOp19
 70
     1
102
RTVSPropertyOp20
 70
     1
102
RTVSPropertyOp21
 70
     1
102
RTVSPropertyOp22
 70
     1
102
RTVSPropertyOp23
 70
     1
102
RTVSPropertyOp24
 70
     1
102
RTVSPropertyOp25
 70
     1
102
RTVSPropertyOp26
 70
     1
102
RTVSPropertyOp27
 70
     1
102
RTVSPropertyOp28
 70
     1
102
RTVSPropertyOp29
 70
     1
102
RTVSPropertyOp30
 70
     1
102
RTVSPropertyOp31
 70
     1
102
RTVSPropertyOp32
 70
     1
102
RTVSPropertyOp33
 70
     1
102
RTVSPropertyOp34
 70
     1
102
RTVSPropertyOp35
 70
     1
102
RTVSPropertyOp36
 70
     1
102
RTVSPropertyOp37
 70
     1
102
RTVSPropertyOp38
 70
     1
102
RTVSPropertyOp39
 70
     1
102
RTVSPropertyOp40
 70
     1
102
RTVSPropertyOp41
 70
     1
102
RTVSPropertyOp42
 70
     1
102
RTVSPropertyOp43
 70
     1
102
RTVSPropertyOp44
 70
     1
102
RTVSPropertyOp45
 70
     1
102
RTVSPropertyOp46
 70
     1
102
RTVSPropertyOp47
 70
     1
102
RTVSPropertyOp48
 70
     1
102
RTVSPropertyOp49
 70
     1
102
RTVSPropertyOp50
 70
     1
102
RTVSPropertyOp51
 70
     0
102
RTVSPropertyOp52
 70
     0
102
RTVSPropertyOp53
 70
     1
102
RTVSPropertyOp54
 70
     1
102
RTVSPropertyOp55
 70
     1
102
RTVSPropertyOp56
 70
     1
102
RTVSPropertyOp57
 70
     1
102
RTVSPropertyOp58
 70
     1
102
RTVSPropertyOp59
 70
     1
102
RTVSPropertyOp60
 70
     1
102
RTVSPropertyOp61
 70
     1
102
RTVSPropertyOp62
 70
     1
  0
XRECORD
  5
579D
102
{ACAD_REACTORS
330
579C
102
}
330
579C
100
AcDbXrecord
280
     1
102
RTVSPost2010Prop28
280
     0
102
RTVSPost2010PropOp28
 70
     1
102
RTVSPost2010Prop29
280
     1
102
RTVSPost2010PropOp29
 70
     1
102
RTVSPost2010Prop30
280
     1
102
RTVSPost2010PropOp30
 70
     1
102
RTVSPost2010Prop31
280
     0
102
RTVSPost2010PropOp31
 70
     1
102
RTVSPost2010Prop32
280
     0
102
RTVSPost2010PropOp32
 70
     1
102
RTVSPost2010Prop33
280
     0
102
RTVSPost2010PropOp33
 70
     1
102
RTVSPost2010Prop34
280
     0
102
RTVSPost2010PropOp34
 70
     1
102
RTVSPost2010Prop35
280
     0
102
RTVSPost2010PropOp35
 70
     1
102
RTVSPost2010Prop36
280
     0
102
RTVSPost2010PropOp36
 70
     1
102
RTVSPost2010Prop37
 90
       50
102
RTVSPost2010PropOp37
 70
     1
102
RTVSPost2010Prop38
140
0.0
102
RTVSPost2010PropOp38
 70
     1
102
RTVSPost2010Prop39
140
1.0
102
RTVSPost2010PropOp39
 70
     1
102
RTVSPost2010Prop40
 90
        0
102
RTVSPost2010PropOp40
 70
     1
102
RTVSPost2010Prop41ColorIndex
 90
       18
102
RTVSPost2010Prop41ColorRGB
 90
        0
102
RTVSPost2010PropOp41
 70
     1
102
RTVSPost2010Prop42
 90
       50
102
RTVSPost2010PropOp42
 70
     1
102
RTVSPost2010Prop43
 90
        3
102
RTVSPost2010PropOp43
 70
     1
102
RTVSPost2010Prop44ColorIndex
 90
        5
102
RTVSPost2010Prop44ColorRGB
 90
      255
102
RTVSPost2010PropOp44
 70
     1
102
RTVSPost2010Prop45
280
     0
102
RTVSPost2010PropOp45
 70
     1
102
RTVSPost2010Prop46
 90
       50
102
RTVSPost2010PropOp46
 70
     1
102
RTVSPost2010Prop47
 90
       50
102
RTVSPost2010PropOp47
 70
     1
102
RTVSPost2010Prop48
 90
       50
102
RTVSPost2010PropOp48
 70
     1
102
RTVSPost2010Prop49
280
     0
102
RTVSPost2010PropOp49
 70
     1
102
RTVSPost2010Prop50
 90
       50
102
RTVSPost2010PropOp50
 70
     1
102
RTVSPost2010Prop51ColorIndex
 90
      256
102
RTVSPost2010Prop51ColorRGB
 90
-16777216
102
RTVSPost2010PropOp51
 70
     0
102
RTVSPost2010Prop52
140
1.0
102
RTVSPost2010PropOp52
 70
     0
102
RTVSPost2010Prop53
 90
        2
102
RTVSPost2010PropOp53
 70
     1
102
RTVSPost2010Prop54
  1
strokes_ogs.tif
102
RTVSPost2010PropOp54
 70
     1
102
RTVSPost2010Prop55
280
     0
102
RTVSPost2010PropOp55
 70
     1
102
RTVSPost2010Prop56
140
1.0
102
RTVSPost2010PropOp56
 70
     1
102
RTVSPost2010Prop57
140
1.0
102
RTVSPost2010PropOp57
 70
     1
102
RTVSPropertyOp0
 70
     1
102
RTVSPropertyOp1
 70
     1
102
RTVSPropertyOp2
 70
     1
102
RTVSPropertyOp3
 70
     1
102
RTVSPropertyOp4
 70
     1
102
RTVSPropertyOp5
 70
     1
102
RTVSPropertyOp6
 70
     1
102
RTVSPropertyOp7
 70
     1
102
RTVSPropertyOp8
 70
     1
102
RTVSPropertyOp9
 70
     1
102
RTVSPropertyOp10
 70
     1
102
RTVSPropertyOp11
 70
     1
102
RTVSPropertyOp12
 70
     1
102
RTVSPropertyOp13
 70
     1
102
RTVSPropertyOp14
 70
     1
102
RTVSPropertyOp15
 70
     1
102
RTVSPropertyOp16
 70
     1
102
RTVSPropertyOp17
 70
     1
102
RTVSPropertyOp18
 70
     1
102
RTVSPropertyOp19
 70
     1
102
RTVSPropertyOp20
 70
     1
102
RTVSPropertyOp21
 70
     1
102
RTVSPropertyOp22
 70
     1
102
RTVSPropertyOp23
 70
     1
102
RTVSPropertyOp24
 70
     1
102
RTVSPropertyOp25
 70
     1
102
RTVSPropertyOp26
 70
     1
102
RTVSPropertyOp27
 70
     1
102
RTVSPropertyOp28
 70
     1
102
RTVSPropertyOp29
 70
     1
102
RTVSPropertyOp30
 70
     1
102
RTVSPropertyOp31
 70
     1
102
RTVSPropertyOp32
 70
     1
102
RTVSPropertyOp33
 70
     1
102
RTVSPropertyOp34
 70
     1
102
RTVSPropertyOp35
 70
     1
102
RTVSPropertyOp36
 70
     1
102
RTVSPropertyOp37
 70
     1
102
RTVSPropertyOp38
 70
     1
102
RTVSPropertyOp39
 70
     1
102
RTVSPropertyOp40
 70
     1
102
RTVSPropertyOp41
 70
     1
102
RTVSPropertyOp42
 70
     1
102
RTVSPropertyOp43
 70
     1
102
RTVSPropertyOp44
 70
     1
102
RTVSPropertyOp45
 70
     1
102
RTVSPropertyOp46
 70
     1
102
RTVSPropertyOp47
 70
     1
102
RTVSPropertyOp48
 70
     1
102
RTVSPropertyOp49
 70
     1
102
RTVSPropertyOp50
 70
     1
102
RTVSPropertyOp51
 70
     0
102
RTVSPropertyOp52
 70
     0
102
RTVSPropertyOp53
 70
     1
102
RTVSPropertyOp54
 70
     1
102
RTVSPropertyOp55
 70
     1
102
RTVSPropertyOp56
 70
     1
102
RTVSPropertyOp57
 70
     1
102
RTVSPropertyOp58
 70
     1
102
RTVSPropertyOp59
 70
     1
102
RTVSPropertyOp60
 70
     1
102
RTVSPropertyOp61
 70
     1
102
RTVSPropertyOp62
 70
     1
  0
XRECORD
  5
57AB
102
{ACAD_REACTORS
330
57AA
102
}
330
57AA
100
AcDbXrecord
280
     1
102
RTVSPost2010Prop28
280
     0
102
RTVSPost2010PropOp28
 70
     1
102
RTVSPost2010Prop29
280
     1
102
RTVSPost2010PropOp29
 70
     1
102
RTVSPost2010Prop30
280
     1
102
RTVSPost2010PropOp30
 70
     1
102
RTVSPost2010Prop31
280
     0
102
RTVSPost2010PropOp31
 70
     1
102
RTVSPost2010Prop32
280
     0
102
RTVSPost2010PropOp32
 70
     1
102
RTVSPost2010Prop33
280
     0
102
RTVSPost2010PropOp33
 70
     1
102
RTVSPost2010Prop34
280
     0
102
RTVSPost2010PropOp34
 70
     1
102
RTVSPost2010Prop35
280
     0
102
RTVSPost2010PropOp35
 70
     1
102
RTVSPost2010Prop36
280
     0
102
RTVSPost2010PropOp36
 70
     1
102
RTVSPost2010Prop37
 90
       50
102
RTVSPost2010PropOp37
 70
     1
102
RTVSPost2010Prop38
140
0.0
102
RTVSPost2010PropOp38
 70
     1
102
RTVSPost2010Prop39
140
1.0
102
RTVSPost2010PropOp39
 70
     1
102
RTVSPost2010Prop40
 90
        0
102
RTVSPost2010PropOp40
 70
     1
102
RTVSPost2010Prop41ColorIndex
 90
       18
102
RTVSPost2010Prop41ColorRGB
 90
        0
102
RTVSPost2010PropOp41
 70
     1
102
RTVSPost2010Prop42
 90
       50
102
RTVSPost2010PropOp42
 70
     1
102
RTVSPost2010Prop43
 90
        3
102
RTVSPost2010PropOp43
 70
     1
102
RTVSPost2010Prop44ColorIndex
 90
        5
102
RTVSPost2010Prop44ColorRGB
 90
      255
102
RTVSPost2010PropOp44
 70
     1
102
RTVSPost2010Prop45
280
     0
102
RTVSPost2010PropOp45
 70
     1
102
RTVSPost2010Prop46
 90
       50
102
RTVSPost2010PropOp46
 70
     1
102
RTVSPost2010Prop47
 90
       50
102
RTVSPost2010PropOp47
 70
     1
102
RTVSPost2010Prop48
 90
       50
102
RTVSPost2010PropOp48
 70
     1
102
RTVSPost2010Prop49
280
     0
102
RTVSPost2010PropOp49
 70
     1
102
RTVSPost2010Prop50
 90
       50
102
RTVSPost2010PropOp50
 70
     1
102
RTVSPost2010Prop51ColorIndex
 90
      256
102
RTVSPost2010Prop51ColorRGB
 90
-16777216
102
RTVSPost2010PropOp51
 70
     0
102
RTVSPost2010Prop52
140
1.0
102
RTVSPost2010PropOp52
 70
     0
102
RTVSPost2010Prop53
 90
        2
102
RTVSPost2010PropOp53
 70
     1
102
RTVSPost2010Prop54
  1
strokes_ogs.tif
102
RTVSPost2010PropOp54
 70
     1
102
RTVSPost2010Prop55
280
     0
102
RTVSPost2010PropOp55
 70
     1
102
RTVSPost2010Prop56
140
1.0
102
RTVSPost2010PropOp56
 70
     1
102
RTVSPost2010Prop57
140
1.0
102
RTVSPost2010PropOp57
 70
     1
102
RTVSPropertyOp0
 70
     1
102
RTVSPropertyOp1
 70
     1
102
RTVSPropertyOp2
 70
     1
102
RTVSPropertyOp3
 70
     1
102
RTVSPropertyOp4
 70
     1
102
RTVSPropertyOp5
 70
     1
102
RTVSPropertyOp6
 70
     1
102
RTVSPropertyOp7
 70
     1
102
RTVSPropertyOp8
 70
     1
102
RTVSPropertyOp9
 70
     1
102
RTVSPropertyOp10
 70
     1
102
RTVSPropertyOp11
 70
     1
102
RTVSPropertyOp12
 70
     1
102
RTVSPropertyOp13
 70
     1
102
RTVSPropertyOp14
 70
     1
102
RTVSPropertyOp15
 70
     1
102
RTVSPropertyOp16
 70
     1
102
RTVSPropertyOp17
 70
     1
102
RTVSPropertyOp18
 70
     1
102
RTVSPropertyOp19
 70
     1
102
RTVSPropertyOp20
 70
     1
102
RTVSPropertyOp21
 70
     1
102
RTVSPropertyOp22
 70
     1
102
RTVSPropertyOp23
 70
     1
102
RTVSPropertyOp24
 70
     1
102
RTVSPropertyOp25
 70
     1
102
RTVSPropertyOp26
 70
     1
102
RTVSPropertyOp27
 70
     1
102
RTVSPropertyOp28
 70
     1
102
RTVSPropertyOp29
 70
     1
102
RTVSPropertyOp30
 70
     1
102
RTVSPropertyOp31
 70
     1
102
RTVSPropertyOp32
 70
     1
102
RTVSPropertyOp33
 70
     1
102
RTVSPropertyOp34
 70
     1
102
RTVSPropertyOp35
 70
     1
102
RTVSPropertyOp36
 70
     1
102
RTVSPropertyOp37
 70
     1
102
RTVSPropertyOp38
 70
     1
102
RTVSPropertyOp39
 70
     1
102
RTVSPropertyOp40
 70
     1
102
RTVSPropertyOp41
 70
     1
102
RTVSPropertyOp42
 70
     1
102
RTVSPropertyOp43
 70
     1
102
RTVSPropertyOp44
 70
     1
102
RTVSPropertyOp45
 70
     1
102
RTVSPropertyOp46
 70
     1
102
RTVSPropertyOp47
 70
     1
102
RTVSPropertyOp48
 70
     1
102
RTVSPropertyOp49
 70
     1
102
RTVSPropertyOp50
 70
     1
102
RTVSPropertyOp51
 70
     0
102
RTVSPropertyOp52
 70
     0
102
RTVSPropertyOp53
 70
     1
102
RTVSPropertyOp54
 70
     1
102
RTVSPropertyOp55
 70
     1
102
RTVSPropertyOp56
 70
     1
102
RTVSPropertyOp57
 70
     1
102
RTVSPropertyOp58
 70
     1
102
RTVSPropertyOp59
 70
     1
102
RTVSPropertyOp60
 70
     1
102
RTVSPropertyOp61
 70
     1
102
RTVSPropertyOp62
 70
     1
  0
XRECORD
  5
57B3
102
{ACAD_REACTORS
330
57B2
102
}
330
57B2
100
AcDbXrecord
280
     1
102
RTVSPost2010Prop28
280
     0
102
RTVSPost2010PropOp28
 70
     1
102
RTVSPost2010Prop29
280
     1
102
RTVSPost2010PropOp29
 70
     1
102
RTVSPost2010Prop30
280
     1
102
RTVSPost2010PropOp30
 70
     1
102
RTVSPost2010Prop31
280
     0
102
RTVSPost2010PropOp31
 70
     1
102
RTVSPost2010Prop32
280
     0
102
RTVSPost2010PropOp32
 70
     1
102
RTVSPost2010Prop33
280
     0
102
RTVSPost2010PropOp33
 70
     1
102
RTVSPost2010Prop34
280
     0
102
RTVSPost2010PropOp34
 70
     1
102
RTVSPost2010Prop35
280
     0
102
RTVSPost2010PropOp35
 70
     1
102
RTVSPost2010Prop36
280
     0
102
RTVSPost2010PropOp36
 70
     1
102
RTVSPost2010Prop37
 90
       50
102
RTVSPost2010PropOp37
 70
     1
102
RTVSPost2010Prop38
140
0.0
102
RTVSPost2010PropOp38
 70
     1
102
RTVSPost2010Prop39
140
1.0
102
RTVSPost2010PropOp39
 70
     1
102
RTVSPost2010Prop40
 90
        0
102
RTVSPost2010PropOp40
 70
     1
102
RTVSPost2010Prop41ColorIndex
 90
       18
102
RTVSPost2010Prop41ColorRGB
 90
        0
102
RTVSPost2010PropOp41
 70
     1
102
RTVSPost2010Prop42
 90
       50
102
RTVSPost2010PropOp42
 70
     1
102
RTVSPost2010Prop43
 90
        3
102
RTVSPost2010PropOp43
 70
     1
102
RTVSPost2010Prop44ColorIndex
 90
        5
102
RTVSPost2010Prop44ColorRGB
 90
      255
102
RTVSPost2010PropOp44
 70
     1
102
RTVSPost2010Prop45
280
     0
102
RTVSPost2010PropOp45
 70
     1
102
RTVSPost2010Prop46
 90
       50
102
RTVSPost2010PropOp46
 70
     1
102
RTVSPost2010Prop47
 90
       50
102
RTVSPost2010PropOp47
 70
     1
102
RTVSPost2010Prop48
 90
       50
102
RTVSPost2010PropOp48
 70
     1
102
RTVSPost2010Prop49
280
     0
102
RTVSPost2010PropOp49
 70
     1
102
RTVSPost2010Prop50
 90
       50
102
RTVSPost2010PropOp50
 70
     1
102
RTVSPost2010Prop51ColorIndex
 90
      256
102
RTVSPost2010Prop51ColorRGB
 90
-16777216
102
RTVSPost2010PropOp51
 70
     0
102
RTVSPost2010Prop52
140
1.0
102
RTVSPost2010PropOp52
 70
     0
102
RTVSPost2010Prop53
 90
        2
102
RTVSPost2010PropOp53
 70
     1
102
RTVSPost2010Prop54
  1
strokes_ogs.tif
102
RTVSPost2010PropOp54
 70
     1
102
RTVSPost2010Prop55
280
     0
102
RTVSPost2010PropOp55
 70
     1
102
RTVSPost2010Prop56
140
1.0
102
RTVSPost2010PropOp56
 70
     1
102
RTVSPost2010Prop57
140
1.0
102
RTVSPost2010PropOp57
 70
     1
102
RTVSPropertyOp0
 70
     1
102
RTVSPropertyOp1
 70
     1
102
RTVSPropertyOp2
 70
     1
102
RTVSPropertyOp3
 70
     1
102
RTVSPropertyOp4
 70
     1
102
RTVSPropertyOp5
 70
     1
102
RTVSPropertyOp6
 70
     1
102
RTVSPropertyOp7
 70
     1
102
RTVSPropertyOp8
 70
     1
102
RTVSPropertyOp9
 70
     1
102
RTVSPropertyOp10
 70
     1
102
RTVSPropertyOp11
 70
     1
102
RTVSPropertyOp12
 70
     1
102
RTVSPropertyOp13
 70
     1
102
RTVSPropertyOp14
 70
     1
102
RTVSPropertyOp15
 70
     1
102
RTVSPropertyOp16
 70
     1
102
RTVSPropertyOp17
 70
     1
102
RTVSPropertyOp18
 70
     1
102
RTVSPropertyOp19
 70
     1
102
RTVSPropertyOp20
 70
     1
102
RTVSPropertyOp21
 70
     1
102
RTVSPropertyOp22
 70
     1
102
RTVSPropertyOp23
 70
     1
102
RTVSPropertyOp24
 70
     1
102
RTVSPropertyOp25
 70
     1
102
RTVSPropertyOp26
 70
     1
102
RTVSPropertyOp27
 70
     1
102
RTVSPropertyOp28
 70
     1
102
RTVSPropertyOp29
 70
     1
102
RTVSPropertyOp30
 70
     1
102
RTVSPropertyOp31
 70
     1
102
RTVSPropertyOp32
 70
     1
102
RTVSPropertyOp33
 70
     1
102
RTVSPropertyOp34
 70
     1
102
RTVSPropertyOp35
 70
     1
102
RTVSPropertyOp36
 70
     1
102
RTVSPropertyOp37
 70
     1
102
RTVSPropertyOp38
 70
     1
102
RTVSPropertyOp39
 70
     1
102
RTVSPropertyOp40
 70
     1
102
RTVSPropertyOp41
 70
     1
102
RTVSPropertyOp42
 70
     1
102
RTVSPropertyOp43
 70
     1
102
RTVSPropertyOp44
 70
     1
102
RTVSPropertyOp45
 70
     1
102
RTVSPropertyOp46
 70
     1
102
RTVSPropertyOp47
 70
     1
102
RTVSPropertyOp48
 70
     1
102
RTVSPropertyOp49
 70
     1
102
RTVSPropertyOp50
 70
     1
102
RTVSPropertyOp51
 70
     0
102
RTVSPropertyOp52
 70
     0
102
RTVSPropertyOp53
 70
     1
102
RTVSPropertyOp54
 70
     1
102
RTVSPropertyOp55
 70
     1
102
RTVSPropertyOp56
 70
     1
102
RTVSPropertyOp57
 70
     1
102
RTVSPropertyOp58
 70
     1
102
RTVSPropertyOp59
 70
     1
102
RTVSPropertyOp60
 70
     1
102
RTVSPropertyOp61
 70
     1
102
RTVSPropertyOp62
 70
     1
  0
XRECORD
  5
57A5
102
{ACAD_REACTORS
330
57A4
102
}
330
57A4
100
AcDbXrecord
280
     1
102
RTVSPost2010Prop28
280
     0
102
RTVSPost2010PropOp28
 70
     1
102
RTVSPost2010Prop29
280
     1
102
RTVSPost2010PropOp29
 70
     1
102
RTVSPost2010Prop30
280
     1
102
RTVSPost2010PropOp30
 70
     1
102
RTVSPost2010Prop31
280
     0
102
RTVSPost2010PropOp31
 70
     1
102
RTVSPost2010Prop32
280
     0
102
RTVSPost2010PropOp32
 70
     1
102
RTVSPost2010Prop33
280
     0
102
RTVSPost2010PropOp33
 70
     1
102
RTVSPost2010Prop34
280
     0
102
RTVSPost2010PropOp34
 70
     1
102
RTVSPost2010Prop35
280
     0
102
RTVSPost2010PropOp35
 70
     1
102
RTVSPost2010Prop36
280
     0
102
RTVSPost2010PropOp36
 70
     1
102
RTVSPost2010Prop37
 90
       50
102
RTVSPost2010PropOp37
 70
     1
102
RTVSPost2010Prop38
140
0.0
102
RTVSPost2010PropOp38
 70
     1
102
RTVSPost2010Prop39
140
1.0
102
RTVSPost2010PropOp39
 70
     1
102
RTVSPost2010Prop40
 90
        0
102
RTVSPost2010PropOp40
 70
     1
102
RTVSPost2010Prop41ColorIndex
 90
       18
102
RTVSPost2010Prop41ColorRGB
 90
        0
102
RTVSPost2010PropOp41
 70
     1
102
RTVSPost2010Prop42
 90
       50
102
RTVSPost2010PropOp42
 70
     1
102
RTVSPost2010Prop43
 90
        3
102
RTVSPost2010PropOp43
 70
     1
102
RTVSPost2010Prop44ColorIndex
 90
        5
102
RTVSPost2010Prop44ColorRGB
 90
      255
102
RTVSPost2010PropOp44
 70
     1
102
RTVSPost2010Prop45
280
     0
102
RTVSPost2010PropOp45
 70
     1
102
RTVSPost2010Prop46
 90
       50
102
RTVSPost2010PropOp46
 70
     1
102
RTVSPost2010Prop47
 90
       50
102
RTVSPost2010PropOp47
 70
     1
102
RTVSPost2010Prop48
 90
       50
102
RTVSPost2010PropOp48
 70
     1
102
RTVSPost2010Prop49
280
     0
102
RTVSPost2010PropOp49
 70
     1
102
RTVSPost2010Prop50
 90
       50
102
RTVSPost2010PropOp50
 70
     1
102
RTVSPost2010Prop51ColorIndex
 90
      256
102
RTVSPost2010Prop51ColorRGB
 90
-16777216
102
RTVSPost2010PropOp51
 70
     0
102
RTVSPost2010Prop52
140
1.0
102
RTVSPost2010PropOp52
 70
     0
102
RTVSPost2010Prop53
 90
        2
102
RTVSPost2010PropOp53
 70
     1
102
RTVSPost2010Prop54
  1
strokes_ogs.tif
102
RTVSPost2010PropOp54
 70
     1
102
RTVSPost2010Prop55
280
     0
102
RTVSPost2010PropOp55
 70
     1
102
RTVSPost2010Prop56
140
1.0
102
RTVSPost2010PropOp56
 70
     1
102
RTVSPost2010Prop57
140
1.0
102
RTVSPost2010PropOp57
 70
     1
102
RTVSPropertyOp0
 70
     1
102
RTVSPropertyOp1
 70
     1
102
RTVSPropertyOp2
 70
     1
102
RTVSPropertyOp3
 70
     1
102
RTVSPropertyOp4
 70
     1
102
RTVSPropertyOp5
 70
     1
102
RTVSPropertyOp6
 70
     1
102
RTVSPropertyOp7
 70
     1
102
RTVSPropertyOp8
 70
     1
102
RTVSPropertyOp9
 70
     1
102
RTVSPropertyOp10
 70
     1
102
RTVSPropertyOp11
 70
     1
102
RTVSPropertyOp12
 70
     1
102
RTVSPropertyOp13
 70
     1
102
RTVSPropertyOp14
 70
     1
102
RTVSPropertyOp15
 70
     1
102
RTVSPropertyOp16
 70
     1
102
RTVSPropertyOp17
 70
     1
102
RTVSPropertyOp18
 70
     1
102
RTVSPropertyOp19
 70
     1
102
RTVSPropertyOp20
 70
     1
102
RTVSPropertyOp21
 70
     1
102
RTVSPropertyOp22
 70
     1
102
RTVSPropertyOp23
 70
     1
102
RTVSPropertyOp24
 70
     1
102
RTVSPropertyOp25
 70
     1
102
RTVSPropertyOp26
 70
     1
102
RTVSPropertyOp27
 70
     1
102
RTVSPropertyOp28
 70
     1
102
RTVSPropertyOp29
 70
     1
102
RTVSPropertyOp30
 70
     1
102
RTVSPropertyOp31
 70
     1
102
RTVSPropertyOp32
 70
     1
102
RTVSPropertyOp33
 70
     1
102
RTVSPropertyOp34
 70
     1
102
RTVSPropertyOp35
 70
     1
102
RTVSPropertyOp36
 70
     1
102
RTVSPropertyOp37
 70
     1
102
RTVSPropertyOp38
 70
     1
102
RTVSPropertyOp39
 70
     1
102
RTVSPropertyOp40
 70
     1
102
RTVSPropertyOp41
 70
     1
102
RTVSPropertyOp42
 70
     1
102
RTVSPropertyOp43
 70
     1
102
RTVSPropertyOp44
 70
     1
102
RTVSPropertyOp45
 70
     1
102
RTVSPropertyOp46
 70
     1
102
RTVSPropertyOp47
 70
     1
102
RTVSPropertyOp48
 70
     1
102
RTVSPropertyOp49
 70
     1
102
RTVSPropertyOp50
 70
     1
102
RTVSPropertyOp51
 70
     0
102
RTVSPropertyOp52
 70
     0
102
RTVSPropertyOp53
 70
     1
102
RTVSPropertyOp54
 70
     1
102
RTVSPropertyOp55
 70
     1
102
RTVSPropertyOp56
 70
     1
102
RTVSPropertyOp57
 70
     1
102
RTVSPropertyOp58
 70
     1
102
RTVSPropertyOp59
 70
     1
102
RTVSPropertyOp60
 70
     1
102
RTVSPropertyOp61
 70
     1
102
RTVSPropertyOp62
 70
     1
  0
XRECORD
  5
57A9
102
{ACAD_REACTORS
330
57A8
102
}
330
57A8
100
AcDbXrecord
280
     1
102
RTVSPost2010Prop28
280
     0
102
RTVSPost2010PropOp28
 70
     1
102
RTVSPost2010Prop29
280
     1
102
RTVSPost2010PropOp29
 70
     1
102
RTVSPost2010Prop30
280
     1
102
RTVSPost2010PropOp30
 70
     1
102
RTVSPost2010Prop31
280
     0
102
RTVSPost2010PropOp31
 70
     1
102
RTVSPost2010Prop32
280
     0
102
RTVSPost2010PropOp32
 70
     1
102
RTVSPost2010Prop33
280
     0
102
RTVSPost2010PropOp33
 70
     1
102
RTVSPost2010Prop34
280
     0
102
RTVSPost2010PropOp34
 70
     1
102
RTVSPost2010Prop35
280
     0
102
RTVSPost2010PropOp35
 70
     1
102
RTVSPost2010Prop36
280
     0
102
RTVSPost2010PropOp36
 70
     1
102
RTVSPost2010Prop37
 90
       50
102
RTVSPost2010PropOp37
 70
     1
102
RTVSPost2010Prop38
140
0.0
102
RTVSPost2010PropOp38
 70
     1
102
RTVSPost2010Prop39
140
1.0
102
RTVSPost2010PropOp39
 70
     1
102
RTVSPost2010Prop40
 90
        0
102
RTVSPost2010PropOp40
 70
     1
102
RTVSPost2010Prop41ColorIndex
 90
       18
102
RTVSPost2010Prop41ColorRGB
 90
        0
102
RTVSPost2010PropOp41
 70
     1
102
RTVSPost2010Prop42
 90
       50
102
RTVSPost2010PropOp42
 70
     1
102
RTVSPost2010Prop43
 90
        3
102
RTVSPost2010PropOp43
 70
     1
102
RTVSPost2010Prop44ColorIndex
 90
        5
102
RTVSPost2010Prop44ColorRGB
 90
      255
102
RTVSPost2010PropOp44
 70
     1
102
RTVSPost2010Prop45
280
     0
102
RTVSPost2010PropOp45
 70
     1
102
RTVSPost2010Prop46
 90
       50
102
RTVSPost2010PropOp46
 70
     1
102
RTVSPost2010Prop47
 90
       50
102
RTVSPost2010PropOp47
 70
     1
102
RTVSPost2010Prop48
 90
       50
102
RTVSPost2010PropOp48
 70
     1
102
RTVSPost2010Prop49
280
     0
102
RTVSPost2010PropOp49
 70
     1
102
RTVSPost2010Prop50
 90
       50
102
RTVSPost2010PropOp50
 70
     1
102
RTVSPost2010Prop51ColorIndex
 90
      256
102
RTVSPost2010Prop51ColorRGB
 90
-16777216
102
RTVSPost2010PropOp51
 70
     0
102
RTVSPost2010Prop52
140
1.0
102
RTVSPost2010PropOp52
 70
     0
102
RTVSPost2010Prop53
 90
        2
102
RTVSPost2010PropOp53
 70
     1
102
RTVSPost2010Prop54
  1
strokes_ogs.tif
102
RTVSPost2010PropOp54
 70
     1
102
RTVSPost2010Prop55
280
     0
102
RTVSPost2010PropOp55
 70
     1
102
RTVSPost2010Prop56
140
1.0
102
RTVSPost2010PropOp56
 70
     1
102
RTVSPost2010Prop57
140
1.0
102
RTVSPost2010PropOp57
 70
     1
102
RTVSPropertyOp0
 70
     1
102
RTVSPropertyOp1
 70
     1
102
RTVSPropertyOp2
 70
     1
102
RTVSPropertyOp3
 70
     1
102
RTVSPropertyOp4
 70
     1
102
RTVSPropertyOp5
 70
     1
102
RTVSPropertyOp6
 70
     1
102
RTVSPropertyOp7
 70
     1
102
RTVSPropertyOp8
 70
     1
102
RTVSPropertyOp9
 70
     1
102
RTVSPropertyOp10
 70
     1
102
RTVSPropertyOp11
 70
     1
102
RTVSPropertyOp12
 70
     1
102
RTVSPropertyOp13
 70
     1
102
RTVSPropertyOp14
 70
     1
102
RTVSPropertyOp15
 70
     1
102
RTVSPropertyOp16
 70
     1
102
RTVSPropertyOp17
 70
     1
102
RTVSPropertyOp18
 70
     1
102
RTVSPropertyOp19
 70
     1
102
RTVSPropertyOp20
 70
     1
102
RTVSPropertyOp21
 70
     1
102
RTVSPropertyOp22
 70
     1
102
RTVSPropertyOp23
 70
     1
102
RTVSPropertyOp24
 70
     1
102
RTVSPropertyOp25
 70
     1
102
RTVSPropertyOp26
 70
     1
102
RTVSPropertyOp27
 70
     1
102
RTVSPropertyOp28
 70
     1
102
RTVSPropertyOp29
 70
     1
102
RTVSPropertyOp30
 70
     1
102
RTVSPropertyOp31
 70
     1
102
RTVSPropertyOp32
 70
     1
102
RTVSPropertyOp33
 70
     1
102
RTVSPropertyOp34
 70
     1
102
RTVSPropertyOp35
 70
     1
102
RTVSPropertyOp36
 70
     1
102
RTVSPropertyOp37
 70
     1
102
RTVSPropertyOp38
 70
     1
102
RTVSPropertyOp39
 70
     1
102
RTVSPropertyOp40
 70
     1
102
RTVSPropertyOp41
 70
     1
102
RTVSPropertyOp42
 70
     1
102
RTVSPropertyOp43
 70
     1
102
RTVSPropertyOp44
 70
     1
102
RTVSPropertyOp45
 70
     1
102
RTVSPropertyOp46
 70
     1
102
RTVSPropertyOp47
 70
     1
102
RTVSPropertyOp48
 70
     1
102
RTVSPropertyOp49
 70
     1
102
RTVSPropertyOp50
 70
     1
102
RTVSPropertyOp51
 70
     0
102
RTVSPropertyOp52
 70
     0
102
RTVSPropertyOp53
 70
     1
102
RTVSPropertyOp54
 70
     1
102
RTVSPropertyOp55
 70
     1
102
RTVSPropertyOp56
 70
     1
102
RTVSPropertyOp57
 70
     1
102
RTVSPropertyOp58
 70
     1
102
RTVSPropertyOp59
 70
     1
102
RTVSPropertyOp60
 70
     1
102
RTVSPropertyOp61
 70
     1
102
RTVSPropertyOp62
 70
     1
  0
XRECORD
  5
57C3
102
{ACAD_REACTORS
330
57C2
102
}
330
57C2
100
AcDbXrecord
280
     1
102
RTVSPost2010Prop28
280
     0
102
RTVSPost2010PropOp28
 70
     1
102
RTVSPost2010Prop29
280
     1
102
RTVSPost2010PropOp29
 70
     1
102
RTVSPost2010Prop30
280
     1
102
RTVSPost2010PropOp30
 70
     1
102
RTVSPost2010Prop31
280
     0
102
RTVSPost2010PropOp31
 70
     1
102
RTVSPost2010Prop32
280
     0
102
RTVSPost2010PropOp32
 70
     1
102
RTVSPost2010Prop33
280
     0
102
RTVSPost2010PropOp33
 70
     1
102
RTVSPost2010Prop34
280
     0
102
RTVSPost2010PropOp34
 70
     1
102
RTVSPost2010Prop35
280
     0
102
RTVSPost2010PropOp35
 70
     1
102
RTVSPost2010Prop36
280
     0
102
RTVSPost2010PropOp36
 70
     1
102
RTVSPost2010Prop37
 90
       50
102
RTVSPost2010PropOp37
 70
     0
102
RTVSPost2010Prop38
140
0.0
102
RTVSPost2010PropOp38
 70
     0
102
RTVSPost2010Prop39
140
1.0
102
RTVSPost2010PropOp39
 70
     0
102
RTVSPost2010Prop40
 90
        0
102
RTVSPost2010PropOp40
 70
     0
102
RTVSPost2010Prop41ColorIndex
 90
       18
102
RTVSPost2010Prop41ColorRGB
 90
        0
102
RTVSPost2010PropOp41
 70
     0
102
RTVSPost2010Prop42
 90
       50
102
RTVSPost2010PropOp42
 70
     0
102
RTVSPost2010Prop43
 90
        3
102
RTVSPost2010PropOp43
 70
     0
102
RTVSPost2010Prop44ColorIndex
 90
        5
102
RTVSPost2010Prop44ColorRGB
 90
      255
102
RTVSPost2010PropOp44
 70
     0
102
RTVSPost2010Prop45
280
     0
102
RTVSPost2010PropOp45
 70
     1
102
RTVSPost2010Prop46
 90
       50
102
RTVSPost2010PropOp46
 70
     0
102
RTVSPost2010Prop47
 90
       50
102
RTVSPost2010PropOp47
 70
     0
102
RTVSPost2010Prop48
 90
       50
102
RTVSPost2010PropOp48
 70
     0
102
RTVSPost2010Prop49
280
     0
102
RTVSPost2010PropOp49
 70
     1
102
RTVSPost2010Prop50
 90
       50
102
RTVSPost2010PropOp50
 70
     0
102
RTVSPost2010Prop51ColorIndex
 90
      256
102
RTVSPost2010Prop51ColorRGB
 90
-16777216
102
RTVSPost2010PropOp51
 70
     0
102
RTVSPost2010Prop52
140
1.0
102
RTVSPost2010PropOp52
 70
     0
102
RTVSPost2010Prop53
 90
        2
102
RTVSPost2010PropOp53
 70
     0
102
RTVSPost2010Prop54
  1
strokes_ogs.tif
102
RTVSPost2010PropOp54
 70
     0
102
RTVSPost2010Prop55
280
     0
102
RTVSPost2010PropOp55
 70
     1
102
RTVSPost2010Prop56
140
1.0
102
RTVSPost2010PropOp56
 70
     0
102
RTVSPost2010Prop57
140
1.0
102
RTVSPost2010PropOp57
 70
     0
102
RTVSPropertyOp0
 70
     0
102
RTVSPropertyOp1
 70
     0
102
RTVSPropertyOp2
 70
     0
102
RTVSPropertyOp3
 70
     0
102
RTVSPropertyOp4
 70
     0
102
RTVSPropertyOp5
 70
     0
102
RTVSPropertyOp6
 70
     0
102
RTVSPropertyOp7
 70
     0
102
RTVSPropertyOp8
 70
     0
102
RTVSPropertyOp9
 70
     0
102
RTVSPropertyOp10
 70
     0
102
RTVSPropertyOp11
 70
     0
102
RTVSPropertyOp12
 70
     0
102
RTVSPropertyOp13
 70
     0
102
RTVSPropertyOp14
 70
     2
102
RTVSPropertyOp15
 70
     0
102
RTVSPropertyOp16
 70
     0
102
RTVSPropertyOp17
 70
     0
102
RTVSPropertyOp18
 70
     0
102
RTVSPropertyOp19
 70
     0
102
RTVSPropertyOp20
 70
     0
102
RTVSPropertyOp21
 70
     0
102
RTVSPropertyOp22
 70
     0
102
RTVSPropertyOp23
 70
     0
102
RTVSPropertyOp24
 70
     0
102
RTVSPropertyOp25
 70
     0
102
RTVSPropertyOp26
 70
     0
102
RTVSPropertyOp27
 70
     0
102
RTVSPropertyOp28
 70
     1
102
RTVSPropertyOp29
 70
     1
102
RTVSPropertyOp30
 70
     1
102
RTVSPropertyOp31
 70
     1
102
RTVSPropertyOp32
 70
     1
102
RTVSPropertyOp33
 70
     1
102
RTVSPropertyOp34
 70
     1
102
RTVSPropertyOp35
 70
     1
102
RTVSPropertyOp36
 70
     1
102
RTVSPropertyOp37
 70
     0
102
RTVSPropertyOp38
 70
     0
102
RTVSPropertyOp39
 70
     0
102
RTVSPropertyOp40
 70
     0
102
RTVSPropertyOp41
 70
     0
102
RTVSPropertyOp42
 70
     0
102
RTVSPropertyOp43
 70
     0
102
RTVSPropertyOp44
 70
     0
102
RTVSPropertyOp45
 70
     1
102
RTVSPropertyOp46
 70
     0
102
RTVSPropertyOp47
 70
     0
102
RTVSPropertyOp48
 70
     0
102
RTVSPropertyOp49
 70
     1
102
RTVSPropertyOp50
 70
     0
102
RTVSPropertyOp51
 70
     0
102
RTVSPropertyOp52
 70
     0
102
RTVSPropertyOp53
 70
     0
102
RTVSPropertyOp54
 70
     0
102
RTVSPropertyOp55
 70
     1
102
RTVSPropertyOp56
 70
     0
102
RTVSPropertyOp57
 70
     0
102
RTVSPropertyOp58
 70
     0
102
RTVSPropertyOp59
 70
     0
102
RTVSPropertyOp60
 70
     0
102
RTVSPropertyOp61
 70
     0
102
RTVSPropertyOp62
 70
     0
  0
XRECORD
  5
57B1
102
{ACAD_REACTORS
330
57B0
102
}
330
57B0
100
AcDbXrecord
280
     1
102
RTVSPost2010Prop28
280
     0
102
RTVSPost2010PropOp28
 70
     1
102
RTVSPost2010Prop29
280
     1
102
RTVSPost2010PropOp29
 70
     1
102
RTVSPost2010Prop30
280
     1
102
RTVSPost2010PropOp30
 70
     1
102
RTVSPost2010Prop31
280
     0
102
RTVSPost2010PropOp31
 70
     1
102
RTVSPost2010Prop32
280
     0
102
RTVSPost2010PropOp32
 70
     1
102
RTVSPost2010Prop33
280
     0
102
RTVSPost2010PropOp33
 70
     1
102
RTVSPost2010Prop34
280
     0
102
RTVSPost2010PropOp34
 70
     1
102
RTVSPost2010Prop35
280
     0
102
RTVSPost2010PropOp35
 70
     1
102
RTVSPost2010Prop36
280
     0
102
RTVSPost2010PropOp36
 70
     1
102
RTVSPost2010Prop37
 90
       50
102
RTVSPost2010PropOp37
 70
     1
102
RTVSPost2010Prop38
140
0.0
102
RTVSPost2010PropOp38
 70
     1
102
RTVSPost2010Prop39
140
1.0
102
RTVSPost2010PropOp39
 70
     1
102
RTVSPost2010Prop40
 90
        0
102
RTVSPost2010PropOp40
 70
     1
102
RTVSPost2010Prop41ColorIndex
 90
       18
102
RTVSPost2010Prop41ColorRGB
 90
        0
102
RTVSPost2010PropOp41
 70
     1
102
RTVSPost2010Prop42
 90
       50
102
RTVSPost2010PropOp42
 70
     1
102
RTVSPost2010Prop43
 90
        3
102
RTVSPost2010PropOp43
 70
     1
102
RTVSPost2010Prop44ColorIndex
 90
        5
102
RTVSPost2010Prop44ColorRGB
 90
      255
102
RTVSPost2010PropOp44
 70
     1
102
RTVSPost2010Prop45
280
     0
102
RTVSPost2010PropOp45
 70
     1
102
RTVSPost2010Prop46
 90
       50
102
RTVSPost2010PropOp46
 70
     1
102
RTVSPost2010Prop47
 90
       50
102
RTVSPost2010PropOp47
 70
     1
102
RTVSPost2010Prop48
 90
       50
102
RTVSPost2010PropOp48
 70
     1
102
RTVSPost2010Prop49
280
     0
102
RTVSPost2010PropOp49
 70
     1
102
RTVSPost2010Prop50
 90
       50
102
RTVSPost2010PropOp50
 70
     1
102
RTVSPost2010Prop51ColorIndex
 90
      256
102
RTVSPost2010Prop51ColorRGB
 90
-16777216
102
RTVSPost2010PropOp51
 70
     0
102
RTVSPost2010Prop52
140
1.0
102
RTVSPost2010PropOp52
 70
     0
102
RTVSPost2010Prop53
 90
        2
102
RTVSPost2010PropOp53
 70
     1
102
RTVSPost2010Prop54
  1
strokes_ogs.tif
102
RTVSPost2010PropOp54
 70
     1
102
RTVSPost2010Prop55
280
     0
102
RTVSPost2010PropOp55
 70
     1
102
RTVSPost2010Prop56
140
1.0
102
RTVSPost2010PropOp56
 70
     1
102
RTVSPost2010Prop57
140
1.0
102
RTVSPost2010PropOp57
 70
     1
102
RTVSPropertyOp0
 70
     1
102
RTVSPropertyOp1
 70
     1
102
RTVSPropertyOp2
 70
     1
102
RTVSPropertyOp3
 70
     1
102
RTVSPropertyOp4
 70
     1
102
RTVSPropertyOp5
 70
     1
102
RTVSPropertyOp6
 70
     1
102
RTVSPropertyOp7
 70
     1
102
RTVSPropertyOp8
 70
     1
102
RTVSPropertyOp9
 70
     1
102
RTVSPropertyOp10
 70
     1
102
RTVSPropertyOp11
 70
     1
102
RTVSPropertyOp12
 70
     1
102
RTVSPropertyOp13
 70
     1
102
RTVSPropertyOp14
 70
     1
102
RTVSPropertyOp15
 70
     1
102
RTVSPropertyOp16
 70
     1
102
RTVSPropertyOp17
 70
     1
102
RTVSPropertyOp18
 70
     1
102
RTVSPropertyOp19
 70
     1
102
RTVSPropertyOp20
 70
     1
102
RTVSPropertyOp21
 70
     1
102
RTVSPropertyOp22
 70
     1
102
RTVSPropertyOp23
 70
     1
102
RTVSPropertyOp24
 70
     1
102
RTVSPropertyOp25
 70
     1
102
RTVSPropertyOp26
 70
     1
102
RTVSPropertyOp27
 70
     1
102
RTVSPropertyOp28
 70
     1
102
RTVSPropertyOp29
 70
     1
102
RTVSPropertyOp30
 70
     1
102
RTVSPropertyOp31
 70
     1
102
RTVSPropertyOp32
 70
     1
102
RTVSPropertyOp33
 70
     1
102
RTVSPropertyOp34
 70
     1
102
RTVSPropertyOp35
 70
     1
102
RTVSPropertyOp36
 70
     1
102
RTVSPropertyOp37
 70
     1
102
RTVSPropertyOp38
 70
     1
102
RTVSPropertyOp39
 70
     1
102
RTVSPropertyOp40
 70
     1
102
RTVSPropertyOp41
 70
     1
102
RTVSPropertyOp42
 70
     1
102
RTVSPropertyOp43
 70
     1
102
RTVSPropertyOp44
 70
     1
102
RTVSPropertyOp45
 70
     1
102
RTVSPropertyOp46
 70
     1
102
RTVSPropertyOp47
 70
     1
102
RTVSPropertyOp48
 70
     1
102
RTVSPropertyOp49
 70
     1
102
RTVSPropertyOp50
 70
     1
102
RTVSPropertyOp51
 70
     0
102
RTVSPropertyOp52
 70
     0
102
RTVSPropertyOp53
 70
     1
102
RTVSPropertyOp54
 70
     1
102
RTVSPropertyOp55
 70
     1
102
RTVSPropertyOp56
 70
     1
102
RTVSPropertyOp57
 70
     1
102
RTVSPropertyOp58
 70
     1
102
RTVSPropertyOp59
 70
     1
102
RTVSPropertyOp60
 70
     1
102
RTVSPropertyOp61
 70
     1
102
RTVSPropertyOp62
 70
     1
  0
XRECORD
  5
5795
102
{ACAD_REACTORS
330
5794
102
}
330
5794
100
AcDbXrecord
280
     1
102
RTVSPost2010Prop28
280
     0
102
RTVSPost2010PropOp28
 70
     1
102
RTVSPost2010Prop29
280
     1
102
RTVSPost2010PropOp29
 70
     1
102
RTVSPost2010Prop30
280
     1
102
RTVSPost2010PropOp30
 70
     1
102
RTVSPost2010Prop31
280
     0
102
RTVSPost2010PropOp31
 70
     1
102
RTVSPost2010Prop32
280
     0
102
RTVSPost2010PropOp32
 70
     1
102
RTVSPost2010Prop33
280
     0
102
RTVSPost2010PropOp33
 70
     1
102
RTVSPost2010Prop34
280
     0
102
RTVSPost2010PropOp34
 70
     1
102
RTVSPost2010Prop35
280
     0
102
RTVSPost2010PropOp35
 70
     1
102
RTVSPost2010Prop36
280
     0
102
RTVSPost2010PropOp36
 70
     1
102
RTVSPost2010Prop37
 90
       50
102
RTVSPost2010PropOp37
 70
     1
102
RTVSPost2010Prop38
140
0.0
102
RTVSPost2010PropOp38
 70
     1
102
RTVSPost2010Prop39
140
1.0
102
RTVSPost2010PropOp39
 70
     1
102
RTVSPost2010Prop40
 90
        0
102
RTVSPost2010PropOp40
 70
     1
102
RTVSPost2010Prop41ColorIndex
 90
       18
102
RTVSPost2010Prop41ColorRGB
 90
        0
102
RTVSPost2010PropOp41
 70
     1
102
RTVSPost2010Prop42
 90
       50
102
RTVSPost2010PropOp42
 70
     1
102
RTVSPost2010Prop43
 90
        3
102
RTVSPost2010PropOp43
 70
     1
102
RTVSPost2010Prop44ColorIndex
 90
        5
102
RTVSPost2010Prop44ColorRGB
 90
      255
102
RTVSPost2010PropOp44
 70
     1
102
RTVSPost2010Prop45
280
     0
102
RTVSPost2010PropOp45
 70
     1
102
RTVSPost2010Prop46
 90
       50
102
RTVSPost2010PropOp46
 70
     1
102
RTVSPost2010Prop47
 90
       50
102
RTVSPost2010PropOp47
 70
     1
102
RTVSPost2010Prop48
 90
       50
102
RTVSPost2010PropOp48
 70
     1
102
RTVSPost2010Prop49
280
     0
102
RTVSPost2010PropOp49
 70
     1
102
RTVSPost2010Prop50
 90
       50
102
RTVSPost2010PropOp50
 70
     1
102
RTVSPost2010Prop51ColorIndex
 90
      256
102
RTVSPost2010Prop51ColorRGB
 90
-16777216
102
RTVSPost2010PropOp51
 70
     0
102
RTVSPost2010Prop52
140
1.0
102
RTVSPost2010PropOp52
 70
     0
102
RTVSPost2010Prop53
 90
        2
102
RTVSPost2010PropOp53
 70
     1
102
RTVSPost2010Prop54
  1
strokes_ogs.tif
102
RTVSPost2010PropOp54
 70
     1
102
RTVSPost2010Prop55
280
     0
102
RTVSPost2010PropOp55
 70
     1
102
RTVSPost2010Prop56
140
1.0
102
RTVSPost2010PropOp56
 70
     1
102
RTVSPost2010Prop57
140
1.0
102
RTVSPost2010PropOp57
 70
     1
102
RTVSPropertyOp0
 70
     1
102
RTVSPropertyOp1
 70
     1
102
RTVSPropertyOp2
 70
     1
102
RTVSPropertyOp3
 70
     1
102
RTVSPropertyOp4
 70
     1
102
RTVSPropertyOp5
 70
     1
102
RTVSPropertyOp6
 70
     1
102
RTVSPropertyOp7
 70
     1
102
RTVSPropertyOp8
 70
     1
102
RTVSPropertyOp9
 70
     1
102
RTVSPropertyOp10
 70
     1
102
RTVSPropertyOp11
 70
     1
102
RTVSPropertyOp12
 70
     1
102
RTVSPropertyOp13
 70
     1
102
RTVSPropertyOp14
 70
     1
102
RTVSPropertyOp15
 70
     1
102
RTVSPropertyOp16
 70
     1
102
RTVSPropertyOp17
 70
     1
102
RTVSPropertyOp18
 70
     1
102
RTVSPropertyOp19
 70
     1
102
RTVSPropertyOp20
 70
     1
102
RTVSPropertyOp21
 70
     1
102
RTVSPropertyOp22
 70
     1
102
RTVSPropertyOp23
 70
     1
102
RTVSPropertyOp24
 70
     1
102
RTVSPropertyOp25
 70
     1
102
RTVSPropertyOp26
 70
     1
102
RTVSPropertyOp27
 70
     1
102
RTVSPropertyOp28
 70
     1
102
RTVSPropertyOp29
 70
     1
102
RTVSPropertyOp30
 70
     1
102
RTVSPropertyOp31
 70
     1
102
RTVSPropertyOp32
 70
     1
102
RTVSPropertyOp33
 70
     1
102
RTVSPropertyOp34
 70
     1
102
RTVSPropertyOp35
 70
     1
102
RTVSPropertyOp36
 70
     1
102
RTVSPropertyOp37
 70
     1
102
RTVSPropertyOp38
 70
     1
102
RTVSPropertyOp39
 70
     1
102
RTVSPropertyOp40
 70
     1
102
RTVSPropertyOp41
 70
     1
102
RTVSPropertyOp42
 70
     1
102
RTVSPropertyOp43
 70
     1
102
RTVSPropertyOp44
 70
     1
102
RTVSPropertyOp45
 70
     1
102
RTVSPropertyOp46
 70
     1
102
RTVSPropertyOp47
 70
     1
102
RTVSPropertyOp48
 70
     1
102
RTVSPropertyOp49
 70
     1
102
RTVSPropertyOp50
 70
     1
102
RTVSPropertyOp51
 70
     0
102
RTVSPropertyOp52
 70
     0
102
RTVSPropertyOp53
 70
     1
102
RTVSPropertyOp54
 70
     1
102
RTVSPropertyOp55
 70
     1
102
RTVSPropertyOp56
 70
     1
102
RTVSPropertyOp57
 70
     1
102
RTVSPropertyOp58
 70
     1
102
RTVSPropertyOp59
 70
     1
102
RTVSPropertyOp60
 70
     1
102
RTVSPropertyOp61
 70
     1
102
RTVSPropertyOp62
 70
     1
  0
XRECORD
  5
5797
102
{ACAD_REACTORS
330
5796
102
}
330
5796
100
AcDbXrecord
280
     1
102
RTVSPost2010Prop28
280
     0
102
RTVSPost2010PropOp28
 70
     1
102
RTVSPost2010Prop29
280
     1
102
RTVSPost2010PropOp29
 70
     1
102
RTVSPost2010Prop30
280
     1
102
RTVSPost2010PropOp30
 70
     1
102
RTVSPost2010Prop31
280
     0
102
RTVSPost2010PropOp31
 70
     1
102
RTVSPost2010Prop32
280
     0
102
RTVSPost2010PropOp32
 70
     1
102
RTVSPost2010Prop33
280
     0
102
RTVSPost2010PropOp33
 70
     1
102
RTVSPost2010Prop34
280
     0
102
RTVSPost2010PropOp34
 70
     1
102
RTVSPost2010Prop35
280
     0
102
RTVSPost2010PropOp35
 70
     1
102
RTVSPost2010Prop36
280
     0
102
RTVSPost2010PropOp36
 70
     1
102
RTVSPost2010Prop37
 90
       50
102
RTVSPost2010PropOp37
 70
     1
102
RTVSPost2010Prop38
140
0.0
102
RTVSPost2010PropOp38
 70
     1
102
RTVSPost2010Prop39
140
1.0
102
RTVSPost2010PropOp39
 70
     1
102
RTVSPost2010Prop40
 90
        0
102
RTVSPost2010PropOp40
 70
     1
102
RTVSPost2010Prop41ColorIndex
 90
       18
102
RTVSPost2010Prop41ColorRGB
 90
        0
102
RTVSPost2010PropOp41
 70
     1
102
RTVSPost2010Prop42
 90
       50
102
RTVSPost2010PropOp42
 70
     1
102
RTVSPost2010Prop43
 90
        3
102
RTVSPost2010PropOp43
 70
     1
102
RTVSPost2010Prop44ColorIndex
 90
        5
102
RTVSPost2010Prop44ColorRGB
 90
      255
102
RTVSPost2010PropOp44
 70
     1
102
RTVSPost2010Prop45
280
     0
102
RTVSPost2010PropOp45
 70
     1
102
RTVSPost2010Prop46
 90
       50
102
RTVSPost2010PropOp46
 70
     1
102
RTVSPost2010Prop47
 90
       50
102
RTVSPost2010PropOp47
 70
     1
102
RTVSPost2010Prop48
 90
       50
102
RTVSPost2010PropOp48
 70
     1
102
RTVSPost2010Prop49
280
     0
102
RTVSPost2010PropOp49
 70
     1
102
RTVSPost2010Prop50
 90
       50
102
RTVSPost2010PropOp50
 70
     1
102
RTVSPost2010Prop51ColorIndex
 90
      256
102
RTVSPost2010Prop51ColorRGB
 90
-16777216
102
RTVSPost2010PropOp51
 70
     0
102
RTVSPost2010Prop52
140
1.0
102
RTVSPost2010PropOp52
 70
     0
102
RTVSPost2010Prop53
 90
        2
102
RTVSPost2010PropOp53
 70
     1
102
RTVSPost2010Prop54
  1
strokes_ogs.tif
102
RTVSPost2010PropOp54
 70
     1
102
RTVSPost2010Prop55
280
     0
102
RTVSPost2010PropOp55
 70
     1
102
RTVSPost2010Prop56
140
1.0
102
RTVSPost2010PropOp56
 70
     1
102
RTVSPost2010Prop57
140
1.0
102
RTVSPost2010PropOp57
 70
     1
102
RTVSPropertyOp0
 70
     1
102
RTVSPropertyOp1
 70
     1
102
RTVSPropertyOp2
 70
     1
102
RTVSPropertyOp3
 70
     1
102
RTVSPropertyOp4
 70
     1
102
RTVSPropertyOp5
 70
     1
102
RTVSPropertyOp6
 70
     1
102
RTVSPropertyOp7
 70
     1
102
RTVSPropertyOp8
 70
     1
102
RTVSPropertyOp9
 70
     1
102
RTVSPropertyOp10
 70
     1
102
RTVSPropertyOp11
 70
     1
102
RTVSPropertyOp12
 70
     1
102
RTVSPropertyOp13
 70
     1
102
RTVSPropertyOp14
 70
     1
102
RTVSPropertyOp15
 70
     1
102
RTVSPropertyOp16
 70
     1
102
RTVSPropertyOp17
 70
     1
102
RTVSPropertyOp18
 70
     1
102
RTVSPropertyOp19
 70
     1
102
RTVSPropertyOp20
 70
     1
102
RTVSPropertyOp21
 70
     1
102
RTVSPropertyOp22
 70
     1
102
RTVSPropertyOp23
 70
     1
102
RTVSPropertyOp24
 70
     1
102
RTVSPropertyOp25
 70
     1
102
RTVSPropertyOp26
 70
     1
102
RTVSPropertyOp27
 70
     1
102
RTVSPropertyOp28
 70
     1
102
RTVSPropertyOp29
 70
     1
102
RTVSPropertyOp30
 70
     1
102
RTVSPropertyOp31
 70
     1
102
RTVSPropertyOp32
 70
     1
102
RTVSPropertyOp33
 70
     1
102
RTVSPropertyOp34
 70
     1
102
RTVSPropertyOp35
 70
     1
102
RTVSPropertyOp36
 70
     1
102
RTVSPropertyOp37
 70
     1
102
RTVSPropertyOp38
 70
     1
102
RTVSPropertyOp39
 70
     1
102
RTVSPropertyOp40
 70
     1
102
RTVSPropertyOp41
 70
     1
102
RTVSPropertyOp42
 70
     1
102
RTVSPropertyOp43
 70
     1
102
RTVSPropertyOp44
 70
     1
102
RTVSPropertyOp45
 70
     1
102
RTVSPropertyOp46
 70
     1
102
RTVSPropertyOp47
 70
     1
102
RTVSPropertyOp48
 70
     1
102
RTVSPropertyOp49
 70
     1
102
RTVSPropertyOp50
 70
     1
102
RTVSPropertyOp51
 70
     0
102
RTVSPropertyOp52
 70
     0
102
RTVSPropertyOp53
 70
     1
102
RTVSPropertyOp54
 70
     1
102
RTVSPropertyOp55
 70
     1
102
RTVSPropertyOp56
 70
     1
102
RTVSPropertyOp57
 70
     1
102
RTVSPropertyOp58
 70
     1
102
RTVSPropertyOp59
 70
     1
102
RTVSPropertyOp60
 70
     1
102
RTVSPropertyOp61
 70
     1
102
RTVSPropertyOp62
 70
     1
  0
XRECORD
  5
5799
102
{ACAD_REACTORS
330
5798
102
}
330
5798
100
AcDbXrecord
280
     1
102
RTVSPost2010Prop28
280
     0
102
RTVSPost2010PropOp28
 70
     1
102
RTVSPost2010Prop29
280
     1
102
RTVSPost2010PropOp29
 70
     1
102
RTVSPost2010Prop30
280
     1
102
RTVSPost2010PropOp30
 70
     1
102
RTVSPost2010Prop31
280
     0
102
RTVSPost2010PropOp31
 70
     1
102
RTVSPost2010Prop32
280
     0
102
RTVSPost2010PropOp32
 70
     1
102
RTVSPost2010Prop33
280
     0
102
RTVSPost2010PropOp33
 70
     1
102
RTVSPost2010Prop34
280
     0
102
RTVSPost2010PropOp34
 70
     1
102
RTVSPost2010Prop35
280
     0
102
RTVSPost2010PropOp35
 70
     1
102
RTVSPost2010Prop36
280
     0
102
RTVSPost2010PropOp36
 70
     1
102
RTVSPost2010Prop37
 90
       50
102
RTVSPost2010PropOp37
 70
     1
102
RTVSPost2010Prop38
140
0.0
102
RTVSPost2010PropOp38
 70
     1
102
RTVSPost2010Prop39
140
1.0
102
RTVSPost2010PropOp39
 70
     1
102
RTVSPost2010Prop40
 90
        0
102
RTVSPost2010PropOp40
 70
     1
102
RTVSPost2010Prop41ColorIndex
 90
       18
102
RTVSPost2010Prop41ColorRGB
 90
        0
102
RTVSPost2010PropOp41
 70
     1
102
RTVSPost2010Prop42
 90
       50
102
RTVSPost2010PropOp42
 70
     1
102
RTVSPost2010Prop43
 90
        3
102
RTVSPost2010PropOp43
 70
     1
102
RTVSPost2010Prop44ColorIndex
 90
        5
102
RTVSPost2010Prop44ColorRGB
 90
      255
102
RTVSPost2010PropOp44
 70
     1
102
RTVSPost2010Prop45
280
     0
102
RTVSPost2010PropOp45
 70
     1
102
RTVSPost2010Prop46
 90
       50
102
RTVSPost2010PropOp46
 70
     1
102
RTVSPost2010Prop47
 90
       50
102
RTVSPost2010PropOp47
 70
     1
102
RTVSPost2010Prop48
 90
       50
102
RTVSPost2010PropOp48
 70
     1
102
RTVSPost2010Prop49
280
     0
102
RTVSPost2010PropOp49
 70
     1
102
RTVSPost2010Prop50
 90
       50
102
RTVSPost2010PropOp50
 70
     1
102
RTVSPost2010Prop51ColorIndex
 90
      256
102
RTVSPost2010Prop51ColorRGB
 90
-16777216
102
RTVSPost2010PropOp51
 70
     0
102
RTVSPost2010Prop52
140
1.0
102
RTVSPost2010PropOp52
 70
     0
102
RTVSPost2010Prop53
 90
        2
102
RTVSPost2010PropOp53
 70
     1
102
RTVSPost2010Prop54
  1
strokes_ogs.tif
102
RTVSPost2010PropOp54
 70
     1
102
RTVSPost2010Prop55
280
     0
102
RTVSPost2010PropOp55
 70
     1
102
RTVSPost2010Prop56
140
1.0
102
RTVSPost2010PropOp56
 70
     1
102
RTVSPost2010Prop57
140
1.0
102
RTVSPost2010PropOp57
 70
     1
102
RTVSPropertyOp0
 70
     1
102
RTVSPropertyOp1
 70
     1
102
RTVSPropertyOp2
 70
     1
102
RTVSPropertyOp3
 70
     1
102
RTVSPropertyOp4
 70
     1
102
RTVSPropertyOp5
 70
     1
102
RTVSPropertyOp6
 70
     1
102
RTVSPropertyOp7
 70
     1
102
RTVSPropertyOp8
 70
     1
102
RTVSPropertyOp9
 70
     1
102
RTVSPropertyOp10
 70
     1
102
RTVSPropertyOp11
 70
     1
102
RTVSPropertyOp12
 70
     1
102
RTVSPropertyOp13
 70
     1
102
RTVSPropertyOp14
 70
     1
102
RTVSPropertyOp15
 70
     1
102
RTVSPropertyOp16
 70
     1
102
RTVSPropertyOp17
 70
     1
102
RTVSPropertyOp18
 70
     1
102
RTVSPropertyOp19
 70
     1
102
RTVSPropertyOp20
 70
     1
102
RTVSPropertyOp21
 70
     1
102
RTVSPropertyOp22
 70
     1
102
RTVSPropertyOp23
 70
     1
102
RTVSPropertyOp24
 70
     1
102
RTVSPropertyOp25
 70
     1
102
RTVSPropertyOp26
 70
     1
102
RTVSPropertyOp27
 70
     1
102
RTVSPropertyOp28
 70
     1
102
RTVSPropertyOp29
 70
     1
102
RTVSPropertyOp30
 70
     1
102
RTVSPropertyOp31
 70
     1
102
RTVSPropertyOp32
 70
     1
102
RTVSPropertyOp33
 70
     1
102
RTVSPropertyOp34
 70
     1
102
RTVSPropertyOp35
 70
     1
102
RTVSPropertyOp36
 70
     1
102
RTVSPropertyOp37
 70
     1
102
RTVSPropertyOp38
 70
     1
102
RTVSPropertyOp39
 70
     1
102
RTVSPropertyOp40
 70
     1
102
RTVSPropertyOp41
 70
     1
102
RTVSPropertyOp42
 70
     1
102
RTVSPropertyOp43
 70
     1
102
RTVSPropertyOp44
 70
     1
102
RTVSPropertyOp45
 70
     1
102
RTVSPropertyOp46
 70
     1
102
RTVSPropertyOp47
 70
     1
102
RTVSPropertyOp48
 70
     1
102
RTVSPropertyOp49
 70
     1
102
RTVSPropertyOp50
 70
     1
102
RTVSPropertyOp51
 70
     0
102
RTVSPropertyOp52
 70
     0
102
RTVSPropertyOp53
 70
     1
102
RTVSPropertyOp54
 70
     1
102
RTVSPropertyOp55
 70
     1
102
RTVSPropertyOp56
 70
     1
102
RTVSPropertyOp57
 70
     1
102
RTVSPropertyOp58
 70
     1
102
RTVSPropertyOp59
 70
     1
102
RTVSPropertyOp60
 70
     1
102
RTVSPropertyOp61
 70
     1
102
RTVSPropertyOp62
 70
     1
  0
XRECORD
  5
579B
102
{ACAD_REACTORS
330
579A
102
}
330
579A
100
AcDbXrecord
280
     1
102
RTVSPost2010Prop28
280
     0
102
RTVSPost2010PropOp28
 70
     1
102
RTVSPost2010Prop29
280
     1
102
RTVSPost2010PropOp29
 70
     1
102
RTVSPost2010Prop30
280
     1
102
RTVSPost2010PropOp30
 70
     1
102
RTVSPost2010Prop31
280
     0
102
RTVSPost2010PropOp31
 70
     1
102
RTVSPost2010Prop32
280
     0
102
RTVSPost2010PropOp32
 70
     1
102
RTVSPost2010Prop33
280
     0
102
RTVSPost2010PropOp33
 70
     1
102
RTVSPost2010Prop34
280
     0
102
RTVSPost2010PropOp34
 70
     1
102
RTVSPost2010Prop35
280
     0
102
RTVSPost2010PropOp35
 70
     1
102
RTVSPost2010Prop36
280
     0
102
RTVSPost2010PropOp36
 70
     1
102
RTVSPost2010Prop37
 90
       50
102
RTVSPost2010PropOp37
 70
     1
102
RTVSPost2010Prop38
140
0.0
102
RTVSPost2010PropOp38
 70
     1
102
RTVSPost2010Prop39
140
1.0
102
RTVSPost2010PropOp39
 70
     1
102
RTVSPost2010Prop40
 90
        0
102
RTVSPost2010PropOp40
 70
     1
102
RTVSPost2010Prop41ColorIndex
 90
       18
102
RTVSPost2010Prop41ColorRGB
 90
        0
102
RTVSPost2010PropOp41
 70
     1
102
RTVSPost2010Prop42
 90
       50
102
RTVSPost2010PropOp42
 70
     1
102
RTVSPost2010Prop43
 90
        3
102
RTVSPost2010PropOp43
 70
     1
102
RTVSPost2010Prop44ColorIndex
 90
        5
102
RTVSPost2010Prop44ColorRGB
 90
      255
102
RTVSPost2010PropOp44
 70
     1
102
RTVSPost2010Prop45
280
     0
102
RTVSPost2010PropOp45
 70
     1
102
RTVSPost2010Prop46
 90
       50
102
RTVSPost2010PropOp46
 70
     1
102
RTVSPost2010Prop47
 90
       50
102
RTVSPost2010PropOp47
 70
     1
102
RTVSPost2010Prop48
 90
       50
102
RTVSPost2010PropOp48
 70
     1
102
RTVSPost2010Prop49
280
     0
102
RTVSPost2010PropOp49
 70
     1
102
RTVSPost2010Prop50
 90
       50
102
RTVSPost2010PropOp50
 70
     1
102
RTVSPost2010Prop51ColorIndex
 90
      256
102
RTVSPost2010Prop51ColorRGB
 90
-16777216
102
RTVSPost2010PropOp51
 70
     0
102
RTVSPost2010Prop52
140
1.0
102
RTVSPost2010PropOp52
 70
     0
102
RTVSPost2010Prop53
 90
        2
102
RTVSPost2010PropOp53
 70
     1
102
RTVSPost2010Prop54
  1
strokes_ogs.tif
102
RTVSPost2010PropOp54
 70
     1
102
RTVSPost2010Prop55
280
     0
102
RTVSPost2010PropOp55
 70
     1
102
RTVSPost2010Prop56
140
1.0
102
RTVSPost2010PropOp56
 70
     1
102
RTVSPost2010Prop57
140
1.0
102
RTVSPost2010PropOp57
 70
     1
102
RTVSPropertyOp0
 70
     1
102
RTVSPropertyOp1
 70
     1
102
RTVSPropertyOp2
 70
     1
102
RTVSPropertyOp3
 70
     1
102
RTVSPropertyOp4
 70
     1
102
RTVSPropertyOp5
 70
     1
102
RTVSPropertyOp6
 70
     1
102
RTVSPropertyOp7
 70
     1
102
RTVSPropertyOp8
 70
     1
102
RTVSPropertyOp9
 70
     1
102
RTVSPropertyOp10
 70
     1
102
RTVSPropertyOp11
 70
     1
102
RTVSPropertyOp12
 70
     1
102
RTVSPropertyOp13
 70
     1
102
RTVSPropertyOp14
 70
     1
102
RTVSPropertyOp15
 70
     1
102
RTVSPropertyOp16
 70
     1
102
RTVSPropertyOp17
 70
     1
102
RTVSPropertyOp18
 70
     1
102
RTVSPropertyOp19
 70
     1
102
RTVSPropertyOp20
 70
     1
102
RTVSPropertyOp21
 70
     1
102
RTVSPropertyOp22
 70
     1
102
RTVSPropertyOp23
 70
     1
102
RTVSPropertyOp24
 70
     1
102
RTVSPropertyOp25
 70
     1
102
RTVSPropertyOp26
 70
     1
102
RTVSPropertyOp27
 70
     1
102
RTVSPropertyOp28
 70
     1
102
RTVSPropertyOp29
 70
     1
102
RTVSPropertyOp30
 70
     1
102
RTVSPropertyOp31
 70
     1
102
RTVSPropertyOp32
 70
     1
102
RTVSPropertyOp33
 70
     1
102
RTVSPropertyOp34
 70
     1
102
RTVSPropertyOp35
 70
     1
102
RTVSPropertyOp36
 70
     1
102
RTVSPropertyOp37
 70
     1
102
RTVSPropertyOp38
 70
     1
102
RTVSPropertyOp39
 70
     1
102
RTVSPropertyOp40
 70
     1
102
RTVSPropertyOp41
 70
     1
102
RTVSPropertyOp42
 70
     1
102
RTVSPropertyOp43
 70
     1
102
RTVSPropertyOp44
 70
     1
102
RTVSPropertyOp45
 70
     1
102
RTVSPropertyOp46
 70
     1
102
RTVSPropertyOp47
 70
     1
102
RTVSPropertyOp48
 70
     1
102
RTVSPropertyOp49
 70
     1
102
RTVSPropertyOp50
 70
     1
102
RTVSPropertyOp51
 70
     0
102
RTVSPropertyOp52
 70
     0
102
RTVSPropertyOp53
 70
     1
102
RTVSPropertyOp54
 70
     1
102
RTVSPropertyOp55
 70
     1
102
RTVSPropertyOp56
 70
     1
102
RTVSPropertyOp57
 70
     1
102
RTVSPropertyOp58
 70
     1
102
RTVSPropertyOp59
 70
     1
102
RTVSPropertyOp60
 70
     1
102
RTVSPropertyOp61
 70
     1
102
RTVSPropertyOp62
 70
     1
  0
XRECORD
  5
57A3
102
{ACAD_REACTORS
330
57A2
102
}
330
57A2
100
AcDbXrecord
280
     1
102
RTVSPost2010Prop28
280
     0
102
RTVSPost2010PropOp28
 70
     1
102
RTVSPost2010Prop29
280
     1
102
RTVSPost2010PropOp29
 70
     1
102
RTVSPost2010Prop30
280
     1
102
RTVSPost2010PropOp30
 70
     1
102
RTVSPost2010Prop31
280
     0
102
RTVSPost2010PropOp31
 70
     1
102
RTVSPost2010Prop32
280
     0
102
RTVSPost2010PropOp32
 70
     1
102
RTVSPost2010Prop33
280
     0
102
RTVSPost2010PropOp33
 70
     1
102
RTVSPost2010Prop34
280
     0
102
RTVSPost2010PropOp34
 70
     1
102
RTVSPost2010Prop35
280
     0
102
RTVSPost2010PropOp35
 70
     1
102
RTVSPost2010Prop36
280
     0
102
RTVSPost2010PropOp36
 70
     1
102
RTVSPost2010Prop37
 90
       50
102
RTVSPost2010PropOp37
 70
     1
102
RTVSPost2010Prop38
140
0.0
102
RTVSPost2010PropOp38
 70
     1
102
RTVSPost2010Prop39
140
1.0
102
RTVSPost2010PropOp39
 70
     1
102
RTVSPost2010Prop40
 90
        0
102
RTVSPost2010PropOp40
 70
     1
102
RTVSPost2010Prop41ColorIndex
 90
       18
102
RTVSPost2010Prop41ColorRGB
 90
        0
102
RTVSPost2010PropOp41
 70
     1
102
RTVSPost2010Prop42
 90
       50
102
RTVSPost2010PropOp42
 70
     1
102
RTVSPost2010Prop43
 90
        3
102
RTVSPost2010PropOp43
 70
     1
102
RTVSPost2010Prop44ColorIndex
 90
        5
102
RTVSPost2010Prop44ColorRGB
 90
      255
102
RTVSPost2010PropOp44
 70
     1
102
RTVSPost2010Prop45
280
     0
102
RTVSPost2010PropOp45
 70
     1
102
RTVSPost2010Prop46
 90
       50
102
RTVSPost2010PropOp46
 70
     1
102
RTVSPost2010Prop47
 90
       50
102
RTVSPost2010PropOp47
 70
     1
102
RTVSPost2010Prop48
 90
       50
102
RTVSPost2010PropOp48
 70
     1
102
RTVSPost2010Prop49
280
     0
102
RTVSPost2010PropOp49
 70
     1
102
RTVSPost2010Prop50
 90
       50
102
RTVSPost2010PropOp50
 70
     1
102
RTVSPost2010Prop51ColorIndex
 90
      256
102
RTVSPost2010Prop51ColorRGB
 90
-16777216
102
RTVSPost2010PropOp51
 70
     0
102
RTVSPost2010Prop52
140
1.0
102
RTVSPost2010PropOp52
 70
     0
102
RTVSPost2010Prop53
 90
        2
102
RTVSPost2010PropOp53
 70
     1
102
RTVSPost2010Prop54
  1
strokes_ogs.tif
102
RTVSPost2010PropOp54
 70
     1
102
RTVSPost2010Prop55
280
     0
102
RTVSPost2010PropOp55
 70
     1
102
RTVSPost2010Prop56
140
1.0
102
RTVSPost2010PropOp56
 70
     1
102
RTVSPost2010Prop57
140
1.0
102
RTVSPost2010PropOp57
 70
     1
102
RTVSPropertyOp0
 70
     1
102
RTVSPropertyOp1
 70
     1
102
RTVSPropertyOp2
 70
     1
102
RTVSPropertyOp3
 70
     1
102
RTVSPropertyOp4
 70
     1
102
RTVSPropertyOp5
 70
     1
102
RTVSPropertyOp6
 70
     1
102
RTVSPropertyOp7
 70
     1
102
RTVSPropertyOp8
 70
     1
102
RTVSPropertyOp9
 70
     1
102
RTVSPropertyOp10
 70
     1
102
RTVSPropertyOp11
 70
     1
102
RTVSPropertyOp12
 70
     1
102
RTVSPropertyOp13
 70
     1
102
RTVSPropertyOp14
 70
     1
102
RTVSPropertyOp15
 70
     1
102
RTVSPropertyOp16
 70
     1
102
RTVSPropertyOp17
 70
     1
102
RTVSPropertyOp18
 70
     1
102
RTVSPropertyOp19
 70
     1
102
RTVSPropertyOp20
 70
     1
102
RTVSPropertyOp21
 70
     1
102
RTVSPropertyOp22
 70
     1
102
RTVSPropertyOp23
 70
     1
102
RTVSPropertyOp24
 70
     1
102
RTVSPropertyOp25
 70
     1
102
RTVSPropertyOp26
 70
     1
102
RTVSPropertyOp27
 70
     1
102
RTVSPropertyOp28
 70
     1
102
RTVSPropertyOp29
 70
     1
102
RTVSPropertyOp30
 70
     1
102
RTVSPropertyOp31
 70
     1
102
RTVSPropertyOp32
 70
     1
102
RTVSPropertyOp33
 70
     1
102
RTVSPropertyOp34
 70
     1
102
RTVSPropertyOp35
 70
     1
102
RTVSPropertyOp36
 70
     1
102
RTVSPropertyOp37
 70
     1
102
RTVSPropertyOp38
 70
     1
102
RTVSPropertyOp39
 70
     1
102
RTVSPropertyOp40
 70
     1
102
RTVSPropertyOp41
 70
     1
102
RTVSPropertyOp42
 70
     1
102
RTVSPropertyOp43
 70
     1
102
RTVSPropertyOp44
 70
     1
102
RTVSPropertyOp45
 70
     1
102
RTVSPropertyOp46
 70
     1
102
RTVSPropertyOp47
 70
     1
102
RTVSPropertyOp48
 70
     1
102
RTVSPropertyOp49
 70
     1
102
RTVSPropertyOp50
 70
     1
102
RTVSPropertyOp51
 70
     0
102
RTVSPropertyOp52
 70
     0
102
RTVSPropertyOp53
 70
     1
102
RTVSPropertyOp54
 70
     1
102
RTVSPropertyOp55
 70
     1
102
RTVSPropertyOp56
 70
     1
102
RTVSPropertyOp57
 70
     1
102
RTVSPropertyOp58
 70
     1
102
RTVSPropertyOp59
 70
     1
102
RTVSPropertyOp60
 70
     1
102
RTVSPropertyOp61
 70
     1
102
RTVSPropertyOp62
 70
     1
  0
XRECORD
  5
57BF
102
{ACAD_REACTORS
330
57BE
102
}
330
57BE
100
AcDbXrecord
280
     1
102
RTVSPost2010Prop28
280
     0
102
RTVSPost2010PropOp28
 70
     1
102
RTVSPost2010Prop29
280
     1
102
RTVSPost2010PropOp29
 70
     1
102
RTVSPost2010Prop30
280
     1
102
RTVSPost2010PropOp30
 70
     1
102
RTVSPost2010Prop31
280
     0
102
RTVSPost2010PropOp31
 70
     1
102
RTVSPost2010Prop32
280
     0
102
RTVSPost2010PropOp32
 70
     1
102
RTVSPost2010Prop33
280
     0
102
RTVSPost2010PropOp33
 70
     1
102
RTVSPost2010Prop34
280
     0
102
RTVSPost2010PropOp34
 70
     1
102
RTVSPost2010Prop35
280
     0
102
RTVSPost2010PropOp35
 70
     1
102
RTVSPost2010Prop36
280
     0
102
RTVSPost2010PropOp36
 70
     1
102
RTVSPost2010Prop37
 90
       50
102
RTVSPost2010PropOp37
 70
     0
102
RTVSPost2010Prop38
140
0.0
102
RTVSPost2010PropOp38
 70
     0
102
RTVSPost2010Prop39
140
1.0
102
RTVSPost2010PropOp39
 70
     0
102
RTVSPost2010Prop40
 90
        0
102
RTVSPost2010PropOp40
 70
     0
102
RTVSPost2010Prop41ColorIndex
 90
       18
102
RTVSPost2010Prop41ColorRGB
 90
        0
102
RTVSPost2010PropOp41
 70
     0
102
RTVSPost2010Prop42
 90
       50
102
RTVSPost2010PropOp42
 70
     0
102
RTVSPost2010Prop43
 90
        3
102
RTVSPost2010PropOp43
 70
     0
102
RTVSPost2010Prop44ColorIndex
 90
        5
102
RTVSPost2010Prop44ColorRGB
 90
      255
102
RTVSPost2010PropOp44
 70
     0
102
RTVSPost2010Prop45
280
     0
102
RTVSPost2010PropOp45
 70
     1
102
RTVSPost2010Prop46
 90
       50
102
RTVSPost2010PropOp46
 70
     0
102
RTVSPost2010Prop47
 90
       50
102
RTVSPost2010PropOp47
 70
     0
102
RTVSPost2010Prop48
 90
       50
102
RTVSPost2010PropOp48
 70
     0
102
RTVSPost2010Prop49
280
     0
102
RTVSPost2010PropOp49
 70
     1
102
RTVSPost2010Prop50
 90
       50
102
RTVSPost2010PropOp50
 70
     0
102
RTVSPost2010Prop51ColorIndex
 90
      256
102
RTVSPost2010Prop51ColorRGB
 90
-16777216
102
RTVSPost2010PropOp51
 70
     0
102
RTVSPost2010Prop52
140
1.0
102
RTVSPost2010PropOp52
 70
     0
102
RTVSPost2010Prop53
 90
        2
102
RTVSPost2010PropOp53
 70
     0
102
RTVSPost2010Prop54
  1
strokes_ogs.tif
102
RTVSPost2010PropOp54
 70
     0
102
RTVSPost2010Prop55
280
     0
102
RTVSPost2010PropOp55
 70
     1
102
RTVSPost2010Prop56
140
1.0
102
RTVSPost2010PropOp56
 70
     0
102
RTVSPost2010Prop57
140
1.0
102
RTVSPost2010PropOp57
 70
     0
102
RTVSPropertyOp0
 70
     0
102
RTVSPropertyOp1
 70
     0
102
RTVSPropertyOp2
 70
     0
102
RTVSPropertyOp3
 70
     0
102
RTVSPropertyOp4
 70
     0
102
RTVSPropertyOp5
 70
     0
102
RTVSPropertyOp6
 70
     0
102
RTVSPropertyOp7
 70
     0
102
RTVSPropertyOp8
 70
     0
102
RTVSPropertyOp9
 70
     0
102
RTVSPropertyOp10
 70
     0
102
RTVSPropertyOp11
 70
     0
102
RTVSPropertyOp12
 70
     0
102
RTVSPropertyOp13
 70
     0
102
RTVSPropertyOp14
 70
     2
102
RTVSPropertyOp15
 70
     0
102
RTVSPropertyOp16
 70
     0
102
RTVSPropertyOp17
 70
     0
102
RTVSPropertyOp18
 70
     0
102
RTVSPropertyOp19
 70
     0
102
RTVSPropertyOp20
 70
     0
102
RTVSPropertyOp21
 70
     0
102
RTVSPropertyOp22
 70
     0
102
RTVSPropertyOp23
 70
     0
102
RTVSPropertyOp24
 70
     0
102
RTVSPropertyOp25
 70
     0
102
RTVSPropertyOp26
 70
     0
102
RTVSPropertyOp27
 70
     0
102
RTVSPropertyOp28
 70
     1
102
RTVSPropertyOp29
 70
     1
102
RTVSPropertyOp30
 70
     1
102
RTVSPropertyOp31
 70
     1
102
RTVSPropertyOp32
 70
     1
102
RTVSPropertyOp33
 70
     1
102
RTVSPropertyOp34
 70
     1
102
RTVSPropertyOp35
 70
     1
102
RTVSPropertyOp36
 70
     1
102
RTVSPropertyOp37
 70
     0
102
RTVSPropertyOp38
 70
     0
102
RTVSPropertyOp39
 70
     0
102
RTVSPropertyOp40
 70
     0
102
RTVSPropertyOp41
 70
     0
102
RTVSPropertyOp42
 70
     0
102
RTVSPropertyOp43
 70
     0
102
RTVSPropertyOp44
 70
     0
102
RTVSPropertyOp45
 70
     1
102
RTVSPropertyOp46
 70
     0
102
RTVSPropertyOp47
 70
     0
102
RTVSPropertyOp48
 70
     0
102
RTVSPropertyOp49
 70
     1
102
RTVSPropertyOp50
 70
     0
102
RTVSPropertyOp51
 70
     0
102
RTVSPropertyOp52
 70
     0
102
RTVSPropertyOp53
 70
     0
102
RTVSPropertyOp54
 70
     0
102
RTVSPropertyOp55
 70
     1
102
RTVSPropertyOp56
 70
     0
102
RTVSPropertyOp57
 70
     0
102
RTVSPropertyOp58
 70
     0
102
RTVSPropertyOp59
 70
     0
102
RTVSPropertyOp60
 70
     0
102
RTVSPropertyOp61
 70
     0
102
RTVSPropertyOp62
 70
     0
  0
XRECORD
  5
57AF
102
{ACAD_REACTORS
330
57AE
102
}
330
57AE
100
AcDbXrecord
280
     1
102
RTVSPost2010Prop28
280
     0
102
RTVSPost2010PropOp28
 70
     1
102
RTVSPost2010Prop29
280
     1
102
RTVSPost2010PropOp29
 70
     1
102
RTVSPost2010Prop30
280
     1
102
RTVSPost2010PropOp30
 70
     1
102
RTVSPost2010Prop31
280
     0
102
RTVSPost2010PropOp31
 70
     1
102
RTVSPost2010Prop32
280
     0
102
RTVSPost2010PropOp32
 70
     1
102
RTVSPost2010Prop33
280
     0
102
RTVSPost2010PropOp33
 70
     1
102
RTVSPost2010Prop34
280
     0
102
RTVSPost2010PropOp34
 70
     1
102
RTVSPost2010Prop35
280
     0
102
RTVSPost2010PropOp35
 70
     1
102
RTVSPost2010Prop36
280
     0
102
RTVSPost2010PropOp36
 70
     1
102
RTVSPost2010Prop37
 90
       50
102
RTVSPost2010PropOp37
 70
     1
102
RTVSPost2010Prop38
140
0.0
102
RTVSPost2010PropOp38
 70
     1
102
RTVSPost2010Prop39
140
1.0
102
RTVSPost2010PropOp39
 70
     1
102
RTVSPost2010Prop40
 90
        0
102
RTVSPost2010PropOp40
 70
     1
102
RTVSPost2010Prop41ColorIndex
 90
       18
102
RTVSPost2010Prop41ColorRGB
 90
        0
102
RTVSPost2010PropOp41
 70
     1
102
RTVSPost2010Prop42
 90
       50
102
RTVSPost2010PropOp42
 70
     1
102
RTVSPost2010Prop43
 90
        3
102
RTVSPost2010PropOp43
 70
     1
102
RTVSPost2010Prop44ColorIndex
 90
        5
102
RTVSPost2010Prop44ColorRGB
 90
      255
102
RTVSPost2010PropOp44
 70
     1
102
RTVSPost2010Prop45
280
     0
102
RTVSPost2010PropOp45
 70
     1
102
RTVSPost2010Prop46
 90
       50
102
RTVSPost2010PropOp46
 70
     1
102
RTVSPost2010Prop47
 90
       50
102
RTVSPost2010PropOp47
 70
     1
102
RTVSPost2010Prop48
 90
       50
102
RTVSPost2010PropOp48
 70
     1
102
RTVSPost2010Prop49
280
     0
102
RTVSPost2010PropOp49
 70
     1
102
RTVSPost2010Prop50
 90
       50
102
RTVSPost2010PropOp50
 70
     1
102
RTVSPost2010Prop51ColorIndex
 90
      256
102
RTVSPost2010Prop51ColorRGB
 90
-16777216
102
RTVSPost2010PropOp51
 70
     0
102
RTVSPost2010Prop52
140
1.0
102
RTVSPost2010PropOp52
 70
     0
102
RTVSPost2010Prop53
 90
        2
102
RTVSPost2010PropOp53
 70
     1
102
RTVSPost2010Prop54
  1
strokes_ogs.tif
102
RTVSPost2010PropOp54
 70
     1
102
RTVSPost2010Prop55
280
     0
102
RTVSPost2010PropOp55
 70
     1
102
RTVSPost2010Prop56
140
1.0
102
RTVSPost2010PropOp56
 70
     1
102
RTVSPost2010Prop57
140
1.0
102
RTVSPost2010PropOp57
 70
     1
102
RTVSPropertyOp0
 70
     1
102
RTVSPropertyOp1
 70
     1
102
RTVSPropertyOp2
 70
     1
102
RTVSPropertyOp3
 70
     1
102
RTVSPropertyOp4
 70
     1
102
RTVSPropertyOp5
 70
     1
102
RTVSPropertyOp6
 70
     1
102
RTVSPropertyOp7
 70
     1
102
RTVSPropertyOp8
 70
     1
102
RTVSPropertyOp9
 70
     1
102
RTVSPropertyOp10
 70
     1
102
RTVSPropertyOp11
 70
     1
102
RTVSPropertyOp12
 70
     1
102
RTVSPropertyOp13
 70
     1
102
RTVSPropertyOp14
 70
     1
102
RTVSPropertyOp15
 70
     1
102
RTVSPropertyOp16
 70
     1
102
RTVSPropertyOp17
 70
     1
102
RTVSPropertyOp18
 70
     1
102
RTVSPropertyOp19
 70
     1
102
RTVSPropertyOp20
 70
     1
102
RTVSPropertyOp21
 70
     1
102
RTVSPropertyOp22
 70
     1
102
RTVSPropertyOp23
 70
     1
102
RTVSPropertyOp24
 70
     1
102
RTVSPropertyOp25
 70
     1
102
RTVSPropertyOp26
 70
     1
102
RTVSPropertyOp27
 70
     1
102
RTVSPropertyOp28
 70
     1
102
RTVSPropertyOp29
 70
     1
102
RTVSPropertyOp30
 70
     1
102
RTVSPropertyOp31
 70
     1
102
RTVSPropertyOp32
 70
     1
102
RTVSPropertyOp33
 70
     1
102
RTVSPropertyOp34
 70
     1
102
RTVSPropertyOp35
 70
     1
102
RTVSPropertyOp36
 70
     1
102
RTVSPropertyOp37
 70
     1
102
RTVSPropertyOp38
 70
     1
102
RTVSPropertyOp39
 70
     1
102
RTVSPropertyOp40
 70
     1
102
RTVSPropertyOp41
 70
     1
102
RTVSPropertyOp42
 70
     1
102
RTVSPropertyOp43
 70
     1
102
RTVSPropertyOp44
 70
     1
102
RTVSPropertyOp45
 70
     1
102
RTVSPropertyOp46
 70
     1
102
RTVSPropertyOp47
 70
     1
102
RTVSPropertyOp48
 70
     1
102
RTVSPropertyOp49
 70
     1
102
RTVSPropertyOp50
 70
     1
102
RTVSPropertyOp51
 70
     0
102
RTVSPropertyOp52
 70
     0
102
RTVSPropertyOp53
 70
     1
102
RTVSPropertyOp54
 70
     1
102
RTVSPropertyOp55
 70
     1
102
RTVSPropertyOp56
 70
     1
102
RTVSPropertyOp57
 70
     1
102
RTVSPropertyOp58
 70
     1
102
RTVSPropertyOp59
 70
     1
102
RTVSPropertyOp60
 70
     1
102
RTVSPropertyOp61
 70
     1
102
RTVSPropertyOp62
 70
     1
  0
XRECORD
  5
57C1
102
{ACAD_REACTORS
330
57C0
102
}
330
57C0
100
AcDbXrecord
280
     1
102
RTVSPost2010Prop28
280
     0
102
RTVSPost2010PropOp28
 70
     1
102
RTVSPost2010Prop29
280
     1
102
RTVSPost2010PropOp29
 70
     1
102
RTVSPost2010Prop30
280
     1
102
RTVSPost2010PropOp30
 70
     1
102
RTVSPost2010Prop31
280
     0
102
RTVSPost2010PropOp31
 70
     1
102
RTVSPost2010Prop32
280
     0
102
RTVSPost2010PropOp32
 70
     1
102
RTVSPost2010Prop33
280
     0
102
RTVSPost2010PropOp33
 70
     1
102
RTVSPost2010Prop34
280
     0
102
RTVSPost2010PropOp34
 70
     1
102
RTVSPost2010Prop35
280
     0
102
RTVSPost2010PropOp35
 70
     1
102
RTVSPost2010Prop36
280
     0
102
RTVSPost2010PropOp36
 70
     1
102
RTVSPost2010Prop37
 90
       50
102
RTVSPost2010PropOp37
 70
     0
102
RTVSPost2010Prop38
140
0.0
102
RTVSPost2010PropOp38
 70
     0
102
RTVSPost2010Prop39
140
1.0
102
RTVSPost2010PropOp39
 70
     0
102
RTVSPost2010Prop40
 90
        0
102
RTVSPost2010PropOp40
 70
     0
102
RTVSPost2010Prop41ColorIndex
 90
       18
102
RTVSPost2010Prop41ColorRGB
 90
        0
102
RTVSPost2010PropOp41
 70
     0
102
RTVSPost2010Prop42
 90
       50
102
RTVSPost2010PropOp42
 70
     0
102
RTVSPost2010Prop43
 90
        3
102
RTVSPost2010PropOp43
 70
     0
102
RTVSPost2010Prop44ColorIndex
 90
        5
102
RTVSPost2010Prop44ColorRGB
 90
      255
102
RTVSPost2010PropOp44
 70
     0
102
RTVSPost2010Prop45
280
     0
102
RTVSPost2010PropOp45
 70
     1
102
RTVSPost2010Prop46
 90
       50
102
RTVSPost2010PropOp46
 70
     0
102
RTVSPost2010Prop47
 90
       50
102
RTVSPost2010PropOp47
 70
     0
102
RTVSPost2010Prop48
 90
       50
102
RTVSPost2010PropOp48
 70
     0
102
RTVSPost2010Prop49
280
     0
102
RTVSPost2010PropOp49
 70
     1
102
RTVSPost2010Prop50
 90
       50
102
RTVSPost2010PropOp50
 70
     0
102
RTVSPost2010Prop51ColorIndex
 90
      256
102
RTVSPost2010Prop51ColorRGB
 90
-16777216
102
RTVSPost2010PropOp51
 70
     0
102
RTVSPost2010Prop52
140
1.0
102
RTVSPost2010PropOp52
 70
     0
102
RTVSPost2010Prop53
 90
        2
102
RTVSPost2010PropOp53
 70
     0
102
RTVSPost2010Prop54
  1
strokes_ogs.tif
102
RTVSPost2010PropOp54
 70
     0
102
RTVSPost2010Prop55
280
     0
102
RTVSPost2010PropOp55
 70
     1
102
RTVSPost2010Prop56
140
1.0
102
RTVSPost2010PropOp56
 70
     0
102
RTVSPost2010Prop57
140
1.0
102
RTVSPost2010PropOp57
 70
     0
102
RTVSPropertyOp0
 70
     0
102
RTVSPropertyOp1
 70
     0
102
RTVSPropertyOp2
 70
     0
102
RTVSPropertyOp3
 70
     0
102
RTVSPropertyOp4
 70
     0
102
RTVSPropertyOp5
 70
     0
102
RTVSPropertyOp6
 70
     0
102
RTVSPropertyOp7
 70
     0
102
RTVSPropertyOp8
 70
     0
102
RTVSPropertyOp9
 70
     0
102
RTVSPropertyOp10
 70
     0
102
RTVSPropertyOp11
 70
     0
102
RTVSPropertyOp12
 70
     0
102
RTVSPropertyOp13
 70
     0
102
RTVSPropertyOp14
 70
     2
102
RTVSPropertyOp15
 70
     0
102
RTVSPropertyOp16
 70
     0
102
RTVSPropertyOp17
 70
     0
102
RTVSPropertyOp18
 70
     0
102
RTVSPropertyOp19
 70
     0
102
RTVSPropertyOp20
 70
     0
102
RTVSPropertyOp21
 70
     0
102
RTVSPropertyOp22
 70
     0
102
RTVSPropertyOp23
 70
     0
102
RTVSPropertyOp24
 70
     0
102
RTVSPropertyOp25
 70
     0
102
RTVSPropertyOp26
 70
     0
102
RTVSPropertyOp27
 70
     0
102
RTVSPropertyOp28
 70
     1
102
RTVSPropertyOp29
 70
     1
102
RTVSPropertyOp30
 70
     1
102
RTVSPropertyOp31
 70
     1
102
RTVSPropertyOp32
 70
     1
102
RTVSPropertyOp33
 70
     1
102
RTVSPropertyOp34
 70
     1
102
RTVSPropertyOp35
 70
     1
102
RTVSPropertyOp36
 70
     1
102
RTVSPropertyOp37
 70
     0
102
RTVSPropertyOp38
 70
     0
102
RTVSPropertyOp39
 70
     0
102
RTVSPropertyOp40
 70
     0
102
RTVSPropertyOp41
 70
     0
102
RTVSPropertyOp42
 70
     0
102
RTVSPropertyOp43
 70
     0
102
RTVSPropertyOp44
 70
     0
102
RTVSPropertyOp45
 70
     1
102
RTVSPropertyOp46
 70
     0
102
RTVSPropertyOp47
 70
     0
102
RTVSPropertyOp48
 70
     0
102
RTVSPropertyOp49
 70
     1
102
RTVSPropertyOp50
 70
     0
102
RTVSPropertyOp51
 70
     0
102
RTVSPropertyOp52
 70
     0
102
RTVSPropertyOp53
 70
     0
102
RTVSPropertyOp54
 70
     0
102
RTVSPropertyOp55
 70
     1
102
RTVSPropertyOp56
 70
     0
102
RTVSPropertyOp57
 70
     0
102
RTVSPropertyOp58
 70
     0
102
RTVSPropertyOp59
 70
     0
102
RTVSPropertyOp60
 70
     0
102
RTVSPropertyOp61
 70
     0
102
RTVSPropertyOp62
 70
     0
  0
XRECORD
  5
57A7
102
{ACAD_REACTORS
330
57A6
102
}
330
57A6
100
AcDbXrecord
280
     1
102
RTVSPost2010Prop28
280
     0
102
RTVSPost2010PropOp28
 70
     1
102
RTVSPost2010Prop29
280
     1
102
RTVSPost2010PropOp29
 70
     1
102
RTVSPost2010Prop30
280
     1
102
RTVSPost2010PropOp30
 70
     1
102
RTVSPost2010Prop31
280
     0
102
RTVSPost2010PropOp31
 70
     1
102
RTVSPost2010Prop32
280
     0
102
RTVSPost2010PropOp32
 70
     1
102
RTVSPost2010Prop33
280
     0
102
RTVSPost2010PropOp33
 70
     1
102
RTVSPost2010Prop34
280
     0
102
RTVSPost2010PropOp34
 70
     1
102
RTVSPost2010Prop35
280
     0
102
RTVSPost2010PropOp35
 70
     1
102
RTVSPost2010Prop36
280
     0
102
RTVSPost2010PropOp36
 70
     1
102
RTVSPost2010Prop37
 90
       50
102
RTVSPost2010PropOp37
 70
     1
102
RTVSPost2010Prop38
140
0.0
102
RTVSPost2010PropOp38
 70
     1
102
RTVSPost2010Prop39
140
1.0
102
RTVSPost2010PropOp39
 70
     1
102
RTVSPost2010Prop40
 90
        0
102
RTVSPost2010PropOp40
 70
     1
102
RTVSPost2010Prop41ColorIndex
 90
       18
102
RTVSPost2010Prop41ColorRGB
 90
        0
102
RTVSPost2010PropOp41
 70
     1
102
RTVSPost2010Prop42
 90
       50
102
RTVSPost2010PropOp42
 70
     1
102
RTVSPost2010Prop43
 90
        3
102
RTVSPost2010PropOp43
 70
     1
102
RTVSPost2010Prop44ColorIndex
 90
        5
102
RTVSPost2010Prop44ColorRGB
 90
      255
102
RTVSPost2010PropOp44
 70
     1
102
RTVSPost2010Prop45
280
     0
102
RTVSPost2010PropOp45
 70
     1
102
RTVSPost2010Prop46
 90
       50
102
RTVSPost2010PropOp46
 70
     1
102
RTVSPost2010Prop47
 90
       50
102
RTVSPost2010PropOp47
 70
     1
102
RTVSPost2010Prop48
 90
       50
102
RTVSPost2010PropOp48
 70
     1
102
RTVSPost2010Prop49
280
     0
102
RTVSPost2010PropOp49
 70
     1
102
RTVSPost2010Prop50
 90
       50
102
RTVSPost2010PropOp50
 70
     1
102
RTVSPost2010Prop51ColorIndex
 90
      256
102
RTVSPost2010Prop51ColorRGB
 90
-16777216
102
RTVSPost2010PropOp51
 70
     0
102
RTVSPost2010Prop52
140
1.0
102
RTVSPost2010PropOp52
 70
     0
102
RTVSPost2010Prop53
 90
        2
102
RTVSPost2010PropOp53
 70
     1
102
RTVSPost2010Prop54
  1
strokes_ogs.tif
102
RTVSPost2010PropOp54
 70
     1
102
RTVSPost2010Prop55
280
     0
102
RTVSPost2010PropOp55
 70
     1
102
RTVSPost2010Prop56
140
1.0
102
RTVSPost2010PropOp56
 70
     1
102
RTVSPost2010Prop57
140
1.0
102
RTVSPost2010PropOp57
 70
     1
102
RTVSPropertyOp0
 70
     1
102
RTVSPropertyOp1
 70
     1
102
RTVSPropertyOp2
 70
     1
102
RTVSPropertyOp3
 70
     1
102
RTVSPropertyOp4
 70
     1
102
RTVSPropertyOp5
 70
     1
102
RTVSPropertyOp6
 70
     1
102
RTVSPropertyOp7
 70
     1
102
RTVSPropertyOp8
 70
     1
102
RTVSPropertyOp9
 70
     1
102
RTVSPropertyOp10
 70
     1
102
RTVSPropertyOp11
 70
     1
102
RTVSPropertyOp12
 70
     1
102
RTVSPropertyOp13
 70
     1
102
RTVSPropertyOp14
 70
     1
102
RTVSPropertyOp15
 70
     1
102
RTVSPropertyOp16
 70
     1
102
RTVSPropertyOp17
 70
     1
102
RTVSPropertyOp18
 70
     1
102
RTVSPropertyOp19
 70
     1
102
RTVSPropertyOp20
 70
     1
102
RTVSPropertyOp21
 70
     1
102
RTVSPropertyOp22
 70
     1
102
RTVSPropertyOp23
 70
     1
102
RTVSPropertyOp24
 70
     1
102
RTVSPropertyOp25
 70
     1
102
RTVSPropertyOp26
 70
     1
102
RTVSPropertyOp27
 70
     1
102
RTVSPropertyOp28
 70
     1
102
RTVSPropertyOp29
 70
     1
102
RTVSPropertyOp30
 70
     1
102
RTVSPropertyOp31
 70
     1
102
RTVSPropertyOp32
 70
     1
102
RTVSPropertyOp33
 70
     1
102
RTVSPropertyOp34
 70
     1
102
RTVSPropertyOp35
 70
     1
102
RTVSPropertyOp36
 70
     1
102
RTVSPropertyOp37
 70
     1
102
RTVSPropertyOp38
 70
     1
102
RTVSPropertyOp39
 70
     1
102
RTVSPropertyOp40
 70
     1
102
RTVSPropertyOp41
 70
     1
102
RTVSPropertyOp42
 70
     1
102
RTVSPropertyOp43
 70
     1
102
RTVSPropertyOp44
 70
     1
102
RTVSPropertyOp45
 70
     1
102
RTVSPropertyOp46
 70
     1
102
RTVSPropertyOp47
 70
     1
102
RTVSPropertyOp48
 70
     1
102
RTVSPropertyOp49
 70
     1
102
RTVSPropertyOp50
 70
     1
102
RTVSPropertyOp51
 70
     0
102
RTVSPropertyOp52
 70
     0
102
RTVSPropertyOp53
 70
     1
102
RTVSPropertyOp54
 70
     1
102
RTVSPropertyOp55
 70
     1
102
RTVSPropertyOp56
 70
     1
102
RTVSPropertyOp57
 70
     1
102
RTVSPropertyOp58
 70
     1
102
RTVSPropertyOp59
 70
     1
102
RTVSPropertyOp60
 70
     1
102
RTVSPropertyOp61
 70
     1
102
RTVSPropertyOp62
 70
     1
  0
XRECORD
  5
57BD
102
{ACAD_REACTORS
330
57BC
102
}
330
57BC
100
AcDbXrecord
280
     1
102
RTVSPost2010Prop28
280
     0
102
RTVSPost2010PropOp28
 70
     1
102
RTVSPost2010Prop29
280
     1
102
RTVSPost2010PropOp29
 70
     1
102
RTVSPost2010Prop30
280
     1
102
RTVSPost2010PropOp30
 70
     1
102
RTVSPost2010Prop31
280
     0
102
RTVSPost2010PropOp31
 70
     1
102
RTVSPost2010Prop32
280
     0
102
RTVSPost2010PropOp32
 70
     1
102
RTVSPost2010Prop33
280
     0
102
RTVSPost2010PropOp33
 70
     1
102
RTVSPost2010Prop34
280
     0
102
RTVSPost2010PropOp34
 70
     1
102
RTVSPost2010Prop35
280
     0
102
RTVSPost2010PropOp35
 70
     1
102
RTVSPost2010Prop36
280
     0
102
RTVSPost2010PropOp36
 70
     1
102
RTVSPost2010Prop37
 90
       50
102
RTVSPost2010PropOp37
 70
     1
102
RTVSPost2010Prop38
140
0.0
102
RTVSPost2010PropOp38
 70
     1
102
RTVSPost2010Prop39
140
1.0
102
RTVSPost2010PropOp39
 70
     1
102
RTVSPost2010Prop40
 90
        0
102
RTVSPost2010PropOp40
 70
     1
102
RTVSPost2010Prop41ColorIndex
 90
       18
102
RTVSPost2010Prop41ColorRGB
 90
        0
102
RTVSPost2010PropOp41
 70
     1
102
RTVSPost2010Prop42
 90
       50
102
RTVSPost2010PropOp42
 70
     1
102
RTVSPost2010Prop43
 90
        3
102
RTVSPost2010PropOp43
 70
     1
102
RTVSPost2010Prop44ColorIndex
 90
        5
102
RTVSPost2010Prop44ColorRGB
 90
      255
102
RTVSPost2010PropOp44
 70
     1
102
RTVSPost2010Prop45
280
     0
102
RTVSPost2010PropOp45
 70
     1
102
RTVSPost2010Prop46
 90
       50
102
RTVSPost2010PropOp46
 70
     1
102
RTVSPost2010Prop47
 90
       50
102
RTVSPost2010PropOp47
 70
     1
102
RTVSPost2010Prop48
 90
       50
102
RTVSPost2010PropOp48
 70
     1
102
RTVSPost2010Prop49
280
     0
102
RTVSPost2010PropOp49
 70
     1
102
RTVSPost2010Prop50
 90
       50
102
RTVSPost2010PropOp50
 70
     1
102
RTVSPost2010Prop51ColorIndex
 90
      256
102
RTVSPost2010Prop51ColorRGB
 90
-16777216
102
RTVSPost2010PropOp51
 70
     0
102
RTVSPost2010Prop52
140
1.0
102
RTVSPost2010PropOp52
 70
     0
102
RTVSPost2010Prop53
 90
        2
102
RTVSPost2010PropOp53
 70
     1
102
RTVSPost2010Prop54
  1
strokes_ogs.tif
102
RTVSPost2010PropOp54
 70
     1
102
RTVSPost2010Prop55
280
     0
102
RTVSPost2010PropOp55
 70
     1
102
RTVSPost2010Prop56
140
1.0
102
RTVSPost2010PropOp56
 70
     1
102
RTVSPost2010Prop57
140
1.0
102
RTVSPost2010PropOp57
 70
     1
102
RTVSPropertyOp0
 70
     1
102
RTVSPropertyOp1
 70
     1
102
RTVSPropertyOp2
 70
     1
102
RTVSPropertyOp3
 70
     1
102
RTVSPropertyOp4
 70
     1
102
RTVSPropertyOp5
 70
     1
102
RTVSPropertyOp6
 70
     1
102
RTVSPropertyOp7
 70
     1
102
RTVSPropertyOp8
 70
     1
102
RTVSPropertyOp9
 70
     1
102
RTVSPropertyOp10
 70
     1
102
RTVSPropertyOp11
 70
     1
102
RTVSPropertyOp12
 70
     1
102
RTVSPropertyOp13
 70
     1
102
RTVSPropertyOp14
 70
     1
102
RTVSPropertyOp15
 70
     1
102
RTVSPropertyOp16
 70
     1
102
RTVSPropertyOp17
 70
     1
102
RTVSPropertyOp18
 70
     1
102
RTVSPropertyOp19
 70
     1
102
RTVSPropertyOp20
 70
     1
102
RTVSPropertyOp21
 70
     1
102
RTVSPropertyOp22
 70
     1
102
RTVSPropertyOp23
 70
     1
102
RTVSPropertyOp24
 70
     1
102
RTVSPropertyOp25
 70
     1
102
RTVSPropertyOp26
 70
     1
102
RTVSPropertyOp27
 70
     1
102
RTVSPropertyOp28
 70
     1
102
RTVSPropertyOp29
 70
     1
102
RTVSPropertyOp30
 70
     1
102
RTVSPropertyOp31
 70
     1
102
RTVSPropertyOp32
 70
     1
102
RTVSPropertyOp33
 70
     1
102
RTVSPropertyOp34
 70
     1
102
RTVSPropertyOp35
 70
     1
102
RTVSPropertyOp36
 70
     1
102
RTVSPropertyOp37
 70
     1
102
RTVSPropertyOp38
 70
     1
102
RTVSPropertyOp39
 70
     1
102
RTVSPropertyOp40
 70
     1
102
RTVSPropertyOp41
 70
     1
102
RTVSPropertyOp42
 70
     1
102
RTVSPropertyOp43
 70
     1
102
RTVSPropertyOp44
 70
     1
102
RTVSPropertyOp45
 70
     1
102
RTVSPropertyOp46
 70
     1
102
RTVSPropertyOp47
 70
     1
102
RTVSPropertyOp48
 70
     1
102
RTVSPropertyOp49
 70
     1
102
RTVSPropertyOp50
 70
     1
102
RTVSPropertyOp51
 70
     0
102
RTVSPropertyOp52
 70
     0
102
RTVSPropertyOp53
 70
     1
102
RTVSPropertyOp54
 70
     1
102
RTVSPropertyOp55
 70
     1
102
RTVSPropertyOp56
 70
     1
102
RTVSPropertyOp57
 70
     1
102
RTVSPropertyOp58
 70
     1
102
RTVSPropertyOp59
 70
     1
102
RTVSPropertyOp60
 70
     1
102
RTVSPropertyOp61
 70
     1
102
RTVSPropertyOp62
 70
     1
  0
XRECORD
  5
57BB
102
{ACAD_REACTORS
330
57BA
102
}
330
57BA
100
AcDbXrecord
280
     1
102
RTVSPost2010Prop28
280
     0
102
RTVSPost2010PropOp28
 70
     1
102
RTVSPost2010Prop29
280
     1
102
RTVSPost2010PropOp29
 70
     1
102
RTVSPost2010Prop30
280
     1
102
RTVSPost2010PropOp30
 70
     1
102
RTVSPost2010Prop31
280
     0
102
RTVSPost2010PropOp31
 70
     1
102
RTVSPost2010Prop32
280
     0
102
RTVSPost2010PropOp32
 70
     1
102
RTVSPost2010Prop33
280
     0
102
RTVSPost2010PropOp33
 70
     1
102
RTVSPost2010Prop34
280
     0
102
RTVSPost2010PropOp34
 70
     1
102
RTVSPost2010Prop35
280
     0
102
RTVSPost2010PropOp35
 70
     1
102
RTVSPost2010Prop36
280
     0
102
RTVSPost2010PropOp36
 70
     1
102
RTVSPost2010Prop37
 90
       50
102
RTVSPost2010PropOp37
 70
     1
102
RTVSPost2010Prop38
140
0.0
102
RTVSPost2010PropOp38
 70
     1
102
RTVSPost2010Prop39
140
1.0
102
RTVSPost2010PropOp39
 70
     1
102
RTVSPost2010Prop40
 90
        0
102
RTVSPost2010PropOp40
 70
     1
102
RTVSPost2010Prop41ColorIndex
 90
       18
102
RTVSPost2010Prop41ColorRGB
 90
        0
102
RTVSPost2010PropOp41
 70
     1
102
RTVSPost2010Prop42
 90
       50
102
RTVSPost2010PropOp42
 70
     1
102
RTVSPost2010Prop43
 90
        3
102
RTVSPost2010PropOp43
 70
     1
102
RTVSPost2010Prop44ColorIndex
 90
        5
102
RTVSPost2010Prop44ColorRGB
 90
      255
102
RTVSPost2010PropOp44
 70
     1
102
RTVSPost2010Prop45
280
     0
102
RTVSPost2010PropOp45
 70
     1
102
RTVSPost2010Prop46
 90
       50
102
RTVSPost2010PropOp46
 70
     1
102
RTVSPost2010Prop47
 90
       50
102
RTVSPost2010PropOp47
 70
     1
102
RTVSPost2010Prop48
 90
       50
102
RTVSPost2010PropOp48
 70
     1
102
RTVSPost2010Prop49
280
     0
102
RTVSPost2010PropOp49
 70
     1
102
RTVSPost2010Prop50
 90
       50
102
RTVSPost2010PropOp50
 70
     1
102
RTVSPost2010Prop51ColorIndex
 90
      256
102
RTVSPost2010Prop51ColorRGB
 90
-16777216
102
RTVSPost2010PropOp51
 70
     0
102
RTVSPost2010Prop52
140
1.0
102
RTVSPost2010PropOp52
 70
     0
102
RTVSPost2010Prop53
 90
        2
102
RTVSPost2010PropOp53
 70
     1
102
RTVSPost2010Prop54
  1
strokes_ogs.tif
102
RTVSPost2010PropOp54
 70
     1
102
RTVSPost2010Prop55
280
     0
102
RTVSPost2010PropOp55
 70
     1
102
RTVSPost2010Prop56
140
1.0
102
RTVSPost2010PropOp56
 70
     1
102
RTVSPost2010Prop57
140
1.0
102
RTVSPost2010PropOp57
 70
     1
102
RTVSPropertyOp0
 70
     1
102
RTVSPropertyOp1
 70
     1
102
RTVSPropertyOp2
 70
     1
102
RTVSPropertyOp3
 70
     1
102
RTVSPropertyOp4
 70
     1
102
RTVSPropertyOp5
 70
     1
102
RTVSPropertyOp6
 70
     1
102
RTVSPropertyOp7
 70
     1
102
RTVSPropertyOp8
 70
     1
102
RTVSPropertyOp9
 70
     1
102
RTVSPropertyOp10
 70
     1
102
RTVSPropertyOp11
 70
     1
102
RTVSPropertyOp12
 70
     1
102
RTVSPropertyOp13
 70
     1
102
RTVSPropertyOp14
 70
     1
102
RTVSPropertyOp15
 70
     1
102
RTVSPropertyOp16
 70
     1
102
RTVSPropertyOp17
 70
     1
102
RTVSPropertyOp18
 70
     1
102
RTVSPropertyOp19
 70
     1
102
RTVSPropertyOp20
 70
     1
102
RTVSPropertyOp21
 70
     1
102
RTVSPropertyOp22
 70
     1
102
RTVSPropertyOp23
 70
     1
102
RTVSPropertyOp24
 70
     1
102
RTVSPropertyOp25
 70
     1
102
RTVSPropertyOp26
 70
     1
102
RTVSPropertyOp27
 70
     1
102
RTVSPropertyOp28
 70
     1
102
RTVSPropertyOp29
 70
     1
102
RTVSPropertyOp30
 70
     1
102
RTVSPropertyOp31
 70
     1
102
RTVSPropertyOp32
 70
     1
102
RTVSPropertyOp33
 70
     1
102
RTVSPropertyOp34
 70
     1
102
RTVSPropertyOp35
 70
     1
102
RTVSPropertyOp36
 70
     1
102
RTVSPropertyOp37
 70
     1
102
RTVSPropertyOp38
 70
     1
102
RTVSPropertyOp39
 70
     1
102
RTVSPropertyOp40
 70
     1
102
RTVSPropertyOp41
 70
     1
102
RTVSPropertyOp42
 70
     1
102
RTVSPropertyOp43
 70
     1
102
RTVSPropertyOp44
 70
     1
102
RTVSPropertyOp45
 70
     1
102
RTVSPropertyOp46
 70
     1
102
RTVSPropertyOp47
 70
     1
102
RTVSPropertyOp48
 70
     1
102
RTVSPropertyOp49
 70
     1
102
RTVSPropertyOp50
 70
     1
102
RTVSPropertyOp51
 70
     0
102
RTVSPropertyOp52
 70
     0
102
RTVSPropertyOp53
 70
     1
102
RTVSPropertyOp54
 70
     1
102
RTVSPropertyOp55
 70
     1
102
RTVSPropertyOp56
 70
     1
102
RTVSPropertyOp57
 70
     1
102
RTVSPropertyOp58
 70
     1
102
RTVSPropertyOp59
 70
     1
102
RTVSPropertyOp60
 70
     1
102
RTVSPropertyOp61
 70
     1
102
RTVSPropertyOp62
 70
     1
  0
XRECORD
  5
57B5
102
{ACAD_REACTORS
330
57B4
102
}
330
57B4
100
AcDbXrecord
280
     1
102
RTVSPost2010Prop28
280
     0
102
RTVSPost2010PropOp28
 70
     1
102
RTVSPost2010Prop29
280
     1
102
RTVSPost2010PropOp29
 70
     1
102
RTVSPost2010Prop30
280
     1
102
RTVSPost2010PropOp30
 70
     1
102
RTVSPost2010Prop31
280
     0
102
RTVSPost2010PropOp31
 70
     1
102
RTVSPost2010Prop32
280
     0
102
RTVSPost2010PropOp32
 70
     1
102
RTVSPost2010Prop33
280
     0
102
RTVSPost2010PropOp33
 70
     1
102
RTVSPost2010Prop34
280
     0
102
RTVSPost2010PropOp34
 70
     1
102
RTVSPost2010Prop35
280
     0
102
RTVSPost2010PropOp35
 70
     1
102
RTVSPost2010Prop36
280
     0
102
RTVSPost2010PropOp36
 70
     1
102
RTVSPost2010Prop37
 90
       50
102
RTVSPost2010PropOp37
 70
     1
102
RTVSPost2010Prop38
140
0.0
102
RTVSPost2010PropOp38
 70
     1
102
RTVSPost2010Prop39
140
1.0
102
RTVSPost2010PropOp39
 70
     1
102
RTVSPost2010Prop40
 90
        0
102
RTVSPost2010PropOp40
 70
     1
102
RTVSPost2010Prop41ColorIndex
 90
       18
102
RTVSPost2010Prop41ColorRGB
 90
        0
102
RTVSPost2010PropOp41
 70
     1
102
RTVSPost2010Prop42
 90
       50
102
RTVSPost2010PropOp42
 70
     1
102
RTVSPost2010Prop43
 90
        3
102
RTVSPost2010PropOp43
 70
     1
102
RTVSPost2010Prop44ColorIndex
 90
        5
102
RTVSPost2010Prop44ColorRGB
 90
      255
102
RTVSPost2010PropOp44
 70
     1
102
RTVSPost2010Prop45
280
     0
102
RTVSPost2010PropOp45
 70
     1
102
RTVSPost2010Prop46
 90
       50
102
RTVSPost2010PropOp46
 70
     1
102
RTVSPost2010Prop47
 90
       50
102
RTVSPost2010PropOp47
 70
     1
102
RTVSPost2010Prop48
 90
       50
102
RTVSPost2010PropOp48
 70
     1
102
RTVSPost2010Prop49
280
     0
102
RTVSPost2010PropOp49
 70
     1
102
RTVSPost2010Prop50
 90
       50
102
RTVSPost2010PropOp50
 70
     1
102
RTVSPost2010Prop51ColorIndex
 90
      256
102
RTVSPost2010Prop51ColorRGB
 90
-16777216
102
RTVSPost2010PropOp51
 70
     0
102
RTVSPost2010Prop52
140
1.0
102
RTVSPost2010PropOp52
 70
     0
102
RTVSPost2010Prop53
 90
        2
102
RTVSPost2010PropOp53
 70
     1
102
RTVSPost2010Prop54
  1
strokes_ogs.tif
102
RTVSPost2010PropOp54
 70
     1
102
RTVSPost2010Prop55
280
     0
102
RTVSPost2010PropOp55
 70
     1
102
RTVSPost2010Prop56
140
1.0
102
RTVSPost2010PropOp56
 70
     1
102
RTVSPost2010Prop57
140
1.0
102
RTVSPost2010PropOp57
 70
     1
102
RTVSPropertyOp0
 70
     1
102
RTVSPropertyOp1
 70
     1
102
RTVSPropertyOp2
 70
     1
102
RTVSPropertyOp3
 70
     1
102
RTVSPropertyOp4
 70
     1
102
RTVSPropertyOp5
 70
     1
102
RTVSPropertyOp6
 70
     1
102
RTVSPropertyOp7
 70
     1
102
RTVSPropertyOp8
 70
     1
102
RTVSPropertyOp9
 70
     1
102
RTVSPropertyOp10
 70
     1
102
RTVSPropertyOp11
 70
     1
102
RTVSPropertyOp12
 70
     1
102
RTVSPropertyOp13
 70
     1
102
RTVSPropertyOp14
 70
     1
102
RTVSPropertyOp15
 70
     1
102
RTVSPropertyOp16
 70
     1
102
RTVSPropertyOp17
 70
     1
102
RTVSPropertyOp18
 70
     1
102
RTVSPropertyOp19
 70
     1
102
RTVSPropertyOp20
 70
     1
102
RTVSPropertyOp21
 70
     1
102
RTVSPropertyOp22
 70
     1
102
RTVSPropertyOp23
 70
     1
102
RTVSPropertyOp24
 70
     1
102
RTVSPropertyOp25
 70
     1
102
RTVSPropertyOp26
 70
     1
102
RTVSPropertyOp27
 70
     1
102
RTVSPropertyOp28
 70
     1
102
RTVSPropertyOp29
 70
     1
102
RTVSPropertyOp30
 70
     1
102
RTVSPropertyOp31
 70
     1
102
RTVSPropertyOp32
 70
     1
102
RTVSPropertyOp33
 70
     1
102
RTVSPropertyOp34
 70
     1
102
RTVSPropertyOp35
 70
     1
102
RTVSPropertyOp36
 70
     1
102
RTVSPropertyOp37
 70
     1
102
RTVSPropertyOp38
 70
     1
102
RTVSPropertyOp39
 70
     1
102
RTVSPropertyOp40
 70
     1
102
RTVSPropertyOp41
 70
     1
102
RTVSPropertyOp42
 70
     1
102
RTVSPropertyOp43
 70
     1
102
RTVSPropertyOp44
 70
     1
102
RTVSPropertyOp45
 70
     1
102
RTVSPropertyOp46
 70
     1
102
RTVSPropertyOp47
 70
     1
102
RTVSPropertyOp48
 70
     1
102
RTVSPropertyOp49
 70
     1
102
RTVSPropertyOp50
 70
     1
102
RTVSPropertyOp51
 70
     0
102
RTVSPropertyOp52
 70
     0
102
RTVSPropertyOp53
 70
     1
102
RTVSPropertyOp54
 70
     1
102
RTVSPropertyOp55
 70
     1
102
RTVSPropertyOp56
 70
     1
102
RTVSPropertyOp57
 70
     1
102
RTVSPropertyOp58
 70
     1
102
RTVSPropertyOp59
 70
     1
102
RTVSPropertyOp60
 70
     1
102
RTVSPropertyOp61
 70
     1
102
RTVSPropertyOp62
 70
     1
  0
XRECORD
  5
57B7
102
{ACAD_REACTORS
330
57B6
102
}
330
57B6
100
AcDbXrecord
280
     1
102
RTVSPost2010Prop28
280
     0
102
RTVSPost2010PropOp28
 70
     1
102
RTVSPost2010Prop29
280
     1
102
RTVSPost2010PropOp29
 70
     1
102
RTVSPost2010Prop30
280
     1
102
RTVSPost2010PropOp30
 70
     1
102
RTVSPost2010Prop31
280
     0
102
RTVSPost2010PropOp31
 70
     1
102
RTVSPost2010Prop32
280
     0
102
RTVSPost2010PropOp32
 70
     1
102
RTVSPost2010Prop33
280
     0
102
RTVSPost2010PropOp33
 70
     1
102
RTVSPost2010Prop34
280
     0
102
RTVSPost2010PropOp34
 70
     1
102
RTVSPost2010Prop35
280
     0
102
RTVSPost2010PropOp35
 70
     1
102
RTVSPost2010Prop36
280
     0
102
RTVSPost2010PropOp36
 70
     1
102
RTVSPost2010Prop37
 90
       50
102
RTVSPost2010PropOp37
 70
     1
102
RTVSPost2010Prop38
140
0.0
102
RTVSPost2010PropOp38
 70
     1
102
RTVSPost2010Prop39
140
1.0
102
RTVSPost2010PropOp39
 70
     1
102
RTVSPost2010Prop40
 90
        0
102
RTVSPost2010PropOp40
 70
     1
102
RTVSPost2010Prop41ColorIndex
 90
       18
102
RTVSPost2010Prop41ColorRGB
 90
        0
102
RTVSPost2010PropOp41
 70
     1
102
RTVSPost2010Prop42
 90
       50
102
RTVSPost2010PropOp42
 70
     1
102
RTVSPost2010Prop43
 90
        3
102
RTVSPost2010PropOp43
 70
     1
102
RTVSPost2010Prop44ColorIndex
 90
        5
102
RTVSPost2010Prop44ColorRGB
 90
      255
102
RTVSPost2010PropOp44
 70
     1
102
RTVSPost2010Prop45
280
     0
102
RTVSPost2010PropOp45
 70
     1
102
RTVSPost2010Prop46
 90
       50
102
RTVSPost2010PropOp46
 70
     1
102
RTVSPost2010Prop47
 90
       50
102
RTVSPost2010PropOp47
 70
     1
102
RTVSPost2010Prop48
 90
       50
102
RTVSPost2010PropOp48
 70
     1
102
RTVSPost2010Prop49
280
     0
102
RTVSPost2010PropOp49
 70
     1
102
RTVSPost2010Prop50
 90
       50
102
RTVSPost2010PropOp50
 70
     1
102
RTVSPost2010Prop51ColorIndex
 90
      256
102
RTVSPost2010Prop51ColorRGB
 90
-16777216
102
RTVSPost2010PropOp51
 70
     0
102
RTVSPost2010Prop52
140
1.0
102
RTVSPost2010PropOp52
 70
     0
102
RTVSPost2010Prop53
 90
        2
102
RTVSPost2010PropOp53
 70
     1
102
RTVSPost2010Prop54
  1
strokes_ogs.tif
102
RTVSPost2010PropOp54
 70
     1
102
RTVSPost2010Prop55
280
     0
102
RTVSPost2010PropOp55
 70
     1
102
RTVSPost2010Prop56
140
1.0
102
RTVSPost2010PropOp56
 70
     1
102
RTVSPost2010Prop57
140
1.0
102
RTVSPost2010PropOp57
 70
     1
102
RTVSPropertyOp0
 70
     1
102
RTVSPropertyOp1
 70
     1
102
RTVSPropertyOp2
 70
     1
102
RTVSPropertyOp3
 70
     1
102
RTVSPropertyOp4
 70
     1
102
RTVSPropertyOp5
 70
     1
102
RTVSPropertyOp6
 70
     1
102
RTVSPropertyOp7
 70
     1
102
RTVSPropertyOp8
 70
     1
102
RTVSPropertyOp9
 70
     1
102
RTVSPropertyOp10
 70
     1
102
RTVSPropertyOp11
 70
     1
102
RTVSPropertyOp12
 70
     1
102
RTVSPropertyOp13
 70
     1
102
RTVSPropertyOp14
 70
     1
102
RTVSPropertyOp15
 70
     1
102
RTVSPropertyOp16
 70
     1
102
RTVSPropertyOp17
 70
     1
102
RTVSPropertyOp18
 70
     1
102
RTVSPropertyOp19
 70
     1
102
RTVSPropertyOp20
 70
     1
102
RTVSPropertyOp21
 70
     1
102
RTVSPropertyOp22
 70
     1
102
RTVSPropertyOp23
 70
     1
102
RTVSPropertyOp24
 70
     1
102
RTVSPropertyOp25
 70
     1
102
RTVSPropertyOp26
 70
     1
102
RTVSPropertyOp27
 70
     1
102
RTVSPropertyOp28
 70
     1
102
RTVSPropertyOp29
 70
     1
102
RTVSPropertyOp30
 70
     1
102
RTVSPropertyOp31
 70
     1
102
RTVSPropertyOp32
 70
     1
102
RTVSPropertyOp33
 70
     1
102
RTVSPropertyOp34
 70
     1
102
RTVSPropertyOp35
 70
     1
102
RTVSPropertyOp36
 70
     1
102
RTVSPropertyOp37
 70
     1
102
RTVSPropertyOp38
 70
     1
102
RTVSPropertyOp39
 70
     1
102
RTVSPropertyOp40
 70
     1
102
RTVSPropertyOp41
 70
     1
102
RTVSPropertyOp42
 70
     1
102
RTVSPropertyOp43
 70
     1
102
RTVSPropertyOp44
 70
     1
102
RTVSPropertyOp45
 70
     1
102
RTVSPropertyOp46
 70
     1
102
RTVSPropertyOp47
 70
     1
102
RTVSPropertyOp48
 70
     1
102
RTVSPropertyOp49
 70
     1
102
RTVSPropertyOp50
 70
     1
102
RTVSPropertyOp51
 70
     0
102
RTVSPropertyOp52
 70
     0
102
RTVSPropertyOp53
 70
     1
102
RTVSPropertyOp54
 70
     1
102
RTVSPropertyOp55
 70
     1
102
RTVSPropertyOp56
 70
     1
102
RTVSPropertyOp57
 70
     1
102
RTVSPropertyOp58
 70
     1
102
RTVSPropertyOp59
 70
     1
102
RTVSPropertyOp60
 70
     1
102
RTVSPropertyOp61
 70
     1
102
RTVSPropertyOp62
 70
     1
  0
XRECORD
  5
57AD
102
{ACAD_REACTORS
330
57AC
102
}
330
57AC
100
AcDbXrecord
280
     1
102
RTVSPost2010Prop28
280
     0
102
RTVSPost2010PropOp28
 70
     1
102
RTVSPost2010Prop29
280
     1
102
RTVSPost2010PropOp29
 70
     1
102
RTVSPost2010Prop30
280
     1
102
RTVSPost2010PropOp30
 70
     1
102
RTVSPost2010Prop31
280
     0
102
RTVSPost2010PropOp31
 70
     1
102
RTVSPost2010Prop32
280
     0
102
RTVSPost2010PropOp32
 70
     1
102
RTVSPost2010Prop33
280
     0
102
RTVSPost2010PropOp33
 70
     1
102
RTVSPost2010Prop34
280
     0
102
RTVSPost2010PropOp34
 70
     1
102
RTVSPost2010Prop35
280
     0
102
RTVSPost2010PropOp35
 70
     1
102
RTVSPost2010Prop36
280
     0
102
RTVSPost2010PropOp36
 70
     1
102
RTVSPost2010Prop37
 90
       50
102
RTVSPost2010PropOp37
 70
     1
102
RTVSPost2010Prop38
140
0.0
102
RTVSPost2010PropOp38
 70
     1
102
RTVSPost2010Prop39
140
1.0
102
RTVSPost2010PropOp39
 70
     1
102
RTVSPost2010Prop40
 90
        0
102
RTVSPost2010PropOp40
 70
     1
102
RTVSPost2010Prop41ColorIndex
 90
       18
102
RTVSPost2010Prop41ColorRGB
 90
        0
102
RTVSPost2010PropOp41
 70
     1
102
RTVSPost2010Prop42
 90
       50
102
RTVSPost2010PropOp42
 70
     1
102
RTVSPost2010Prop43
 90
        3
102
RTVSPost2010PropOp43
 70
     1
102
RTVSPost2010Prop44ColorIndex
 90
        5
102
RTVSPost2010Prop44ColorRGB
 90
      255
102
RTVSPost2010PropOp44
 70
     1
102
RTVSPost2010Prop45
280
     0
102
RTVSPost2010PropOp45
 70
     1
102
RTVSPost2010Prop46
 90
       50
102
RTVSPost2010PropOp46
 70
     1
102
RTVSPost2010Prop47
 90
       50
102
RTVSPost2010PropOp47
 70
     1
102
RTVSPost2010Prop48
 90
       50
102
RTVSPost2010PropOp48
 70
     1
102
RTVSPost2010Prop49
280
     0
102
RTVSPost2010PropOp49
 70
     1
102
RTVSPost2010Prop50
 90
       50
102
RTVSPost2010PropOp50
 70
     1
102
RTVSPost2010Prop51ColorIndex
 90
      256
102
RTVSPost2010Prop51ColorRGB
 90
-16777216
102
RTVSPost2010PropOp51
 70
     0
102
RTVSPost2010Prop52
140
1.0
102
RTVSPost2010PropOp52
 70
     0
102
RTVSPost2010Prop53
 90
        2
102
RTVSPost2010PropOp53
 70
     1
102
RTVSPost2010Prop54
  1
strokes_ogs.tif
102
RTVSPost2010PropOp54
 70
     1
102
RTVSPost2010Prop55
280
     0
102
RTVSPost2010PropOp55
 70
     1
102
RTVSPost2010Prop56
140
1.0
102
RTVSPost2010PropOp56
 70
     1
102
RTVSPost2010Prop57
140
1.0
102
RTVSPost2010PropOp57
 70
     1
102
RTVSPropertyOp0
 70
     1
102
RTVSPropertyOp1
 70
     1
102
RTVSPropertyOp2
 70
     1
102
RTVSPropertyOp3
 70
     1
102
RTVSPropertyOp4
 70
     1
102
RTVSPropertyOp5
 70
     1
102
RTVSPropertyOp6
 70
     1
102
RTVSPropertyOp7
 70
     1
102
RTVSPropertyOp8
 70
     1
102
RTVSPropertyOp9
 70
     1
102
RTVSPropertyOp10
 70
     1
102
RTVSPropertyOp11
 70
     1
102
RTVSPropertyOp12
 70
     1
102
RTVSPropertyOp13
 70
     1
102
RTVSPropertyOp14
 70
     1
102
RTVSPropertyOp15
 70
     1
102
RTVSPropertyOp16
 70
     1
102
RTVSPropertyOp17
 70
     1
102
RTVSPropertyOp18
 70
     1
102
RTVSPropertyOp19
 70
     1
102
RTVSPropertyOp20
 70
     1
102
RTVSPropertyOp21
 70
     1
102
RTVSPropertyOp22
 70
     1
102
RTVSPropertyOp23
 70
     1
102
RTVSPropertyOp24
 70
     1
102
RTVSPropertyOp25
 70
     1
102
RTVSPropertyOp26
 70
     1
102
RTVSPropertyOp27
 70
     1
102
RTVSPropertyOp28
 70
     1
102
RTVSPropertyOp29
 70
     1
102
RTVSPropertyOp30
 70
     1
102
RTVSPropertyOp31
 70
     1
102
RTVSPropertyOp32
 70
     1
102
RTVSPropertyOp33
 70
     1
102
RTVSPropertyOp34
 70
     1
102
RTVSPropertyOp35
 70
     1
102
RTVSPropertyOp36
 70
     1
102
RTVSPropertyOp37
 70
     1
102
RTVSPropertyOp38
 70
     1
102
RTVSPropertyOp39
 70
     1
102
RTVSPropertyOp40
 70
     1
102
RTVSPropertyOp41
 70
     1
102
RTVSPropertyOp42
 70
     1
102
RTVSPropertyOp43
 70
     1
102
RTVSPropertyOp44
 70
     1
102
RTVSPropertyOp45
 70
     1
102
RTVSPropertyOp46
 70
     1
102
RTVSPropertyOp47
 70
     1
102
RTVSPropertyOp48
 70
     1
102
RTVSPropertyOp49
 70
     1
102
RTVSPropertyOp50
 70
     1
102
RTVSPropertyOp51
 70
     0
102
RTVSPropertyOp52
 70
     0
102
RTVSPropertyOp53
 70
     1
102
RTVSPropertyOp54
 70
     1
102
RTVSPropertyOp55
 70
     1
102
RTVSPropertyOp56
 70
     1
102
RTVSPropertyOp57
 70
     1
102
RTVSPropertyOp58
 70
     1
102
RTVSPropertyOp59
 70
     1
102
RTVSPropertyOp60
 70
     1
102
RTVSPropertyOp61
 70
     1
102
RTVSPropertyOp62
 70
     1
  0
XRECORD
  5
57A1
102
{ACAD_REACTORS
330
57A0
102
}
330
57A0
100
AcDbXrecord
280
     1
102
RTVSPost2010Prop28
280
     0
102
RTVSPost2010PropOp28
 70
     1
102
RTVSPost2010Prop29
280
     1
102
RTVSPost2010PropOp29
 70
     1
102
RTVSPost2010Prop30
280
     1
102
RTVSPost2010PropOp30
 70
     1
102
RTVSPost2010Prop31
280
     0
102
RTVSPost2010PropOp31
 70
     1
102
RTVSPost2010Prop32
280
     0
102
RTVSPost2010PropOp32
 70
     1
102
RTVSPost2010Prop33
280
     0
102
RTVSPost2010PropOp33
 70
     1
102
RTVSPost2010Prop34
280
     0
102
RTVSPost2010PropOp34
 70
     1
102
RTVSPost2010Prop35
280
     0
102
RTVSPost2010PropOp35
 70
     1
102
RTVSPost2010Prop36
280
     0
102
RTVSPost2010PropOp36
 70
     1
102
RTVSPost2010Prop37
 90
       50
102
RTVSPost2010PropOp37
 70
     1
102
RTVSPost2010Prop38
140
0.0
102
RTVSPost2010PropOp38
 70
     1
102
RTVSPost2010Prop39
140
1.0
102
RTVSPost2010PropOp39
 70
     1
102
RTVSPost2010Prop40
 90
        0
102
RTVSPost2010PropOp40
 70
     1
102
RTVSPost2010Prop41ColorIndex
 90
       18
102
RTVSPost2010Prop41ColorRGB
 90
        0
102
RTVSPost2010PropOp41
 70
     1
102
RTVSPost2010Prop42
 90
       50
102
RTVSPost2010PropOp42
 70
     1
102
RTVSPost2010Prop43
 90
        3
102
RTVSPost2010PropOp43
 70
     1
102
RTVSPost2010Prop44ColorIndex
 90
        5
102
RTVSPost2010Prop44ColorRGB
 90
      255
102
RTVSPost2010PropOp44
 70
     1
102
RTVSPost2010Prop45
280
     0
102
RTVSPost2010PropOp45
 70
     1
102
RTVSPost2010Prop46
 90
       50
102
RTVSPost2010PropOp46
 70
     1
102
RTVSPost2010Prop47
 90
       50
102
RTVSPost2010PropOp47
 70
     1
102
RTVSPost2010Prop48
 90
       50
102
RTVSPost2010PropOp48
 70
     1
102
RTVSPost2010Prop49
280
     0
102
RTVSPost2010PropOp49
 70
     1
102
RTVSPost2010Prop50
 90
       50
102
RTVSPost2010PropOp50
 70
     1
102
RTVSPost2010Prop51ColorIndex
 90
      256
102
RTVSPost2010Prop51ColorRGB
 90
-16777216
102
RTVSPost2010PropOp51
 70
     0
102
RTVSPost2010Prop52
140
1.0
102
RTVSPost2010PropOp52
 70
     0
102
RTVSPost2010Prop53
 90
        2
102
RTVSPost2010PropOp53
 70
     1
102
RTVSPost2010Prop54
  1
strokes_ogs.tif
102
RTVSPost2010PropOp54
 70
     1
102
RTVSPost2010Prop55
280
     0
102
RTVSPost2010PropOp55
 70
     1
102
RTVSPost2010Prop56
140
1.0
102
RTVSPost2010PropOp56
 70
     1
102
RTVSPost2010Prop57
140
1.0
102
RTVSPost2010PropOp57
 70
     1
102
RTVSPropertyOp0
 70
     1
102
RTVSPropertyOp1
 70
     1
102
RTVSPropertyOp2
 70
     1
102
RTVSPropertyOp3
 70
     1
102
RTVSPropertyOp4
 70
     1
102
RTVSPropertyOp5
 70
     1
102
RTVSPropertyOp6
 70
     1
102
RTVSPropertyOp7
 70
     1
102
RTVSPropertyOp8
 70
     1
102
RTVSPropertyOp9
 70
     1
102
RTVSPropertyOp10
 70
     1
102
RTVSPropertyOp11
 70
     1
102
RTVSPropertyOp12
 70
     1
102
RTVSPropertyOp13
 70
     1
102
RTVSPropertyOp14
 70
     1
102
RTVSPropertyOp15
 70
     1
102
RTVSPropertyOp16
 70
     1
102
RTVSPropertyOp17
 70
     1
102
RTVSPropertyOp18
 70
     1
102
RTVSPropertyOp19
 70
     1
102
RTVSPropertyOp20
 70
     1
102
RTVSPropertyOp21
 70
     1
102
RTVSPropertyOp22
 70
     1
102
RTVSPropertyOp23
 70
     1
102
RTVSPropertyOp24
 70
     1
102
RTVSPropertyOp25
 70
     1
102
RTVSPropertyOp26
 70
     1
102
RTVSPropertyOp27
 70
     1
102
RTVSPropertyOp28
 70
     1
102
RTVSPropertyOp29
 70
     1
102
RTVSPropertyOp30
 70
     1
102
RTVSPropertyOp31
 70
     1
102
RTVSPropertyOp32
 70
     1
102
RTVSPropertyOp33
 70
     1
102
RTVSPropertyOp34
 70
     1
102
RTVSPropertyOp35
 70
     1
102
RTVSPropertyOp36
 70
     1
102
RTVSPropertyOp37
 70
     1
102
RTVSPropertyOp38
 70
     1
102
RTVSPropertyOp39
 70
     1
102
RTVSPropertyOp40
 70
     1
102
RTVSPropertyOp41
 70
     1
102
RTVSPropertyOp42
 70
     1
102
RTVSPropertyOp43
 70
     1
102
RTVSPropertyOp44
 70
     1
102
RTVSPropertyOp45
 70
     1
102
RTVSPropertyOp46
 70
     1
102
RTVSPropertyOp47
 70
     1
102
RTVSPropertyOp48
 70
     1
102
RTVSPropertyOp49
 70
     1
102
RTVSPropertyOp50
 70
     1
102
RTVSPropertyOp51
 70
     0
102
RTVSPropertyOp52
 70
     0
102
RTVSPropertyOp53
 70
     1
102
RTVSPropertyOp54
 70
     1
102
RTVSPropertyOp55
 70
     1
102
RTVSPropertyOp56
 70
     1
102
RTVSPropertyOp57
 70
     1
102
RTVSPropertyOp58
 70
     1
102
RTVSPropertyOp59
 70
     1
102
RTVSPropertyOp60
 70
     1
102
RTVSPropertyOp61
 70
     1
102
RTVSPropertyOp62
 70
     1
  0
XRECORD
  5
57B9
102
{ACAD_REACTORS
330
57B8
102
}
330
57B8
100
AcDbXrecord
280
     1
102
RTVSPost2010Prop28
280
     0
102
RTVSPost2010PropOp28
 70
     1
102
RTVSPost2010Prop29
280
     1
102
RTVSPost2010PropOp29
 70
     1
102
RTVSPost2010Prop30
280
     1
102
RTVSPost2010PropOp30
 70
     1
102
RTVSPost2010Prop31
280
     0
102
RTVSPost2010PropOp31
 70
     1
102
RTVSPost2010Prop32
280
     0
102
RTVSPost2010PropOp32
 70
     1
102
RTVSPost2010Prop33
280
     0
102
RTVSPost2010PropOp33
 70
     1
102
RTVSPost2010Prop34
280
     0
102
RTVSPost2010PropOp34
 70
     1
102
RTVSPost2010Prop35
280
     0
102
RTVSPost2010PropOp35
 70
     1
102
RTVSPost2010Prop36
280
     0
102
RTVSPost2010PropOp36
 70
     1
102
RTVSPost2010Prop37
 90
       50
102
RTVSPost2010PropOp37
 70
     1
102
RTVSPost2010Prop38
140
0.0
102
RTVSPost2010PropOp38
 70
     1
102
RTVSPost2010Prop39
140
1.0
102
RTVSPost2010PropOp39
 70
     1
102
RTVSPost2010Prop40
 90
        0
102
RTVSPost2010PropOp40
 70
     1
102
RTVSPost2010Prop41ColorIndex
 90
       18
102
RTVSPost2010Prop41ColorRGB
 90
        0
102
RTVSPost2010PropOp41
 70
     1
102
RTVSPost2010Prop42
 90
       50
102
RTVSPost2010PropOp42
 70
     1
102
RTVSPost2010Prop43
 90
        3
102
RTVSPost2010PropOp43
 70
     1
102
RTVSPost2010Prop44ColorIndex
 90
        5
102
RTVSPost2010Prop44ColorRGB
 90
      255
102
RTVSPost2010PropOp44
 70
     1
102
RTVSPost2010Prop45
280
     0
102
RTVSPost2010PropOp45
 70
     1
102
RTVSPost2010Prop46
 90
       50
102
RTVSPost2010PropOp46
 70
     1
102
RTVSPost2010Prop47
 90
       50
102
RTVSPost2010PropOp47
 70
     1
102
RTVSPost2010Prop48
 90
       50
102
RTVSPost2010PropOp48
 70
     1
102
RTVSPost2010Prop49
280
     0
102
RTVSPost2010PropOp49
 70
     1
102
RTVSPost2010Prop50
 90
       50
102
RTVSPost2010PropOp50
 70
     1
102
RTVSPost2010Prop51ColorIndex
 90
      256
102
RTVSPost2010Prop51ColorRGB
 90
-16777216
102
RTVSPost2010PropOp51
 70
     0
102
RTVSPost2010Prop52
140
1.0
102
RTVSPost2010PropOp52
 70
     0
102
RTVSPost2010Prop53
 90
        2
102
RTVSPost2010PropOp53
 70
     1
102
RTVSPost2010Prop54
  1
strokes_ogs.tif
102
RTVSPost2010PropOp54
 70
     1
102
RTVSPost2010Prop55
280
     0
102
RTVSPost2010PropOp55
 70
     1
102
RTVSPost2010Prop56
140
1.0
102
RTVSPost2010PropOp56
 70
     1
102
RTVSPost2010Prop57
140
1.0
102
RTVSPost2010PropOp57
 70
     1
102
RTVSPropertyOp0
 70
     1
102
RTVSPropertyOp1
 70
     1
102
RTVSPropertyOp2
 70
     1
102
RTVSPropertyOp3
 70
     1
102
RTVSPropertyOp4
 70
     1
102
RTVSPropertyOp5
 70
     1
102
RTVSPropertyOp6
 70
     1
102
RTVSPropertyOp7
 70
     1
102
RTVSPropertyOp8
 70
     1
102
RTVSPropertyOp9
 70
     1
102
RTVSPropertyOp10
 70
     1
102
RTVSPropertyOp11
 70
     1
102
RTVSPropertyOp12
 70
     1
102
RTVSPropertyOp13
 70
     1
102
RTVSPropertyOp14
 70
     1
102
RTVSPropertyOp15
 70
     1
102
RTVSPropertyOp16
 70
     1
102
RTVSPropertyOp17
 70
     1
102
RTVSPropertyOp18
 70
     1
102
RTVSPropertyOp19
 70
     1
102
RTVSPropertyOp20
 70
     1
102
RTVSPropertyOp21
 70
     1
102
RTVSPropertyOp22
 70
     1
102
RTVSPropertyOp23
 70
     1
102
RTVSPropertyOp24
 70
     1
102
RTVSPropertyOp25
 70
     1
102
RTVSPropertyOp26
 70
     1
102
RTVSPropertyOp27
 70
     1
102
RTVSPropertyOp28
 70
     1
102
RTVSPropertyOp29
 70
     1
102
RTVSPropertyOp30
 70
     1
102
RTVSPropertyOp31
 70
     1
102
RTVSPropertyOp32
 70
     1
102
RTVSPropertyOp33
 70
     1
102
RTVSPropertyOp34
 70
     1
102
RTVSPropertyOp35
 70
     1
102
RTVSPropertyOp36
 70
     1
102
RTVSPropertyOp37
 70
     1
102
RTVSPropertyOp38
 70
     1
102
RTVSPropertyOp39
 70
     1
102
RTVSPropertyOp40
 70
     1
102
RTVSPropertyOp41
 70
     1
102
RTVSPropertyOp42
 70
     1
102
RTVSPropertyOp43
 70
     1
102
RTVSPropertyOp44
 70
     1
102
RTVSPropertyOp45
 70
     1
102
RTVSPropertyOp46
 70
     1
102
RTVSPropertyOp47
 70
     1
102
RTVSPropertyOp48
 70
     1
102
RTVSPropertyOp49
 70
     1
102
RTVSPropertyOp50
 70
     1
102
RTVSPropertyOp51
 70
     0
102
RTVSPropertyOp52
 70
     0
102
RTVSPropertyOp53
 70
     1
102
RTVSPropertyOp54
 70
     1
102
RTVSPropertyOp55
 70
     1
102
RTVSPropertyOp56
 70
     1
102
RTVSPropertyOp57
 70
     1
102
RTVSPropertyOp58
 70
     1
102
RTVSPropertyOp59
 70
     1
102
RTVSPropertyOp60
 70
     1
102
RTVSPropertyOp61
 70
     1
102
RTVSPropertyOp62
 70
     1
  0
ENDSEC
  0
EOF
