  0
SECTION
  2
HEADER
  9
$ACADVER
  1
AC1021
  9
$ACADMAINTVER
 70
    50
  9
$DWGCODEPAGE
  3
ANSI_932
  9
$LASTSAVEDBY
  1
mino-t
  9
$INSBASE
 10
0.0
 20
0.0
 30
0.0
  9
$EXTMIN
 10
80.0
 20
-0.000000000000453
 30
0.0
  9
$EXTMAX
 10
1880.0
 20
2808.0
 30
0.0
  9
$LIMMIN
 10
0.0
 20
0.0
  9
$LIMMAX
 10
2100.0
 20
2970.0
  9
$ORTHOMODE
 70
     1
  9
$REGENMODE
 70
     1
  9
$FILLMODE
 70
     1
  9
$QTEXTMODE
 70
     0
  9
$MIRRTEXT
 70
     0
  9
$LTSCALE
 40
2.5
  9
$ATTMODE
 70
     1
  9
$TEXTSIZE
 40
2.5
  9
$TRACEWID
 40
0.05
  9
$TEXTSTYLE
  7
STANDARD
  9
$CLAYER
  8
0
  9
$CELTYPE
  6
ByLayer
  9
$CECOLOR
 62
   256
  9
$CELTSCALE
 40
1.0
  9
$DISPSILH
 70
     0
  9
$DIMSCALE
 40
10.0
  9
$DIMASZ
 40
2.0
  9
$DIMEXO
 40
1.0
  9
$DIMDLI
 40
7.0
  9
$DIMRND
 40
0.0
  9
$DIMDLE
 40
0.0
  9
$DIMEXE
 40
1.8
  9
$DIMTP
 40
0.0
  9
$DIMTM
 40
0.000000001
  9
$DIMTXT
 40
3.0
  9
$DIMCEN
 40
1.0
  9
$DIMTSZ
 40
0.0
  9
$DIMTOL
 70
     0
  9
$DIMLIM
 70
     0
  9
$DIMTIH
 70
     0
  9
$DIMTOH
 70
     0
  9
$DIMSE1
 70
     0
  9
$DIMSE2
 70
     0
  9
$DIMTAD
 70
     3
  9
$DIMZIN
 70
     9
  9
$DIMBLK
  1
OPEN30
  9
$DIMASO
 70
     1
  9
$DIMSHO
 70
     1
  9
$DIMPOST
  1

  9
$DIMAPOST
  1
"
  9
$DIMALT
 70
     0
  9
$DIMALTD
 70
     2
  9
$DIMALTF
 40
0.0393701
  9
$DIMLFAC
 40
1.0
  9
$DIMTOFL
 70
     1
  9
$DIMTVP
 40
0.0
  9
$DIMTIX
 70
     0
  9
$DIMSOXD
 70
     0
  9
$DIMSAH
 70
     0
  9
$DIMBLK1
  1

  9
$DIMBLK2
  1

  9
$DIMSTYLE
  2
AM_JIS
  9
$DIMCLRD
 70
   256
  9
$DIMCLRE
 70
   256
  9
$DIMCLRT
 70
     4
  9
$DIMTFAC
 40
0.71
  9
$DIMGAP
 40
1.5
  9
$DIMJUST
 70
     0
  9
$DIMSD1
 70
     0
  9
$DIMSD2
 70
     0
  9
$DIMTOLJ
 70
     1
  9
$DIMTZIN
 70
     0
  9
$DIMALTZ
 70
     0
  9
$DIMALTTZ
 70
     0
  9
$DIMUPT
 70
     0
  9
$DIMDEC
 70
     4
  9
$DIMTDEC
 70
     4
  9
$DIMALTU
 70
     2
  9
$DIMALTTD
 70
     2
  9
$DIMTXSTY
  7
STANDARD
  9
$DIMAUNIT
 70
     0
  9
$DIMADEC
 70
     0
  9
$DIMALTRND
 40
0.0
  9
$DIMAZIN
 70
     0
  9
$DIMDSEP
 70
    46
  9
$DIMATFIT
 70
     3
  9
$DIMFRAC
 70
     0
  9
$DIMLDRBLK
  1
OPEN30
  9
$DIMLUNIT
 70
     2
  9
$DIMLWD
 70
    -2
  9
$DIMLWE
 70
    -2
  9
$DIMTMOVE
 70
     0
  9
$DIMFXL
 40
1.0
  9
$DIMFXLON
 70
     0
  9
$DIMJOGANG
 40
0.7853981633974483
  9
$DIMTFILL
 70
     0
  9
$DIMTFILLCLR
 70
     0
  9
$DIMARCSYM
 70
     0
  9
$DIMLTYPE
  6

  9
$DIMLTEX1
  6

  9
$DIMLTEX2
  6

  9
$LUNITS
 70
     2
  9
$LUPREC
 70
     2
  9
$SKETCHINC
 40
0.1
  9
$FILLETRAD
 40
25.0
  9
$AUNITS
 70
     0
  9
$AUPREC
 70
     2
  9
$MENU
  1
amecex
  9
$ELEVATION
 40
0.0
  9
$PELEVATION
 40
0.0
  9
$THICKNESS
 40
0.0
  9
$LIMCHECK
 70
     0
  9
$CHAMFERA
 40
25.0
  9
$CHAMFERB
 40
25.0
  9
$CHAMFERC
 40
0.0
  9
$CHAMFERD
 40
0.0
  9
$SKPOLY
 70
     0
  9
$TDCREATE
 40
2452793.377199074
  9
$TDUCREATE
 40
2452793.002199074
  9
$TDUPDATE
 40
2459529.723159722
  9
$TDUUPDATE
 40
2459529.348159722
  9
$TDINDWG
 40
0.4250771528
  9
$TDUSRTIMER
 40
0.4250771528
  9
$USRTIMER
 70
     1
  9
$ANGBASE
 50
0.0
  9
$ANGDIR
 70
     0
  9
$PDMODE
 70
     0
  9
$PDSIZE
 40
0.0
  9
$PLINEWID
 40
0.0
  9
$SPLFRAME
 70
     0
  9
$SPLINETYPE
 70
     6
  9
$SPLINESEGS
 70
     8
  9
$HANDSEED
  5
6D67
  9
$SURFTAB1
 70
     6
  9
$SURFTAB2
 70
     6
  9
$SURFTYPE
 70
     6
  9
$SURFU
 70
     6
  9
$SURFV
 70
     6
  9
$UCSBASE
  2

  9
$UCSNAME
  2

  9
$UCSORG
 10
0.0
 20
0.0
 30
0.0
  9
$UCSXDIR
 10
1.0
 20
0.0
 30
0.0
  9
$UCSYDIR
 10
0.0
 20
1.0
 30
0.0
  9
$UCSORTHOREF
  2

  9
$UCSORTHOVIEW
 70
     0
  9
$UCSORGTOP
 10
0.0
 20
0.0
 30
0.0
  9
$UCSORGBOTTOM
 10
0.0
 20
0.0
 30
0.0
  9
$UCSORGLEFT
 10
0.0
 20
0.0
 30
0.0
  9
$UCSORGRIGHT
 10
0.0
 20
0.0
 30
0.0
  9
$UCSORGFRONT
 10
0.0
 20
0.0
 30
0.0
  9
$UCSORGBACK
 10
0.0
 20
0.0
 30
0.0
  9
$PUCSBASE
  2

  9
$PUCSNAME
  2

  9
$PUCSORG
 10
0.0
 20
0.0
 30
0.0
  9
$PUCSXDIR
 10
1.0
 20
0.0
 30
0.0
  9
$PUCSYDIR
 10
0.0
 20
1.0
 30
0.0
  9
$PUCSORTHOREF
  2

  9
$PUCSORTHOVIEW
 70
     0
  9
$PUCSORGTOP
 10
0.0
 20
0.0
 30
0.0
  9
$PUCSORGBOTTOM
 10
0.0
 20
0.0
 30
0.0
  9
$PUCSORGLEFT
 10
0.0
 20
0.0
 30
0.0
  9
$PUCSORGRIGHT
 10
0.0
 20
0.0
 30
0.0
  9
$PUCSORGFRONT
 10
0.0
 20
0.0
 30
0.0
  9
$PUCSORGBACK
 10
0.0
 20
0.0
 30
0.0
  9
$USERI1
 70
     0
  9
$USERI2
 70
     0
  9
$USERI3
 70
     0
  9
$USERI4
 70
     0
  9
$USERI5
 70
     0
  9
$USERR1
 40
30.0
  9
$USERR2
 40
0.0
  9
$USERR3
 40
0.0
  9
$USERR4
 40
0.0
  9
$USERR5
 40
0.0
  9
$WORLDVIEW
 70
     1
  9
$SHADEDGE
 70
     3
  9
$SHADEDIF
 70
    70
  9
$TILEMODE
 70
     1
  9
$MAXACTVP
 70
    16
  9
$PINSBASE
 10
0.0
 20
0.0
 30
0.0
  9
$PLIMCHECK
 70
     0
  9
$PEXTMIN
 10
1.000000000000000E+20
 20
1.000000000000000E+20
 30
1.000000000000000E+20
  9
$PEXTMAX
 10
-1.000000000000000E+20
 20
-1.000000000000000E+20
 30
-1.000000000000000E+20
  9
$PLIMMIN
 10
0.0
 20
0.0
  9
$PLIMMAX
 10
12.0
 20
9.0
  9
$UNITMODE
 70
     0
  9
$VISRETAIN
 70
     0
  9
$PLINEGEN
 70
     0
  9
$PSLTSCALE
 70
     0
  9
$TREEDEPTH
 70
  3020
  9
$CMLSTYLE
  2
Standard
  9
$CMLJUST
 70
     0
  9
$CMLSCALE
 40
1.0
  9
$PROXYGRAPHICS
 70
     1
  9
$MEASUREMENT
 70
     0
  9
$CELWEIGHT
370
    -1
  9
$ENDCAPS
280
     0
  9
$JOINSTYLE
280
     0
  9
$LWDISPLAY
290
     0
  9
$INSUNITS
 70
     0
  9
$HYPERLINKBASE
  1

  9
$STYLESHEET
  1

  9
$XEDIT
290
     1
  9
$CEPSNTYPE
380
     0
  9
$PSTYLEMODE
290
     1
  9
$FINGERPRINTGUID
  2
{0011983B-57B2-4342-B068-21DA28BF7030}
  9
$VERSIONGUID
  2
{1DAD3499-32DC-E649-8F82-E5DFACF6BB57}
  9
$EXTNAMES
290
     1
  9
$PSVPSCALE
 40
0.0
  9
$OLESTARTUP
290
     0
  9
$SORTENTS
280
   127
  9
$INDEXCTL
280
     0
  9
$HIDETEXT
280
     0
  9
$XCLIPFRAME
290
     0
  9
$HALOGAP
280
     0
  9
$OBSCOLOR
 70
   257
  9
$OBSLTYPE
280
     0
  9
$INTERSECTIONDISPLAY
280
     0
  9
$INTERSECTIONCOLOR
 70
   257
  9
$DIMASSOC
280
     1
  9
$PROJECTNAME
  1

  9
$CAMERADISPLAY
290
     0
  9
$LENSLENGTH
 40
50.0
  9
$CAMERAHEIGHT
 40
0.0
  9
$STEPSPERSEC
 40
2.0
  9
$STEPSIZE
 40
6.0
  9
$3DDWFPREC
 40
2.0
  9
$PSOLWIDTH
 40
0.25
  9
$PSOLHEIGHT
 40
4.0
  9
$LOFTANG1
 40
1.570796326794896
  9
$LOFTANG2
 40
1.570796326794896
  9
$LOFTMAG1
 40
0.0
  9
$LOFTMAG2
 40
0.0
  9
$LOFTPARAM
 70
     7
  9
$LOFTNORMALS
280
     1
  9
$LATITUDE
 40
37.795
  9
$LONGITUDE
 40
-122.394
  9
$NORTHDIRECTION
 40
0.0
  9
$TIMEZONE
 70
 -8000
  9
$LIGHTGLYPHDISPLAY
280
     1
  9
$TILEMODELIGHTSYNCH
280
     1
  9
$CMATERIAL
347
6A86
  9
$SOLIDHIST
280
     0
  9
$SHOWHIST
280
     1
  9
$DWFFRAME
280
     2
  9
$DGNFRAME
280
     0
  9
$REALWORLDSCALE
290
     1
  9
$INTERFERECOLOR
 62
     1
  9
$INTERFEREOBJVS
345
6AA8
  9
$INTERFEREVPVS
346
6AA5
  9
$CSHADOW
280
     0
  9
$SHADOWPLANELOCATION
 40
0.0
  0
ENDSEC
  0
SECTION
  2
CLASSES
  0
CLASS
  1
ACDBDICTIONARYWDFLT
  2
AcDbDictionaryWithDefault
  3
ObjectDBX Classes
 90
        0
 91
        1
280
     0
281
     0
  0
CLASS
  1
MATERIAL
  2
AcDbMaterial
  3
ObjectDBX Classes
 90
     1153
 91
        3
280
     0
281
     0
  0
CLASS
  1
VISUALSTYLE
  2
AcDbVisualStyle
  3
ObjectDBX Classes
 90
     4095
 91
       24
280
     0
281
     0
  0
CLASS
  1
SCALE
  2
AcDbScale
  3
ObjectDBX Classes
 90
     1153
 91
       17
280
     0
281
     0
  0
CLASS
  1
TABLESTYLE
  2
AcDbTableStyle
  3
ObjectDBX Classes
 90
     4095
 91
        1
280
     0
281
     0
  0
CLASS
  1
MLEADERSTYLE
  2
AcDbMLeaderStyle
  3
ACDB_MLEADERSTYLE_CLASS
 90
     4095
 91
        1
280
     0
281
     0
  0
CLASS
  1
ACDBSECTIONVIEWSTYLE
  2
AcDbSectionViewStyle
  3
ObjectDBX Classes
 90
     1025
 91
        2
280
     0
281
     0
  0
CLASS
  1
ACDBDETAILVIEWSTYLE
  2
AcDbDetailViewStyle
  3
ObjectDBX Classes
 90
     1025
 91
        2
280
     0
281
     0
  0
CLASS
  1
AMGSETTINGSOBJ
  2
AmgSettingsObj
  3
"AcadM|Product Description: AutoCAD Mechanical|Company: Autodesk, Inc."
 90
     1024
 91
        2
280
     0
281
     0
  0
CLASS
  1
ACME_DOCUMENT
  2
AcMeDbDoc
  3
AcMeServices
 90
     1024
 91
        1
280
     0
281
     0
  0
CLASS
  1
ACMESCOPE
  2
AcMeScope
  3
AcMeServices
 90
     1024
 91
        1
280
     0
281
     0
  0
CLASS
  1
ACMECOMMANDHISTORY
  2
AcMeCommandHistory
  3
AcMeServices
 90
     1024
 91
        1
280
     0
281
     0
  0
CLASS
  1
ACIMSYSVARMAN
  2
AcImSysVarManager
  3
AcMeServices
 90
     1024
 91
        3
280
     0
281
     0
  0
CLASS
  1
ACIMINTSYSVAR
  2
AcImIntSysVar
  3
AcMeServices
 90
     1024
 91
        3
280
     0
281
     0
  0
CLASS
  1
ACMESTATEMGR
  2
AcMeStateMgr
  3
AcMeServices
 90
     1024
 91
        1
280
     0
281
     0
  0
CLASS
  1
ACDBENTITYCACHE
  2
AcMeEntityCache
  3
AcMeServices
 90
     1024
 91
        1
280
     0
281
     0
  0
CLASS
  1
ACGREFMASTER
  2
AcGrefMaster
  3
AcAttribServices
 90
     1024
 91
        1
280
     0
281
     0
  0
CLASS
  1
ACME_DATABASE
  2
AcMeDbDatabase
  3
AcMeServices
 90
     1024
 91
        1
280
     0
281
     0
  0
CLASS
  1
ACRFINSADJUSTERMGR
  2
AcRfInsAdjusterMgr
  3
AcMeServices
 90
     1024
 91
        1
280
     0
281
     0
  0
CLASS
  1
ACGREFACADMASTER
  2
AcGrefacadMaster
  3
AcGrefServices
 90
     1024
 91
        1
280
     0
281
     0
  0
CLASS
  1
AMIMASTER
  2
AmiMaster
  3
AmiServices
 90
     1024
 91
        1
280
     0
281
     0
  0
CLASS
  1
AMDTMENUSTATEMGR
  2
AmdtMenuStateMgr
  3
McadcomServices
 90
     1024
 91
        1
280
     0
281
     0
  0
CLASS
  1
AMDTMCOMMENUSTATE
  2
AmdtMcomMenuState
  3
McadcomServices
 90
     1024
 91
        1
280
     0
281
     0
  0
CLASS
  1
MAPIAMMOUDLE
  2
MApiAmModule
  3
MApiAmServices
 90
     1024
 91
        1
280
     0
281
     0
  0
CLASS
  1
ACIMSTRSYSVAR
  2
AcImStrSysVar
  3
AcMeServices
 90
     1024
 91
        5
280
     0
281
     0
  0
CLASS
  1
AMDTAMMENUSTATE
  2
AmdtAmMenuState
  3
DesignerAssemblies_arx
 90
     1024
 91
        1
280
     0
281
     0
  0
CLASS
  1
ACAMPROJECT
  2
AcAmProject
  3
DesignerAssemblies
 90
     1024
 91
        1
280
     0
281
     0
  0
CLASS
  1
ACAMGRCOMPDEF
  2
AcAmGrCompDef
  3
DesignerAssemblies
 90
     1024
 91
        1
280
     0
281
     0
  0
CLASS
  1
ACAMCOMPDEF
  2
AcAmCompDef
  3
DesignerAssemblies
 90
     1024
 91
        1
280
     0
281
     0
  0
CLASS
  1
ACAMCOMPDEFMGR
  2
AcAmCompDefMgr
  3
DesignerAssemblies
 90
     1024
 91
        1
280
     0
281
     0
  0
CLASS
  1
AMCONTEXTMGR
  2
AcAmContextMgr
  3
DesignerAssemblies
 90
     1024
 91
        1
280
     0
281
     0
  0
CLASS
  1
ACAMCONTEXTMODELER
  2
AcAmContextModeler
  3
DesignerAssemblies
 90
     1024
 91
        1
280
     0
281
     0
  0
CLASS
  1
ACMDATADICTIONARY
  2
AcmDataDictionary
  3
"AcmSymBB|Product Description: AutoCAD Mechanical|Company: Autodesk, Inc."
 90
     1024
 91
        1
280
     0
281
     0
  0
CLASS
  1
ACAMGRCOMPDEFSET
  2
AcAmGrCompDefSet
  3
DesignerAssemblies
 90
     1024
 91
        1
280
     0
281
     0
  0
CLASS
  1
AMDTBROWSERDBTAB
  2
AmdtBrowserDbTab
  3
McadcomServices
 90
     1024
 91
        1
280
     0
281
     0
  0
CLASS
  1
CBROWSERAPPOBJECT
  2
CBrowserAppObject
  3
McadcomServices
 90
     1024
 91
        2
280
     0
281
     0
  0
CLASS
  1
DM_PLACEHOLDER
  2
AcDmSelsetPlaceholder
  3
McadcomServices
 90
     1024
 91
        1
280
     0
281
     0
  0
CLASS
  1
ACMSTANDARDANSI
  2
AcmStandardANSI
  3
"Amdt_StdImp|Product Description: AutoCAD Mechanical|Company: Autodesk, Inc."
 90
     1024
 91
        1
280
     0
281
     0
  0
CLASS
  1
ACMSURFSTANDARDANSI
  2
AcmSurfTextStdANSI
  3
"Amdt_StdImp|Product Description: AutoCAD Mechanical|Company: Autodesk, Inc."
 90
     1024
 91
        1
280
     0
281
     0
  0
CLASS
  1
ACMFCFSTANDARDANSI
  2
AcmFCFStdANSI
  3
"Amdt_StdImp|Product Description: AutoCAD Mechanical|Company: Autodesk, Inc."
 90
     1024
 91
        1
280
     0
281
     0
  0
CLASS
  1
ACMWELDSTANDARDANSI
  2
AcmWeldingStdANSI
  3
"Amdt_StdImp|Product Description: AutoCAD Mechanical|Company: Autodesk, Inc."
 90
     1024
 91
        1
280
     0
281
     0
  0
CLASS
  1
ACMIDSTANDARDANSI
  2
AcmIdStdANSI
  3
"Amdt_StdImp|Product Description: AutoCAD Mechanical|Company: Autodesk, Inc."
 90
     1024
 91
        1
280
     0
281
     0
  0
CLASS
  1
ACMDATUMSTANDARDANSI
  2
AcmDatumStdANSI
  3
"Amdt_StdImp|Product Description: AutoCAD Mechanical|Company: Autodesk, Inc."
 90
     1024
 91
        1
280
     0
281
     0
  0
CLASS
  1
ACMBOMSTANDARDANSI
  2
AcmBOMStdANSI
  3
"Amdt_StdImp|Product Description: AutoCAD Mechanical|Company: Autodesk, Inc."
 90
     1024
 91
        1
280
     0
281
     0
  0
CLASS
  1
ACMDETAILSTANDARDANSI
  2
AmdtDetailSymStdANSI
  3
"Amdt_StdImp|Product Description: AutoCAD Mechanical|Company: Autodesk, Inc."
 90
     1024
 91
        1
280
     0
281
     0
  0
CLASS
  1
ACMSECTIONSTANDARDANSI
  2
AmdtSectionSymStdANSI
  3
"Amdt_StdImp|Product Description: AutoCAD Mechanical|Company: Autodesk, Inc."
 90
     1024
 91
        1
280
     0
281
     0
  0
CLASS
  1
ACMCENTERLINESTANDARDANSI
  2
AmdtCenterLineStdANSI
  3
"Amdt_StdImp|Product Description: AutoCAD Mechanical|Company: Autodesk, Inc."
 90
     1024
 91
        1
280
     0
281
     0
  0
CLASS
  1
ACMTHREADLINESTANDARDANSI
  2
AmdtThreadLineStdANSI
  3
"Amdt_StdImp|Product Description: AutoCAD Mechanical|Company: Autodesk, Inc."
 90
     1024
 91
        1
280
     0
281
     0
  0
CLASS
  1
ACMNOTESTANDARDANSI
  2
AmdtNoteStdANSI
  3
"Amdt_StdImp|Product Description: AutoCAD Mechanical|Company: Autodesk, Inc."
 90
     1024
 91
        1
280
     0
281
     0
  0
CLASS
  1
ACMTAPERSTANDARDANSI
  2
AcmTaperStdANSI
  3
"Amdt_StdImp|Product Description: AutoCAD Mechanical|Company: Autodesk, Inc."
 90
     1024
 91
        1
280
     0
281
     0
  0
CLASS
  1
ACMANOOTATIONVIEWSTANDARDANSI
  2
AmdtAnViewStdANSI
  3
"Amdt_StdImp|Product Description: AutoCAD Mechanical|Company: Autodesk, Inc."
 90
     1024
 91
        1
280
     0
281
     0
  0
CLASS
  1
ACAMGLAYSTD
  2
AcAmgLayStd
  3
"AmgLay|Product Description: AutoCAD Mechanical|Company: Autodesk, Inc."
 90
     1024
 91
        1
280
     0
281
     0
  0
CLASS
  1
ACAMGTITLESTD
  2
AcAmgTitleStd
  3
"AmgTitle|Product Description: AutoCAD Mechanical|Company: Autodesk, Inc."
 90
     1024
 91
        1
280
     0
281
     0
  0
CLASS
  1
ACAMGDIMSTD
  2
AcAmgDimStd
  3
"AmgDim|Product Description: AutoCAD Mechanical|Company: Autodesk, Inc."
 90
     1024
 91
        1
280
     0
281
     0
  0
CLASS
  1
ACAMGHOLECHARTSTDANSI
  2
AcAmgHoleChartStdANSI
  3
"AmgDim" "Product Description: AutoCAD Mechanical|Company: Autodesk, Inc."
 90
     1024
 91
        1
280
     0
281
     0
  0
CLASS
  1
AMGOBJPROPCFG
  2
AmgObjPropCfg
  3
"AmgLay|Product Description: AutoCAD Mechanical|Company: Autodesk, Inc."
 90
     1024
 91
        1
280
     0
281
     0
  0
CLASS
  1
ACMSECTIONSTANDARDCUSTOM
  2
AmdtSectionSymStdCustom
  3
"Amdt_StdImp|Product Description: AutoCAD Mechanical|Company: Autodesk, Inc."
 90
     1024
 91
        1
280
     0
281
     0
  0
CLASS
  1
ACMDETAILTANDARDCUSTOM
  2
AmdtDetailSymStdCustom
  3
"Amdt_StdImp|Product Description: AutoCAD Mechanical|Company: Autodesk, Inc."
 90
     1024
 91
        1
280
     0
281
     0
  0
CLASS
  1
FIELD
  2
AcDbField
  3
ObjectDBX Classes
 90
     1152
 91
        8
280
     0
281
     0
  0
CLASS
  1
FIELDLIST
  2
AcDbFieldList
  3
ObjectDBX Classes
 90
     1152
 91
        1
280
     0
281
     0
  0
CLASS
  1
AMDTNOTETEMPLATEDB
  2
AmdtNoteTemplateDB
  3
"AcmSymBB" "Product Description: AutoCAD Mechanical|Company: Autodesk, Inc."
 90
     1024
 91
        7
280
     0
281
     0
  0
CLASS
  1
ACAMGFILTERDAT
  2
AcAmgFilterDat
  3
"AcadM|Product Description: AutoCAD Mechanical|Company: Autodesk, Inc."
 90
     1024
 91
        6
280
     0
281
     0
  0
CLASS
  1
SORTENTSTABLE
  2
AcDbSortentsTable
  3
ObjectDBX Classes
 90
        0
 91
        1
280
     0
281
     0
  0
CLASS
  1
DICTIONARYVAR
  2
AcDbDictionaryVar
  3
ObjectDBX Classes
 90
        0
 91
       40
280
     0
281
     0
  0
CLASS
  1
CELLSTYLEMAP
  2
AcDbCellStyleMap
  3
ObjectDBX Classes
 90
     1152
 91
        4
280
     0
281
     0
  0
ENDSEC
  0
SECTION
  2
TABLES
  0
TABLE
  2
VPORT
  5
6A7D
330
0
100
AcDbSymbolTable
 70
     1
  0
VPORT
  5
6AE8
330
6A7D
100
AcDbSymbolTableRecord
100
AcDbViewportTableRecord
  2
*ACTIVE
 70
     0
 10
0.0
 20
0.0
 11
1.0
 21
1.0
 12
1810.831506975278
 22
1393.146621422046
 13
0.0
 23
0.0
 14
25.0
 24
25.0
 15
100.0
 25
100.0
 16
0.0
 26
0.0
 36
1.0
 17
0.0
 27
0.0
 37
0.0
 40
3129.790619304216
 41
1.887694145758661
 42
50.0
 43
0.0
 44
0.0
 50
0.0
 51
0.0
 71
     0
 72
   100
 73
     1
 74
     1
 75
     0
 76
     0
 77
     0
 78
     0
281
     0
 65
     0
110
0.0
120
0.0
130
0.0
111
1.0
121
0.0
131
0.0
112
0.0
122
1.0
132
0.0
 79
     0
146
0.0
348
6AA4
 60
     3
 61
     5
292
     1
282
     0
141
0.0
142
0.0
 63
   250
421
  3355443
1001
ACAD_NAV_VCDISPLAY
1070
     3
  0
ENDTAB
  0
TABLE
  2
LTYPE
  5
6A7A
330
0
100
AcDbSymbolTable
 70
    17
  0
LTYPE
  5
6ACF
330
6A7A
100
AcDbSymbolTableRecord
100
AcDbLinetypeTableRecord
  2
ByBlock
 70
     0
  3

 72
    65
 73
     0
 40
0.0
  0
LTYPE
  5
6AD0
330
6A7A
100
AcDbSymbolTableRecord
100
AcDbLinetypeTableRecord
  2
ByLayer
 70
     0
  3

 72
    65
 73
     0
 40
0.0
  0
LTYPE
  5
6AD1
330
6A7A
100
AcDbSymbolTableRecord
100
AcDbLinetypeTableRecord
  2
CONTINUOUS
 70
     0
  3
実線
 72
    65
 73
     0
 40
0.0
  0
LTYPE
  5
6AE9
330
6A7A
100
AcDbSymbolTableRecord
100
AcDbLinetypeTableRecord
  2
HIDDEN
 70
     0
  3
Hidden __ __ __ __ __ __ __ __ __ __ __ __ __ _
 72
    65
 73
     2
 40
9.524999999999998
 49
6.349999999999997
 74
     0
 49
-3.174999999999998
 74
     0
  0
LTYPE
  5
6AEA
330
6A7A
100
AcDbSymbolTableRecord
100
AcDbLinetypeTableRecord
  2
CENTER
 70
     0
  3
Center ____ _ ____ _ ____ _ ____ _ ____ _ ____
 72
    65
 73
     4
 40
50.8
 49
31.75
 74
     0
 49
-6.349999999999997
 74
     0
 49
6.349999999999997
 74
     0
 49
-6.349999999999997
 74
     0
  0
LTYPE
  5
6AEB
330
6A7A
100
AcDbSymbolTableRecord
100
AcDbLinetypeTableRecord
  2
PHANTOM2
 70
     0
  3
Phantom (.5x) ___ _ _ ___ _ _ ___ _ _ ___ _ _
 72
    65
 73
     6
 40
31.75
 49
15.875
 74
     0
 49
-3.174999999999998
 74
     0
 49
3.174999999999998
 74
     0
 49
-3.174999999999998
 74
     0
 49
3.174999999999998
 74
     0
 49
-3.174999999999998
 74
     0
  0
LTYPE
  5
6AEC
330
6A7A
100
AcDbSymbolTableRecord
100
AcDbLinetypeTableRecord
  2
AMCONSTR
 70
     0
  3
_______________________
 72
    65
 73
     2
 40
9999.0
 49
9999.0
 74
     0
 49
0.0
 74
     0
  0
LTYPE
  5
6AED
330
6A7A
100
AcDbSymbolTableRecord
100
AcDbLinetypeTableRecord
  2
HIDDEN2
 70
     0
  3
_ _ _ _ _ _ _ _ _ _ _ _ _ _ _ _ _ _ _ _ _ _ _ _
 72
    65
 73
     2
 40
0.1875
 49
0.125
 74
     0
 49
-0.0625
 74
     0
  0
LTYPE
  5
6AEE
330
6A7A
100
AcDbSymbolTableRecord
100
AcDbLinetypeTableRecord
  2
CENTER2
 70
     0
  3
Center (.5x) ___ _ ___ _ ___ _ ___ _ ___ _ ___
 72
    65
 73
     4
 40
1.125
 49
0.75
 74
     0
 49
-0.125
 74
     0
 49
0.125
 74
     0
 49
-0.125
 74
     0
  0
LTYPE
  5
6AEF
330
6A7A
100
AcDbSymbolTableRecord
100
AcDbLinetypeTableRecord
  2
AMZIGZAG2
 70
     0
  3
/\/-/\/-/\/-/\/-/\/-/\/
 72
    65
 73
     2
 40
0.4401
 49
0.0001
 74
     0
 49
-0.4400000000000003
 74
     0
  0
LTYPE
  5
6AF0
330
6A7A
100
AcDbSymbolTableRecord
100
AcDbLinetypeTableRecord
  2
ACANSTGB
 70
     0
  3
__ . . __ . .
 72
    65
 73
     6
 40
0.35433070866
 49
0.15748031496
 74
     0
 49
-0.03937007874
 74
     0
 49
0.03937007874
 74
     0
 49
-0.03937007874
 74
     0
 49
0.03937007874
 74
     0
 49
-0.03937007874
 74
     0
  0
LTYPE
  5
6AF1
330
6A7A
100
AcDbSymbolTableRecord
100
AcDbLinetypeTableRecord
  2
ACANSTGL
 70
     0
  3
_ _ _ _ _
 72
    65
 73
     2
 40
0.11811023622
 49
0.07874015748
 74
     0
 49
-0.03937007874
 74
     0
  0
ENDTAB
  0
TABLE
  2
LAYER
  5
6A77
102
{ACAD_XDICTIONARY
360
6D17
102
}
330
0
100
AcDbSymbolTable
 70
     4
  0
LAYER
  5
6AC9
102
{ACAD_XDICTIONARY
360
6D10
102
}
330
6A77
100
AcDbSymbolTableRecord
100
AcDbLayerTableRecord
  2
0
 70
     0
 62
     7
  6
CONTINUOUS
370
    -3
390
6A84
347
6A96
  0
LAYER
  5
6AF2
102
{ACAD_XDICTIONARY
360
6D12
102
}
330
6A77
100
AcDbSymbolTableRecord
100
AcDbLayerTableRecord
  2
HOJYO
 70
     0
 62
     6
  6
CONTINUOUS
370
    -3
390
6A84
347
6A96
  0
LAYER
  5
6AF3
330
6A77
100
AcDbSymbolTableRecord
100
AcDbLayerTableRecord
  2
DEFPOINTS
 70
     0
 62
     7
  6
CONTINUOUS
290
     0
370
    -3
390
6A84
347
6A96
  0
ENDTAB
  0
TABLE
  2
STYLE
  5
6A78
330
0
100
AcDbSymbolTable
 70
     6
  0
STYLE
  5
6ACA
330
6A78
100
AcDbSymbolTableRecord
100
AcDbTextStyleTableRecord
  2
STANDARD
 70
     0
 40
0.0
 41
1.0
 50
0.0
 71
     0
 42
2.5
  3
txt.shx
  4
extfont2.shx
  0
STYLE
  5
6AF4
330
6A78
100
AcDbSymbolTableRecord
100
AcDbTextStyleTableRecord
  2
MONO-SET
 70
     0
 40
0.0
 41
1.0
 50
0.0
 71
     0
 42
0.2
  3
MONOTXT
  4
BIGFONT
  0
STYLE
  5
6AF5
330
6A78
100
AcDbSymbolTableRecord
100
AcDbTextStyleTableRecord
  2
ACANSGDT
 70
     0
 40
0.0
 41
1.0
 50
0.0
 71
     0
 42
60.0
  3
amgdt.shx
  4

  0
ENDTAB
  0
TABLE
  2
VIEW
  5
6A7B
330
0
100
AcDbSymbolTable
 70
     1
  0
ENDTAB
  0
TABLE
  2
UCS
  5
6A7C
330
0
100
AcDbSymbolTable
 70
     0
  0
ENDTAB
  0
TABLE
  2
APPID
  5
6A7E
330
0
100
AcDbSymbolTable
 70
    53
  0
APPID
  5
6ACB
330
6A7E
100
AcDbSymbolTableRecord
100
AcDbRegAppTableRecord
  2
ACAD
 70
     0
  0
APPID
  5
6AD2
330
6A7E
100
AcDbSymbolTableRecord
100
AcDbRegAppTableRecord
  2
ACADANNOTATIVE
 70
     0
  0
APPID
  5
6AF6
330
6A7E
100
AcDbSymbolTableRecord
100
AcDbRegAppTableRecord
  2
ACE-LT__COPYRIGHT_TRIALSOFT-JPN
 70
     0
  0
APPID
  5
6AF7
330
6A7E
100
AcDbSymbolTableRecord
100
AcDbRegAppTableRecord
  2
MCAD_NO_VIS
 70
     0
  0
APPID
  5
6AF8
330
6A7E
100
AcDbSymbolTableRecord
100
AcDbRegAppTableRecord
  2
ACAD_TEMP_GRAPHIC
 70
     0
  0
APPID
  5
6AF9
330
6A7E
100
AcDbSymbolTableRecord
100
AcDbRegAppTableRecord
  2
ACATTRIBSERVICES
 70
     0
  0
APPID
  5
6AFA
330
6A7E
100
AcDbSymbolTableRecord
100
AcDbRegAppTableRecord
  2
DESIGNERASSEMBLIES
 70
     0
  0
APPID
  5
6AFB
330
6A7E
100
AcDbSymbolTableRecord
100
AcDbRegAppTableRecord
  2
ACAD_DSTYLE_DIMJAG
 70
     0
  0
APPID
  5
6AFC
330
6A7E
100
AcDbSymbolTableRecord
100
AcDbRegAppTableRecord
  2
ACAD_DSTYLE_DIMBREAK
 70
     0
  0
APPID
  5
6AFD
330
6A7E
100
AcDbSymbolTableRecord
100
AcDbRegAppTableRecord
  2
ACAD_NAV_VCDISPLAY
 70
     0
  0
APPID
  5
6AFE
330
6A7E
100
AcDbSymbolTableRecord
100
AcDbRegAppTableRecord
  2
ACAD_DSTYLE_DIMTALN
 70
     0
  0
APPID
  5
6AFF
330
6A7E
100
AcDbSymbolTableRecord
100
AcDbRegAppTableRecord
  2
ACAD_PSEXT
 70
     0
  0
APPID
  5
6B00
330
6A7E
100
AcDbSymbolTableRecord
100
AcDbRegAppTableRecord
  2
ACAD_EXEMPT_FROM_CAD_STANDARDS
 70
     0
  0
APPID
  5
6B01
330
6A7E
100
AcDbSymbolTableRecord
100
AcDbRegAppTableRecord
  2
ACAECLAYERSTANDARD
 70
     0
  0
APPID
  5
6B02
330
6A7E
100
AcDbSymbolTableRecord
100
AcDbRegAppTableRecord
  2
GENIUS_GENDTOL_13
 70
     0
  0
APPID
  5
6B03
330
6A7E
100
AcDbSymbolTableRecord
100
AcDbRegAppTableRecord
  2
ACAD_DSTYLE_DIMINSPECT
 70
     0
  0
APPID
  5
6B04
330
6A7E
100
AcDbSymbolTableRecord
100
AcDbRegAppTableRecord
  2
ACADANNOMONITORALERTICONDI
 70
     0
  0
APPID
  5
6B05
330
6A7E
100
AcDbSymbolTableRecord
100
AcDbRegAppTableRecord
  2
GENIUS_GENREC_14
 70
     0
  0
APPID
  5
6B06
330
6A7E
100
AcDbSymbolTableRecord
100
AcDbRegAppTableRecord
  2
GENIUS_GENOBJ-N-REC_13
 70
     0
  0
APPID
  5
6B07
330
6A7E
100
AcDbSymbolTableRecord
100
AcDbRegAppTableRecord
  2
GENIUS_GENODEF_13
 70
     0
  0
APPID
  5
6B08
330
6A7E
100
AcDbSymbolTableRecord
100
AcDbRegAppTableRecord
  2
ACADANNOPO
 70
     0
  0
APPID
  5
6B09
330
6A7E
100
AcDbSymbolTableRecord
100
AcDbRegAppTableRecord
  2
ACAD_MLEADERVER
 70
     0
  0
APPID
  5
6B0A
330
6A7E
100
AcDbSymbolTableRecord
100
AcDbRegAppTableRecord
  2
AD_DRAW
 70
     0
  0
APPID
  5
6B0B
330
6A7E
100
AcDbSymbolTableRecord
100
AcDbRegAppTableRecord
  2
ACADM_DIM_EDIT
 70
     0
  0
APPID
  5
6B0C
330
6A7E
100
AcDbSymbolTableRecord
100
AcDbRegAppTableRecord
  2
AMDT_DM_ADJ
 70
     0
  0
APPID
  5
6B0D
330
6A7E
100
AcDbSymbolTableRecord
100
AcDbRegAppTableRecord
  2
ACAD_DSTYLE_DIMARC_LENGTH_
 70
     0
  0
APPID
  5
6B0E
330
6A7E
100
AcDbSymbolTableRecord
100
AcDbRegAppTableRecord
  2
ACAD_DSTYLE_DIMJOGGED_JOGA
 70
     0
  0
APPID
  5
6B0F
330
6A7E
100
AcDbSymbolTableRecord
100
AcDbRegAppTableRecord
  2
GEVID1362489746
 70
     0
  0
APPID
  5
6B10
330
6A7E
100
AcDbSymbolTableRecord
100
AcDbRegAppTableRecord
  2
GENIUS_GENBH_13
 70
     0
  0
APPID
  5
6B11
330
6A7E
100
AcDbSymbolTableRecord
100
AcDbRegAppTableRecord
  2
GENIUS_GENOENT_13
 70
     0
  0
APPID
  5
6B12
330
6A7E
100
AcDbSymbolTableRecord
100
AcDbRegAppTableRecord
  2
GENIUS_GENOLIS_13
 70
     0
  0
APPID
  5
6B13
330
6A7E
100
AcDbSymbolTableRecord
100
AcDbRegAppTableRecord
  2
GENIUS_GENOBJ-NBEHI-BHF_13
 70
     0
  0
APPID
  5
6B14
330
6A7E
100
AcDbSymbolTableRecord
100
AcDbRegAppTableRecord
  2
GENIUS_GENOREF_13
 70
     0
  0
APPID
  5
6B15
330
6A7E
100
AcDbSymbolTableRecord
100
AcDbRegAppTableRecord
  2
GENIUS_GENOBJ-NBEHI-BHB_13
 70
     0
  0
APPID
  5
6B16
330
6A7E
100
AcDbSymbolTableRecord
100
AcDbRegAppTableRecord
  2
GEVID1362489747
 70
     0
  0
APPID
  5
6B17
330
6A7E
100
AcDbSymbolTableRecord
100
AcDbRegAppTableRecord
  2
ACM_PP_DIM_CONSTRAINT
 70
     0
  0
APPID
  5
6B18
330
6A7E
100
AcDbSymbolTableRecord
100
AcDbRegAppTableRecord
  2
ACM_PP_ASSOCVAR
 70
     0
  0
APPID
  5
6B19
330
6A7E
100
AcDbSymbolTableRecord
100
AcDbRegAppTableRecord
  2
ACM_PP_DIM_ACTION_MACRO
 70
     0
  0
APPID
  5
6B1A
330
6A7E
100
AcDbSymbolTableRecord
100
AcDbRegAppTableRecord
  2
ACM_PP_DIM_CONSTRAINT_DRAG_GRIP
 70
     0
  0
APPID
  5
6B1B
330
6A7E
100
AcDbSymbolTableRecord
100
AcDbRegAppTableRecord
  2
GEVID1362489748
 70
     0
  0
APPID
  5
6B1C
330
6A7E
100
AcDbSymbolTableRecord
100
AcDbRegAppTableRecord
  2
ACAUTHENVIRON
 70
     0
  0
APPID
  5
6B1D
330
6A7E
100
AcDbSymbolTableRecord
100
AcDbRegAppTableRecord
  2
ACDBDYNAMICBLOCKTRUENAME
 70
     0
  0
APPID
  5
6B1E
330
6A7E
100
AcDbSymbolTableRecord
100
AcDbRegAppTableRecord
  2
ACDBDYNAMICBLOCKGUID
 70
     0
  0
APPID
  5
6B1F
330
6A7E
100
AcDbSymbolTableRecord
100
AcDbRegAppTableRecord
  2
GENIUS_GENTRA_14
 70
     0
  0
APPID
  5
6B20
330
6A7E
100
AcDbSymbolTableRecord
100
AcDbRegAppTableRecord
  2
GENIUS_GENOBJ-N-LIB_13
 70
     0
  0
APPID
  5
6B21
330
6A7E
100
AcDbSymbolTableRecord
100
AcDbRegAppTableRecord
  2
GENIUS_GENOBJ-N-RSBK_13
 70
     0
  0
APPID
  5
6B22
330
6A7E
100
AcDbSymbolTableRecord
100
AcDbRegAppTableRecord
  2
GENIUS_GENSCALE_13
 70
     0
  0
APPID
  5
6B23
330
6A7E
100
AcDbSymbolTableRecord
100
AcDbRegAppTableRecord
  2
GENIUS_GENOBJ-N-TIT_13
 70
     0
  0
APPID
  5
6B24
330
6A7E
100
AcDbSymbolTableRecord
100
AcDbRegAppTableRecord
  2
GENIUS_GENTITLE_13
 70
     0
  0
APPID
  5
6B25
330
6A7E
100
AcDbSymbolTableRecord
100
AcDbRegAppTableRecord
  2
GENIUS_GENSCREG_15
 70
     0
  0
APPID
  5
6B26
330
6A7E
100
AcDbSymbolTableRecord
100
AcDbRegAppTableRecord
  2
GENIUS_GENOBJ-N-SDF_13
 70
     0
  0
APPID
  5
6B27
330
6A7E
100
AcDbSymbolTableRecord
100
AcDbRegAppTableRecord
  2
ACADANNOMONITORALERTICOND0
 70
     0
  0
APPID
  5
6BD5
330
6A7E
100
AcDbSymbolTableRecord
100
AcDbRegAppTableRecord
  2
AcadAnnoMonitorAlertIconDisabled
 70
     0
  0
ENDTAB
  0
TABLE
  2
DIMSTYLE
  5
6A7F
330
0
100
AcDbSymbolTable
 70
    11
100
AcDbDimStyleTable
 71
     1
340
6B28
  0
DIMSTYLE
105
6ACC
330
6A7F
100
AcDbSymbolTableRecord
100
AcDbDimStyleTableRecord
  2
STANDARD
 70
     0
271
     2
272
     2
279
     2
284
     9
285
     9
286
     9
340
6ACA
  0
DIMSTYLE
105
6B28
330
6A7F
100
AcDbSymbolTableRecord
100
AcDbDimStyleTableRecord
  2
AM_JIS
 70
     0
  4
"
 40
10.0
 41
2.0
 42
1.0
 43
7.0
 44
1.8
 48
0.000000001
 73
     0
 74
     0
 77
     3
 78
     9
140
3.0
141
1.0
143
0.0393701
146
0.71
147
1.5
172
     1
176
   256
177
   256
178
     4
271
     2
272
     2
279
     2
284
     9
285
     9
286
     9
340
6ACA
  0
DIMSTYLE
105
6B29
102
{ACAD_REACTORS
330
6B6C
102
}
330
6A7F
100
AcDbSymbolTableRecord
100
AcDbDimStyleTableRecord
  2
AM_ANSI
 70
     0
  4
mm
 40
20.0
 41
0.12
 42
0.05
 43
0.5
 44
0.1
 47
0.1
 48
0.1
 78
     7
140
0.12
141
0.0
146
0.71
147
0.06
176
   256
177
   256
178
     2
271
     2
272
     2
279
     2
284
     9
285
     9
286
     9
340
6ACA
  0
DIMSTYLE
105
6B2A
330
6A7F
100
AcDbSymbolTableRecord
100
AcDbDimStyleTableRecord
  2
AM_ANSI$3
 70
     0
  4
mm
 41
0.12
 42
0.05
 43
0.5
 44
0.1
 47
0.1
 48
0.1
 78
     7
140
0.12
141
0.0
146
0.71
147
0.06
176
   256
177
   256
178
     2
271
     2
272
     2
279
     2
284
     9
285
     9
286
     9
340
6ACA
  0
DIMSTYLE
105
6B2B
330
6A7F
100
AcDbSymbolTableRecord
100
AcDbDimStyleTableRecord
  2
AM_ANSI$4
 70
     0
  4
mm
 41
0.12
 42
0.05
 43
0.5
 44
0.1
 47
0.1
 48
0.1
 78
     7
140
0.12
141
0.0
146
0.71
147
0.06
176
   256
177
   256
178
     2
271
     2
272
     2
279
     2
284
     9
285
     9
286
     9
340
6ACA
  0
DIMSTYLE
105
6B2C
330
6A7F
100
AcDbSymbolTableRecord
100
AcDbDimStyleTableRecord
  2
AM_ANSI$7
 70
     0
  4
mm
 41
0.12
 42
0.05
 43
0.5
 44
0.1
 47
0.1
 48
0.1
 78
     7
140
0.12
141
0.0
146
0.71
147
0.06
176
   256
177
   256
178
     2
271
     2
272
     2
279
     2
284
     9
285
     9
286
     9
340
6ACA
  0
DIMSTYLE
105
6B2D
330
6A7F
100
AcDbSymbolTableRecord
100
AcDbDimStyleTableRecord
  2
AM_ANSI$SF
 70
     0
  4
mm
 41
0.12
 42
0.05
 43
0.5
 44
0.1
 47
0.1
 48
0.1
 75
     1
 76
     1
 78
     7
140
0.12
141
0.0
146
0.71
147
0.06
176
   256
177
   256
178
     2
271
     2
272
     2
279
     2
284
     9
285
     9
286
     9
340
6ACA
  0
DIMSTYLE
105
6B2E
330
6A7F
100
AcDbSymbolTableRecord
100
AcDbDimStyleTableRecord
  2
AM_ANSI$SH
 70
     0
  4
mm
 41
0.12
 42
0.05
 43
0.5
 44
0.1
 47
0.1
 48
0.1
 75
     1
 76
     1
 78
     7
140
0.12
141
0.0
146
0.71
147
0.06
173
     1
176
   256
177
   256
178
     2
271
     2
272
     2
279
     2
284
     9
285
     9
286
     9
340
6ACA
  0
DIMSTYLE
105
6B2F
330
6A7F
100
AcDbSymbolTableRecord
100
AcDbDimStyleTableRecord
  2
AM_ANSI$0
 70
     0
  4
mm
 41
0.12
 42
0.05
 43
0.5
 44
0.1
 47
0.1
 48
0.1
 78
     7
140
0.12
141
0.0
146
0.71
147
0.06
176
   256
177
   256
178
     2
271
     2
272
     2
279
     2
284
     9
285
     9
286
     9
340
6ACA
  0
ENDTAB
  0
TABLE
  2
BLOCK_RECORD
  5
6A76
330
0
100
AcDbSymbolTable
 70
     6
  0
BLOCK_RECORD
  5
6AE4
102
{ACAD_XDICTIONARY
360
6C0A
102
}
330
6A76
100
AcDbSymbolTableRecord
100
AcDbBlockTableRecord
  2
*Model_Space
340
6AE7
 70
     0
280
     1
281
     0
  0
BLOCK_RECORD
  5
6AE0
330
6A76
100
AcDbSymbolTableRecord
100
AcDbBlockTableRecord
  2
*Paper_Space
340
6AE3
 70
     0
280
     1
281
     0
  0
BLOCK_RECORD
  5
6B39
330
6A76
100
AcDbSymbolTableRecord
100
AcDbBlockTableRecord
  2
_OPEN30
340
0
 70
     0
280
     1
281
     0
  0
BLOCK_RECORD
  5
6B3B
330
6A76
100
AcDbSymbolTableRecord
100
AcDbBlockTableRecord
  2
_ACMFILLEDHALF
340
0
 70
     0
280
     1
281
     0
  0
ENDTAB
  0
ENDSEC
  0
SECTION
  2
BLOCKS
  0
BLOCK
  5
6AE5
330
6AE4
100
AcDbEntity
  8
0
100
AcDbBlockBegin
  2
*Model_Space
 70
     0
 10
0.0
 20
0.0
 30
0.0
  3
*Model_Space
  1

  0
ENDBLK
  5
6AE6
330
6AE4
100
AcDbEntity
  8
0
100
AcDbBlockEnd
  0
BLOCK
  5
6AE1
330
6AE0
100
AcDbEntity
 67
     1
  8
0
100
AcDbBlockBegin
  2
*Paper_Space
 70
     0
 10
0.0
 20
0.0
 30
0.0
  3
*Paper_Space
  1

  0
ENDBLK
  5
6AE2
330
6AE0
100
AcDbEntity
 67
     1
  8
0
100
AcDbBlockEnd
  0
BLOCK
  5
6B3A
330
6B39
100
AcDbEntity
  8
0
100
AcDbBlockBegin
  2
_OPEN30
 70
     0
 10
0.0
 20
0.0
 30
0.0
  3
_OPEN30
  1

  0
LINE
  5
3F4D
330
6B39
100
AcDbEntity
  8
0
  6
ByBlock
 62
     0
100
AcDbLine
 10
-1.0
 20
0.26794919
 30
0.0
 11
0.0
 21
0.0
 31
0.0
  0
LINE
  5
3F4E
330
6B39
100
AcDbEntity
  8
0
  6
ByBlock
 62
     0
100
AcDbLine
 10
0.0
 20
0.0
 30
0.0
 11
-1.0
 21
-0.26794919
 31
0.0
  0
LINE
  5
3F4F
330
6B39
100
AcDbEntity
  8
0
  6
ByBlock
 62
     0
100
AcDbLine
 10
0.0
 20
0.0
 30
0.0
 11
-1.0
 21
0.0
 31
0.0
  0
ENDBLK
  5
3F50
330
6B39
100
AcDbEntity
  8
0
100
AcDbBlockEnd
  0
BLOCK
  5
6B3C
330
6B3B
100
AcDbEntity
  8
0
100
AcDbBlockBegin
  2
_ACMFILLEDHALF
 70
     0
 10
0.0
 20
0.0
 30
0.0
  3
_ACMFILLEDHALF
  1

  0
TRACE
  5
63FA
330
6B3B
100
AcDbEntity
  8
HOJYO
 62
     0
100
AcDbTrace
 10
-0.8
 20
0.0
 30
0.0
 11
-1.0
 21
0.166666666
 31
0.0
 12
0.0
 22
0.0
 32
0.0
 13
0.0
 23
0.0
 33
0.0
  0
LINE
  5
63FB
330
6B3B
100
AcDbEntity
  8
HOJYO
 62
     0
100
AcDbLine
 10
-1.0
 20
0.0
 30
0.0
 11
-0.8
 21
0.0
 31
0.0
  0
ENDBLK
  5
63F9
330
6B3B
100
AcDbEntity
  8
0
100
AcDbBlockEnd
  0
ENDSEC
  0
SECTION
  2
ENTITIES
  0
LINE
  5
27DB
330
6AE4
100
AcDbEntity
  8
0
100
AcDbLine
 10
249.9999554235242
 20
1541.408383019648
 30
0.0
 11
249.9999554235242
 21
1484.425838270156
 31
0.0
  0
LINE
  5
27DE
330
6AE4
100
AcDbEntity
  8
0
100
AcDbLine
 10
1109.999963389884
 20
1090.512870370036
 30
0.0
 11
379.9999633898957
 21
1090.512960895928
 31
0.0
  0
LINE
  5
27DF
330
6AE4
100
AcDbEntity
  8
0
100
AcDbLine
 10
1139.999971497378
 20
1150.512862258812
 30
0.0
 11
349.9999714973923
 21
1150.512969007128
 31
0.0
  0
LINE
  5
27E0
330
6AE4
100
AcDbEntity
  8
0
100
AcDbLine
 10
1109.999963042052
 20
850.5129598593013
 30
0.0
 11
379.9999630521065
 21
850.5128712181273
 31
0.0
  0
LINE
  5
27E1
330
6AE4
100
AcDbEntity
  8
0
100
AcDbLine
 10
1139.999961120934
 20
790.5129579333815
 30
0.0
 11
349.9999630521064
 21
790.5128712229498
 31
0.0
  0
LINE
  5
27E8
330
6AE4
100
AcDbEntity
  8
0
100
AcDbLine
 10
523.3580011955393
 20
732.6934287799968
 30
0.0
 11
992.5352718943516
 21
732.6934287799968
 31
0.0
  0
TEXT
  5
2807
330
6AE4
100
AcDbEntity
  8
0
100
AcDbText
 10
90.0
 20
1267.848535362602
 30
0.0
 40
30.0
  1
＜基礎ボルト位置＞
100
AcDbText
  0
LINE
  5
2809
330
6AE4
100
AcDbEntity
  8
0
100
AcDbLine
 10
349.9999630521064
 20
790.5128712229498
 30
0.0
 11
349.9999714973923
 21
1150.512969007128
 31
0.0
  0
LINE
  5
280A
330
6AE4
100
AcDbEntity
  8
0
100
AcDbLine
 10
379.9999630521065
 20
850.5128712181273
 30
0.0
 11
379.9999633898957
 21
1090.512960895928
 31
0.0
  0
LINE
  5
280C
330
6AE4
100
AcDbEntity
  8
0
100
AcDbLine
 10
473.0641851205823
 20
820.5128825715187
 30
0.0
 11
516.9357409836305
 21
820.5128825715187
 31
0.0
  0
CIRCLE
  5
280D
330
6AE4
100
AcDbEntity
  8
0
100
AcDbCircle
 10
494.9999630521063
 20
820.5128825715187
 30
0.0
 40
10.0
  0
LINE
  5
280E
330
6AE4
100
AcDbEntity
  8
0
100
AcDbLine
 10
494.9999630521063
 20
842.4486605030422
 30
0.0
 11
494.9999630521063
 21
798.5771046399959
 31
0.0
  0
LINE
  5
280F
330
6AE4
100
AcDbEntity
  8
0
100
AcDbLine
 10
501.1457466672395
 20
801.4805589152768
 30
0.0
 11
523.3580011955393
 21
732.6934287799968
 31
0.0
  0
LINE
  5
2810
330
6AE4
100
AcDbEntity
  8
0
100
AcDbLine
 10
473.0641851205823
 20
1120.5129486052
 30
0.0
 11
516.9357409836305
 21
1120.5129486052
 31
0.0
  0
CIRCLE
  5
2811
330
6AE4
100
AcDbEntity
  8
0
100
AcDbCircle
 10
494.9999630521063
 20
1120.5129486052
 30
0.0
 40
10.0
  0
LINE
  5
2813
330
6AE4
100
AcDbEntity
  8
0
100
AcDbLine
 10
494.9999630521063
 20
1098.577170673676
 30
0.0
 11
494.9999630521063
 21
1142.448726536723
 31
0.0
  0
TEXT
  5
2814
330
6AE4
100
AcDbEntity
  8
0
100
AcDbText
 10
950.0
 20
20.0
 30
0.0
 40
35.0
  1
ABM -224ES2A (耐重塩害仕様)
  7
MONO-SET
100
AcDbText
  0
TEXT
  5
2815
330
6AE4
100
AcDbEntity
  8
0
100
AcDbText
 10
926.9153104867148
 20
115.0
 30
0.0
 40
35.0
  1
エアコン防振台
  7
MONO-SET
100
AcDbText
  0
TEXT
  5
281B
330
6AE4
100
AcDbEntity
  8
0
100
AcDbText
 10
698.0583131038184
 20
737.3220474594418
 30
0.0
 40
25.0
  1
＜基礎ボルト穴＞
100
AcDbText
  0
LINE
  5
281C
330
6AE4
100
AcDbEntity
  8
0
100
AcDbLine
 10
1139.999961120934
 20
790.5129579333815
 30
0.0
 11
1139.999971497378
 21
1150.512862258812
 31
0.0
  0
LINE
  5
281D
330
6AE4
100
AcDbEntity
  8
0
100
AcDbLine
 10
1109.999963042052
 20
850.5129598593013
 30
0.0
 11
1109.999963389884
 21
1090.512870370035
 31
0.0
  0
LINE
  5
281E
330
6AE4
100
AcDbEntity
  8
0
100
AcDbLine
 10
973.0641851205824
 20
820.5129485159798
 30
0.0
 11
1016.935740983631
 21
820.5129485159798
 31
0.0
  0
LINE
  5
281F
330
6AE4
100
AcDbEntity
  8
0
100
AcDbLine
 10
994.9999630521059
 20
842.448726447504
 30
0.0
 11
994.9999630521059
 21
798.5771705844572
 31
0.0
  0
CIRCLE
  5
2820
330
6AE4
100
AcDbEntity
  8
0
100
AcDbCircle
 10
994.9999630521059
 20
820.5129485159798
 30
0.0
 40
10.0
  0
LINE
  5
2822
330
6AE4
100
AcDbEntity
  8
0
100
AcDbLine
 10
994.9999630521059
 20
1098.577104729215
 30
0.0
 11
994.9999630521059
 21
1142.448660592262
 31
0.0
  0
LINE
  5
2823
330
6AE4
100
AcDbEntity
  8
0
100
AcDbLine
 10
973.0641851205824
 20
1120.512882660739
 30
0.0
 11
1016.935740983631
 21
1120.512882660739
 31
0.0
  0
CIRCLE
  5
2824
330
6AE4
100
AcDbEntity
  8
0
100
AcDbCircle
 10
994.9999630521059
 20
1120.512882660739
 30
0.0
 40
10.0
  0
LINE
  5
2825
330
6AE4
100
AcDbEntity
  8
0
100
AcDbLine
 10
1109.999963389884
 20
1086.075566378809
 30
0.0
 11
1109.999963389884
 21
1090.512870370035
 31
0.0
  0
LINE
  5
2826
330
6AE4
100
AcDbEntity
  8
0
100
AcDbLine
 10
1139.999971497378
 20
1146.012823898352
 30
0.0
 11
1139.999971497378
 21
1150.512862258812
 31
0.0
  0
LINE
  5
287A
330
6AE4
100
AcDbEntity
  8
0
100
AcDbLine
 10
499.2716598072004
 20
2419.041737607933
 30
0.0
 11
551.6932394872967
 21
2529.999973998448
 31
0.0
  0
LINE
  5
287B
330
6AE4
100
AcDbEntity
  8
0
100
AcDbLine
 10
416.9852813742391
 20
1571.999999999998
 30
0.0
 11
529.999581227323
 21
1571.999999999999
 31
0.0
  0
LINE
  5
287C
330
6AE4
100
AcDbEntity
  8
0
100
AcDbLine
 10
417.0000000000004
 20
1682.0
 30
0.0
 11
1072.999934549498
 21
1682.0
 31
0.0
  0
LINE
  5
287D
330
6AE4
100
AcDbEntity
  8
0
100
AcDbLine
 10
417.0000000000004
 20
1652.0
 30
0.0
 11
1072.999934549498
 21
1652.0
 31
0.0
  0
LINE
  5
287E
330
6AE4
100
AcDbEntity
  8
0
100
AcDbLine
 10
417.0000000000004
 20
1541.999999999999
 30
0.0
 11
1072.999934549497
 21
1541.999999999999
 31
0.0
  0
LINE
  5
287F
330
6AE4
100
AcDbEntity
  8
0
100
AcDbLine
 10
1072.999976297549
 20
2070.000037654343
 30
0.0
 11
417.0000000000007
 21
2069.999949012718
 31
0.0
  0
LINE
  5
2880
330
6AE4
100
AcDbEntity
  8
0
100
AcDbLine
 10
1072.99997629755
 20
2130.000037654331
 30
0.0
 11
417.0000000000004
 21
2129.999949012709
 31
0.0
  0
LINE
  5
2881
330
6AE4
100
AcDbEntity
  8
0
100
AcDbLine
 10
1072.99997629755
 20
2429.999949101933
 30
0.0
 11
417.0000000000007
 21
2430.000037743555
 31
0.0
  0
LINE
  5
2882
330
6AE4
100
AcDbEntity
  8
0
100
AcDbLine
 10
1072.99997629755
 20
2369.999949101944
 30
0.0
 11
417.0000000000004
 21
2370.000037743567
 31
0.0
  0
LINE
  5
2883
330
6AE4
100
AcDbEntity
  8
0
100
AcDbLine
 10
417.0
 20
2363.000064049461
 30
0.0
 11
417.0000000000007
 21
2430.000058133725
 31
0.0
  0
LINE
  5
2884
330
6AE4
100
AcDbEntity
  8
0
100
AcDbLine
 10
412.5
 20
2367.500064049461
 30
0.0
 11
412.5000000000007
 21
2430.000058133725
 31
0.0
  0
LINE
  5
2885
330
6AE4
100
AcDbEntity
  8
0
100
AcDbLine
 10
382.0
 20
2427.025935972693
 30
0.0
 11
382.0
 21
2368.974187935448
 31
0.0
  0
ARC
  5
2886
330
6AE4
100
AcDbEntity
  8
0
100
AcDbCircle
 10
374.0
 20
2406.000020390179
 30
0.0
 40
24.0
100
AcDbArc
 50
90.00004971365942
 51
180.0
  0
CIRCLE
  5
2887
330
6AE4
100
AcDbEntity
  8
0
100
AcDbCircle
 10
382.0
 20
2398.000061954071
 30
0.0
 40
21.0
  0
CIRCLE
  5
2888
330
6AE4
100
AcDbEntity
  8
0
100
AcDbCircle
 10
494.9999554235247
 20
2410.000026394977
 30
0.0
 40
6.0
  0
LINE
  5
288C
330
6AE4
100
AcDbEntity
  8
0
100
AcDbLine
 10
494.9999554235247
 20
2388.064248463454
 30
0.0
 11
494.9999554235247
 21
2431.935804326502
 31
0.0
  0
CIRCLE
  5
288D
330
6AE4
100
AcDbEntity
  8
0
100
AcDbCircle
 10
382.0
 20
2398.000041563901
 30
0.0
 40
21.0
  0
ARC
  5
288E
330
6AE4
100
AcDbEntity
  8
0
100
AcDbCircle
 10
374.0
 20
2406.000000000009
 30
0.0
 40
24.0
100
AcDbArc
 50
90.00004971368548
 51
180.0
  0
LINE
  5
288F
330
6AE4
100
AcDbEntity
  8
0
100
AcDbLine
 10
382.0
 20
2427.025915582523
 30
0.0
 11
382.0
 21
2368.974167545278
 31
0.0
  0
LINE
  5
2890
330
6AE4
100
AcDbEntity
  8
0
100
AcDbLine
 10
412.5
 20
2367.500043659291
 30
0.0
 11
412.5000000000007
 21
2430.000037743555
 31
0.0
  0
LINE
  5
2891
330
6AE4
100
AcDbEntity
  8
0
100
AcDbLine
 10
417.0
 20
2363.000043659292
 30
0.0
 11
417.0000000000007
 21
2430.000037743555
 31
0.0
  0
LINE
  5
2896
330
6AE4
100
AcDbEntity
  8
0
100
AcDbLine
 10
389.973455961378
 20
1600.999999999999
 30
0.0
 11
389.9750925245335
 21
1593.199969999998
 31
0.0
  0
LINE
  5
2897
330
6AE4
100
AcDbEntity
  8
0
100
AcDbLine
 10
373.9734553849401
 20
1600.999999999999
 30
0.0
 11
373.9750919480957
 21
1593.199969999998
 31
0.0
  0
LINE
  5
2898
330
6AE4
100
AcDbEntity
  8
0
100
AcDbLine
 10
381.9999999999994
 20
1638.659543302269
 30
0.0
 11
381.9999999999994
 21
1559.37616872948
 31
0.0
  0
ARC
  5
2899
330
6AE4
100
AcDbEntity
  8
0
100
AcDbCircle
 10
371.6076949999997
 20
1588.109520999999
 30
0.0
 40
5.090450299999996
100
AcDbArc
 50
47.11663999998525
 51
132.8833200000176
  0
ARC
  5
289A
330
6AE4
100
AcDbEntity
  8
0
100
AcDbCircle
 10
371.6076951545874
 20
1568.964285714285
 30
0.0
 40
3.464285714285712
100
AcDbArc
 50
179.4093113971838
 51
0.5906886028161587
  0
ARC
  5
289B
330
6AE4
100
AcDbEntity
  8
0
100
AcDbCircle
 10
371.6076949999997
 20
1588.290448999998
 30
0.0
 40
5.090450299999996
100
AcDbArc
 50
227.1166899999784
 51
312.8833619999752
  0
LINE
  5
289C
330
6AE4
100
AcDbEntity
  8
0
100
AcDbLine
 10
417.0000000000004
 20
1541.999999999999
 30
0.0
 11
356.3000000000005
 21
1541.999999999999
 31
0.0
  0
LINE
  5
289D
330
6AE4
100
AcDbEntity
  8
0
100
AcDbLine
 10
366.9999999999995
 20
1583.2
 30
0.0
 11
396.9999999999996
 21
1583.2
 31
0.0
  0
LINE
  5
289E
330
6AE4
100
AcDbEntity
  8
0
100
AcDbLine
 10
364.0000000000005
 20
1557.0
 30
0.0
 11
395.0000000000004
 21
1557.0
 31
0.0
  0
LINE
  5
289F
330
6AE4
100
AcDbEntity
  8
0
100
AcDbLine
 10
350.0
 20
1579.999999999999
 30
0.0
 11
408.4999999999999
 21
1580.0
 31
0.0
  0
LINE
  5
28A0
330
6AE4
100
AcDbEntity
  8
0
100
AcDbLine
 10
350.0
 20
1575.499999999999
 30
0.0
 11
408.5000000000004
 21
1575.5
 31
0.0
  0
LINE
  5
28A1
330
6AE4
100
AcDbEntity
  8
0
100
AcDbLine
 10
357.0000000000005
 20
1542.999999999999
 30
0.0
 11
357.0000000000005
 21
1550.0
 31
0.0
  0
ARC
  5
28A2
330
6AE4
100
AcDbEntity
  8
0
100
AcDbCircle
 10
353.0
 20
1544.999999999999
 30
0.0
 40
3.0
100
AcDbArc
 50
180.0
 51
270.0
  0
ARC
  5
28A3
330
6AE4
100
AcDbEntity
  8
0
100
AcDbCircle
 10
356.0000000000004
 20
1542.999999999999
 30
0.0
 40
1.0
100
AcDbArc
 50
270.0
 51
0.0
  0
LINE
  5
28A4
330
6AE4
100
AcDbEntity
  8
0
100
AcDbLine
 10
356.0000000000004
 20
1541.999999999999
 30
0.0
 11
353.0
 21
1541.999999999999
 31
0.0
  0
LINE
  5
28A5
330
6AE4
100
AcDbEntity
  8
0
100
AcDbLine
 10
368.1435935394492
 20
1575.499999999999
 30
0.0
 11
368.1435935394492
 21
1568.999999999999
 31
0.0
  0
LINE
  5
28A6
330
6AE4
100
AcDbEntity
  8
0
100
AcDbLine
 10
366.9999999999995
 20
1579.999999999999
 30
0.0
 11
366.9999999999995
 21
1583.2
 31
0.0
  0
LINE
  5
28A7
330
6AE4
100
AcDbEntity
  8
0
100
AcDbLine
 10
350.0
 20
1544.999999999999
 30
0.0
 11
350.0
 21
1579.999999999999
 31
0.0
  0
ARC
  5
28A8
330
6AE4
100
AcDbEntity
  8
0
100
AcDbCircle
 10
364.0000000000005
 20
1550.0
 30
0.0
 40
7.0
100
AcDbArc
 50
90.0
 51
180.0
  0
LINE
  5
28A9
330
6AE4
100
AcDbEntity
  8
0
100
AcDbLine
 10
368.1436059999996
 20
1591.839502999999
 30
0.0
 11
368.1436059999996
 21
1584.560467
 31
0.0
  0
LINE
  5
28AA
330
6AE4
100
AcDbEntity
  8
0
100
AcDbLine
 10
402.0000000000004
 20
1542.999999999999
 30
0.0
 11
402.0000000000004
 21
1550.0
 31
0.0
  0
LINE
  5
28AB
330
6AE4
100
AcDbEntity
  8
0
100
AcDbLine
 10
412.5000000000004
 20
1541.999999999999
 30
0.0
 11
412.5000000000004
 21
1571.5
 31
0.0
  0
LINE
  5
28AC
330
6AE4
100
AcDbEntity
  8
0
100
AcDbLine
 10
417.0000000000004
 20
1541.999999999999
 30
0.0
 11
417.0000000000004
 21
1571.5
 31
0.0
  0
ARC
  5
28AD
330
6AE4
100
AcDbEntity
  8
0
100
AcDbCircle
 10
403.0
 20
1542.999999999999
 30
0.0
 40
1.0
100
AcDbArc
 50
180.0
 51
270.0
  0
ARC
  5
28AE
330
6AE4
100
AcDbEntity
  8
0
100
AcDbCircle
 10
395.0000000000004
 20
1550.0
 30
0.0
 40
7.0
100
AcDbArc
 50
0.0
 51
90.0
  0
ARC
  5
28AF
330
6AE4
100
AcDbEntity
  8
0
100
AcDbCircle
 10
392.3922999999995
 20
1588.109520999999
 30
0.0
 40
5.090450299999996
100
AcDbArc
 50
47.11668999997841
 51
132.8833700000012
  0
LINE
  5
28B0
330
6AE4
100
AcDbEntity
  8
0
100
AcDbLine
 10
392.3922999999995
 20
1593.199969999998
 30
0.0
 11
371.6076949999997
 21
1593.199969999998
 31
0.0
  0
ARC
  5
28B1
330
6AE4
100
AcDbEntity
  8
0
100
AcDbCircle
 10
381.9999999999994
 20
1574.87879
 30
0.0
 40
18.321183
100
AcDbArc
 50
67.78071000001772
 51
112.2193300000017
  0
LINE
  5
28B2
330
6AE4
100
AcDbEntity
  8
0
100
AcDbLine
 10
388.9282032302763
 20
1575.499999999999
 30
0.0
 11
388.9282032302763
 21
1568.999999999999
 31
0.0
  0
LINE
  5
28B3
330
6AE4
100
AcDbEntity
  8
0
100
AcDbLine
 10
395.8564064605516
 20
1568.999999999999
 30
0.0
 11
395.8564064605516
 21
1575.499999999999
 31
0.0
  0
ARC
  5
28B4
330
6AE4
100
AcDbEntity
  8
0
100
AcDbCircle
 10
392.3923048454135
 20
1568.964285714285
 30
0.0
 40
3.464285714285712
100
AcDbArc
 50
179.4093113971838
 51
0.5906886028161587
  0
LINE
  5
28B5
330
6AE4
100
AcDbEntity
  8
0
100
AcDbLine
 10
396.9999999999996
 20
1580.0
 30
0.0
 11
396.9999999999996
 21
1583.2
 31
0.0
  0
ARC
  5
28B6
330
6AE4
100
AcDbEntity
  8
0
100
AcDbCircle
 10
392.3922999999995
 20
1588.290448999998
 30
0.0
 40
5.090450299999996
100
AcDbArc
 50
227.1166399999852
 51
312.8833169999789
  0
LINE
  5
28B7
330
6AE4
100
AcDbEntity
  8
0
100
AcDbLine
 10
390.4999999999994
 20
1580.0
 30
0.0
 11
390.4999999999994
 21
1575.5
 31
0.0
  0
LINE
  5
28B8
330
6AE4
100
AcDbEntity
  8
0
100
AcDbLine
 10
375.0717967697255
 20
1575.499999999999
 30
0.0
 11
375.0717967697255
 21
1568.999999999999
 31
0.0
  0
LINE
  5
28B9
330
6AE4
100
AcDbEntity
  8
0
100
AcDbLine
 10
373.4999999999994
 20
1579.999999999999
 30
0.0
 11
373.4999999999994
 21
1575.499999999999
 31
0.0
  0
LINE
  5
28BA
330
6AE4
100
AcDbEntity
  8
0
100
AcDbLine
 10
371.6076951545874
 20
1565.499999999999
 30
0.0
 11
392.3923048454135
 21
1565.499999999999
 31
0.0
  0
ARC
  5
28BB
330
6AE4
100
AcDbEntity
  8
0
100
AcDbCircle
 10
382.0000000000009
 20
1574.107142857142
 30
0.0
 40
8.607142857142848
100
AcDbArc
 50
216.3958791981003
 51
323.6041208018996
  0
ARC
  5
28BC
330
6AE4
100
AcDbEntity
  8
0
100
AcDbCircle
 10
381.9999999999994
 20
1601.521172999999
 30
0.0
 40
18.321183
100
AcDbArc
 50
247.7806800000021
 51
292.2192999999771
  0
LINE
  5
28BD
330
6AE4
100
AcDbEntity
  8
0
100
AcDbLine
 10
388.9281899999996
 20
1591.839508999998
 30
0.0
 11
388.9281899999996
 21
1584.56046
 31
0.0
  0
LINE
  5
28BE
330
6AE4
100
AcDbEntity
  8
0
100
AcDbLine
 10
395.8563799999993
 20
1591.839508999998
 30
0.0
 11
395.8563799999993
 21
1584.56046
 31
0.0
  0
LINE
  5
28BF
330
6AE4
100
AcDbEntity
  8
0
100
AcDbLine
 10
375.0717909999994
 20
1591.839508999998
 30
0.0
 11
375.0717909999994
 21
1584.56046
 31
0.0
  0
ARC
  5
28C0
330
6AE4
100
AcDbEntity
  8
0
100
AcDbCircle
 10
408.4999999999999
 20
1571.5
 30
0.0
 40
4.0
100
AcDbArc
 50
0.0
 51
90.0
  0
ARC
  5
28C1
330
6AE4
100
AcDbEntity
  8
0
100
AcDbCircle
 10
408.5000000000004
 20
1571.5
 30
0.0
 40
8.5
100
AcDbArc
 50
0.0
 51
90.0
  0
ARC
  5
28C2
330
6AE4
100
AcDbEntity
  8
0
100
AcDbCircle
 10
371.6077063953052
 20
1623.909533999999
 30
0.0
 40
5.090450299999996
100
AcDbArc
 50
47.11663999998525
 51
132.8833200000176
  0
LINE
  5
28C3
330
6AE4
100
AcDbEntity
  8
0
100
AcDbLine
 10
359.0000000000005
 20
1655.3
 30
0.0
 11
371.8660687473189
 21
1655.3
 31
0.0
  0
ARC
  5
28C4
330
6AE4
100
AcDbEntity
  8
0
100
AcDbCircle
 10
357.0000000000005
 20
1655.3
 30
0.0
 40
17.0
100
AcDbArc
 50
7.662255660759192
 51
82.33774433924121
  0
LINE
  5
28C5
330
6AE4
100
AcDbEntity
  8
0
100
AcDbLine
 10
417.0000000000004
 20
1682.0
 30
0.0
 11
350.0
 21
1682.0
 31
0.0
  0
LINE
  5
28C6
330
6AE4
100
AcDbEntity
  8
0
100
AcDbLine
 10
360.4999999999994
 20
1608.5
 30
0.0
 11
381.9999999999994
 21
1608.499999999999
 31
0.0
  0
LINE
  5
28C7
330
6AE4
100
AcDbEntity
  8
0
100
AcDbLine
 10
350.0
 20
1612.0
 30
0.0
 11
381.9999999999994
 21
1611.999999999999
 31
0.0
  0
LINE
  5
28C8
330
6AE4
100
AcDbEntity
  8
0
100
AcDbLine
 10
350.0
 20
1616.5
 30
0.0
 11
381.9999999999994
 21
1616.499999999999
 31
0.0
  0
LINE
  5
28C9
330
6AE4
100
AcDbEntity
  8
0
100
AcDbLine
 10
361.9999999999996
 20
1600.999999999999
 30
0.0
 11
381.9999999999994
 21
1600.999999999999
 31
0.0
  0
LINE
  5
28CA
330
6AE4
100
AcDbEntity
  8
0
100
AcDbLine
 10
350.0
 20
1682.0
 30
0.0
 11
350.0
 21
1612.0
 31
0.0
  0
ARC
  5
28CB
330
6AE4
100
AcDbEntity
  8
0
100
AcDbCircle
 10
359.0000000000005
 20
1657.3
 30
0.0
 40
2.0
100
AcDbArc
 50
180.0
 51
270.0
  0
LINE
  5
28CC
330
6AE4
100
AcDbEntity
  8
0
100
AcDbLine
 10
368.1436163953057
 20
1627.639521999999
 30
0.0
 11
368.1436163953057
 21
1616.499999999999
 31
0.0
  0
LINE
  5
28CD
330
6AE4
100
AcDbEntity
  8
0
100
AcDbLine
 10
360.4999999999994
 20
1608.5
 30
0.0
 11
360.4999999999994
 21
1600.999999999999
 31
0.0
  0
LINE
  5
28CE
330
6AE4
100
AcDbEntity
  8
0
100
AcDbLine
 10
360.4999999999994
 20
1600.999999999999
 30
0.0
 11
361.9999999999996
 21
1600.999999999999
 31
0.0
  0
ARC
  5
28CF
330
6AE4
100
AcDbEntity
  8
0
100
AcDbCircle
 10
359.0000000000005
 20
1670.166068747319
 30
0.0
 40
2.0
100
AcDbArc
 50
82.33774433924121
 51
180.0
  0
LINE
  5
28D0
330
6AE4
100
AcDbEntity
  8
0
100
AcDbLine
 10
357.0000000000005
 20
1657.3
 30
0.0
 11
357.0000000000005
 21
1670.166068747319
 31
0.0
  0
ARC
  5
28D1
330
6AE4
100
AcDbEntity
  8
0
100
AcDbCircle
 10
392.133931252682
 20
1657.3
 30
0.0
 40
2.0
100
AcDbArc
 50
172.3377443392408
 51
270.0
  0
ARC
  5
28D2
330
6AE4
100
AcDbEntity
  8
0
100
AcDbCircle
 10
405.0000000000007
 20
1657.3
 30
0.0
 40
2.0
100
AcDbArc
 50
270.0
 51
0.0
  0
LINE
  5
28D3
330
6AE4
100
AcDbEntity
  8
0
100
AcDbLine
 10
412.5000000000004
 20
1682.0
 30
0.0
 11
412.5000000000004
 21
1619.499999999999
 31
0.0
  0
LINE
  5
28D4
330
6AE4
100
AcDbEntity
  8
0
100
AcDbLine
 10
417.0000000000004
 20
1682.0
 30
0.0
 11
417.0000000000004
 21
1619.499999999999
 31
0.0
  0
ARC
  5
28D5
330
6AE4
100
AcDbEntity
  8
0
100
AcDbCircle
 10
371.8660687473189
 20
1657.3
 30
0.0
 40
2.0
100
AcDbArc
 50
270.0
 51
7.662255660759192
  0
LINE
  5
28D6
330
6AE4
100
AcDbEntity
  8
0
100
AcDbLine
 10
381.9999999999994
 20
1616.5
 30
0.0
 11
409.4999999999999
 21
1616.499999999999
 31
0.0
  0
LINE
  5
28D7
330
6AE4
100
AcDbEntity
  8
0
100
AcDbLine
 10
381.9999999999994
 20
1612.0
 30
0.0
 11
409.4999999999992
 21
1611.999999999999
 31
0.0
  0
LINE
  5
28D8
330
6AE4
100
AcDbEntity
  8
0
100
AcDbLine
 10
381.9999999999994
 20
1608.5
 30
0.0
 11
403.4999999999993
 21
1608.5
 31
0.0
  0
LINE
  5
28D9
330
6AE4
100
AcDbEntity
  8
0
100
AcDbLine
 10
381.9999999999994
 20
1600.999999999999
 30
0.0
 11
401.9999999999994
 21
1600.999999999999
 31
0.0
  0
LINE
  5
28DA
330
6AE4
100
AcDbEntity
  8
0
100
AcDbLine
 10
405.0000000000007
 20
1655.3
 30
0.0
 11
392.133931252682
 21
1655.3
 31
0.0
  0
LINE
  5
28DB
330
6AE4
100
AcDbEntity
  8
0
100
AcDbLine
 10
395.8564063953054
 20
1627.639521999999
 30
0.0
 11
395.8564063953054
 21
1616.499999999999
 31
0.0
  0
LINE
  5
28DC
330
6AE4
100
AcDbEntity
  8
0
100
AcDbLine
 10
388.9282163953057
 20
1627.639521999999
 30
0.0
 11
388.9282163953057
 21
1616.499999999999
 31
0.0
  0
ARC
  5
28DD
330
6AE4
100
AcDbEntity
  8
0
100
AcDbCircle
 10
392.3923163953059
 20
1623.909533999999
 30
0.0
 40
5.090450299999996
100
AcDbArc
 50
47.11668999997841
 51
132.8833700000012
  0
LINE
  5
28DE
330
6AE4
100
AcDbEntity
  8
0
100
AcDbLine
 10
393.8000000000002
 20
1608.5
 30
0.0
 11
393.8000000000002
 21
1611.999999999999
 31
0.0
  0
LINE
  5
28DF
330
6AE4
100
AcDbEntity
  8
0
100
AcDbLine
 10
375.0717963953057
 20
1627.639521999999
 30
0.0
 11
375.0717963953057
 21
1616.499999999999
 31
0.0
  0
LINE
  5
28E0
330
6AE4
100
AcDbEntity
  8
0
100
AcDbLine
 10
370.2000000000008
 20
1608.499999999999
 30
0.0
 11
370.1999999999999
 21
1611.999999999999
 31
0.0
  0
LINE
  5
28E1
330
6AE4
100
AcDbEntity
  8
0
100
AcDbLine
 10
392.3923163953059
 20
1628.999983
 30
0.0
 11
371.6077063953052
 21
1628.999983
 31
0.0
  0
ARC
  5
28E2
330
6AE4
100
AcDbEntity
  8
0
100
AcDbCircle
 10
382.0000063953056
 20
1610.67882
 30
0.0
 40
18.321183
100
AcDbArc
 50
67.78071000001772
 51
112.2193300000017
  0
LINE
  5
28E3
330
6AE4
100
AcDbEntity
  8
0
100
AcDbLine
 10
401.9999999999994
 20
1600.999999999999
 30
0.0
 11
403.4999999999993
 21
1600.999999999999
 31
0.0
  0
LINE
  5
28E4
330
6AE4
100
AcDbEntity
  8
0
100
AcDbLine
 10
403.4999999999993
 20
1608.5
 30
0.0
 11
403.4999999999993
 21
1600.999999999999
 31
0.0
  0
ARC
  5
28E5
330
6AE4
100
AcDbEntity
  8
0
100
AcDbCircle
 10
409.4999999999999
 20
1619.499999999999
 30
0.0
 40
3.0
100
AcDbArc
 50
270.0
 51
0.0
  0
ARC
  5
28E6
330
6AE4
100
AcDbEntity
  8
0
100
AcDbCircle
 10
409.4999999999999
 20
1619.499999999999
 30
0.0
 40
7.5
100
AcDbArc
 50
270.0
 51
0.0
  0
ARC
  5
28E7
330
6AE4
100
AcDbEntity
  8
0
100
AcDbCircle
 10
407.0000000000008
 20
1655.3
 30
0.0
 40
17.0
100
AcDbArc
 50
97.66225566075878
 51
172.3377443392408
  0
ARC
  5
28E8
330
6AE4
100
AcDbEntity
  8
0
100
AcDbCircle
 10
405.0000000000004
 20
1670.166068747319
 30
0.0
 40
2.0
100
AcDbArc
 50
0.0
 51
97.66225566075878
  0
LINE
  5
28E9
330
6AE4
100
AcDbEntity
  8
0
100
AcDbLine
 10
407.0000000000008
 20
1657.3
 30
0.0
 11
407.0
 21
1670.166068747319
 31
0.0
  0
LINE
  5
28EA
330
6AE4
100
AcDbEntity
  8
0
100
AcDbLine
 10
494.9999345494982
 20
1584.12127506017
 30
0.0
 11
494.9999345494982
 21
1527.926577359304
 31
0.0
  0
LINE
  5
28EB
330
6AE4
100
AcDbEntity
  8
0
100
AcDbLine
 10
494.9999345494982
 20
1695.252703989339
 30
0.0
 11
494.9999345494982
 21
1639.058006288473
 31
0.0
  0
LINE
  5
28EF
330
6AE4
100
AcDbEntity
  8
0
100
AcDbLine
 10
379.9999554235248
 20
2137.000031738607
 30
0.0
 11
379.9999554235248
 21
2362.999955017667
 31
0.0
  0
LINE
  5
28F0
330
6AE4
100
AcDbEntity
  8
0
100
AcDbLine
 10
349.9999554235246
 20
2137.000031738607
 30
0.0
 11
349.9999554235246
 21
2362.999955017667
 31
0.0
  0
ARC
  5
28F1
330
6AE4
100
AcDbEntity
  8
0
100
AcDbCircle
 10
374.0
 20
2094.000164039513
 30
0.0
 40
24.0
100
AcDbArc
 50
180.0
 51
269.9999502863144
  0
LINE
  5
28F3
330
6AE4
100
AcDbEntity
  8
0
100
AcDbLine
 10
411.0258740186226
 20
2102.000122475621
 30
0.0
 11
352.9741259813783
 21
2102.000122475621
 31
0.0
  0
LINE
  5
28F4
330
6AE4
100
AcDbEntity
  8
0
100
AcDbLine
 10
350.0
 20
2132.50012038023
 30
0.0
 11
417.0
 21
2132.50012038023
 31
0.0
  0
LINE
  5
28F5
330
6AE4
100
AcDbEntity
  8
0
100
AcDbLine
 10
350.0
 20
2137.00012038023
 30
0.0
 11
417.0
 21
2137.00012038023
 31
0.0
  0
CIRCLE
  5
28F6
330
6AE4
100
AcDbEntity
  8
0
100
AcDbCircle
 10
382.0
 20
2102.000122475621
 30
0.0
 40
21.0
  0
LINE
  5
28F7
330
6AE4
100
AcDbEntity
  8
0
100
AcDbLine
 10
350.0
 20
2093.500164039513
 30
0.0
 11
350.0
 21
2137.00012038023
 31
0.0
  0
LINE
  5
28F8
330
6AE4
100
AcDbEntity
  8
0
100
AcDbLine
 10
382.0
 20
2072.974248456997
 30
0.0
 11
382.0
 21
2131.025996494242
 31
0.0
  0
LINE
  5
28F9
330
6AE4
100
AcDbEntity
  8
0
100
AcDbLine
 10
417.0
 20
2137.00012038023
 30
0.0
 11
417.0000000000007
 21
2070.000126295965
 31
0.0
  0
LINE
  5
28FA
330
6AE4
100
AcDbEntity
  8
0
100
AcDbLine
 10
412.5
 20
2132.50012038023
 30
0.0
 11
412.5000000000007
 21
2070.000126295965
 31
0.0
  0
LINE
  5
28FB
330
6AE4
100
AcDbEntity
  8
0
100
AcDbLine
 10
373.4999791759792
 20
2070.000164039522
 30
0.0
 11
417.0000000000007
 21
2070.000126295965
 31
0.0
  0
LINE
  5
28FC
330
6AE4
100
AcDbEntity
  8
0
100
AcDbLine
 10
473.0641774920003
 20
2089.999960361297
 30
0.0
 11
516.9357333550477
 21
2089.999960361297
 31
0.0
  0
CIRCLE
  5
28FD
330
6AE4
100
AcDbEntity
  8
0
100
AcDbCircle
 10
494.9999554235247
 20
2089.999960361297
 30
0.0
 40
6.0
  0
LINE
  5
28FE
330
6AE4
100
AcDbEntity
  8
0
100
AcDbLine
 10
494.9999554235247
 20
2111.935738292821
 30
0.0
 11
494.9999554235247
 21
2068.064182429774
 31
0.0
  0
LINE
  5
28FF
330
6AE4
100
AcDbEntity
  8
0
100
AcDbLine
 10
350.0
 20
2367.500064049461
 30
0.0
 11
417.0
 21
2367.500064049461
 31
0.0
  0
LINE
  5
2900
330
6AE4
100
AcDbEntity
  8
0
100
AcDbLine
 10
350.0
 20
2363.000064049461
 30
0.0
 11
417.0
 21
2363.000064049461
 31
0.0
  0
LINE
  5
2902
330
6AE4
100
AcDbEntity
  8
0
100
AcDbLine
 10
411.0258740186226
 20
2398.000061954071
 30
0.0
 11
352.9741259813783
 21
2398.000061954071
 31
0.0
  0
LINE
  5
2903
330
6AE4
100
AcDbEntity
  8
0
100
AcDbLine
 10
411.0258740186226
 20
2398.000041563901
 30
0.0
 11
352.9741259813783
 21
2398.000041563901
 31
0.0
  0
LINE
  5
2905
330
6AE4
100
AcDbEntity
  8
0
100
AcDbLine
 10
350.0
 20
2363.000043659292
 30
0.0
 11
417.0
 21
2363.000043659292
 31
0.0
  0
LINE
  5
2906
330
6AE4
100
AcDbEntity
  8
0
100
AcDbLine
 10
350.0
 20
2367.500043659291
 30
0.0
 11
417.0
 21
2367.500043659291
 31
0.0
  0
LINE
  5
2907
330
6AE4
100
AcDbEntity
  8
0
100
AcDbLine
 10
350.0
 20
2406.000020390179
 30
0.0
 11
350.0
 21
2363.000064049461
 31
0.0
  0
LINE
  5
2908
330
6AE4
100
AcDbEntity
  8
0
100
AcDbLine
 10
350.0
 20
2406.500000000009
 30
0.0
 11
350.0
 21
2363.000043659292
 31
0.0
  0
LINE
  5
2909
330
6AE4
100
AcDbEntity
  8
0
100
AcDbLine
 10
473.0641774920003
 20
2410.000026394977
 30
0.0
 11
516.9357333550477
 21
2410.000026394977
 31
0.0
  0
TEXT
  5
290A
330
6AE4
100
AcDbEntity
  8
0
100
AcDbText
 10
90.0
 20
2680.0
 30
0.0
 40
30.0
  1
＜外形寸法図＞
100
AcDbText
  0
LINE
  5
290C
330
6AE4
100
AcDbEntity
  8
0
100
AcDbLine
 10
373.999979175992
 20
2430.000020824004
 30
0.0
 11
417.0000000000007
 21
2430.000058133725
 31
0.0
  0
LINE
  5
290D
330
6AE4
100
AcDbEntity
  8
0
100
AcDbLine
 10
373.4999791759792
 20
2430.0
 30
0.0
 11
417.0000000000007
 21
2430.000037743555
 31
0.0
  0
CIRCLE
  5
290F
330
6AE4
100
AcDbEntity
  8
0
100
AcDbCircle
 10
995.0000208740258
 20
2410.000026394977
 30
0.0
 40
6.0
  0
CIRCLE
  5
2910
330
6AE4
100
AcDbEntity
  8
0
100
AcDbCircle
 10
1107.99997629755
 20
2397.999952922278
 30
0.0
 40
21.0
  0
ARC
  5
2911
330
6AE4
100
AcDbEntity
  8
0
100
AcDbCircle
 10
1115.99997629755
 20
2405.999911358386
 30
0.0
 40
24.0
100
AcDbArc
 50
0.0
 51
89.99995028631451
  0
LINE
  5
2912
330
6AE4
100
AcDbEntity
  8
0
100
AcDbLine
 10
1107.99997629755
 20
2427.0258269409
 30
0.0
 11
1107.99997629755
 21
2368.974078903656
 31
0.0
  0
LINE
  5
2913
330
6AE4
100
AcDbEntity
  8
0
100
AcDbLine
 10
1072.99997629755
 20
2362.999955017667
 30
0.0
 11
1072.99997629755
 21
2429.999949101933
 31
0.0
  0
LINE
  5
2914
330
6AE4
100
AcDbEntity
  8
0
100
AcDbLine
 10
1077.49997629755
 20
2367.499955017667
 30
0.0
 11
1077.49997629755
 21
2429.999949101933
 31
0.0
  0
LINE
  5
2915
330
6AE4
100
AcDbEntity
  8
0
100
AcDbLine
 10
994.999955423524
 20
2388.064182518993
 30
0.0
 11
994.999955423524
 21
2431.935738382041
 31
0.0
  0
LINE
  5
2916
330
6AE4
100
AcDbEntity
  8
0
100
AcDbLine
 10
960.0003950702271
 20
1571.999999999999
 30
0.0
 11
1031.999934549498
 21
1571.999999999999
 31
0.0
  0
LINE
  5
2918
330
6AE4
100
AcDbEntity
  8
0
100
AcDbLine
 10
973.0641774920004
 20
2409.999960450516
 30
0.0
 11
1016.935733355048
 21
2409.999960450516
 31
0.0
  0
LINE
  5
2919
330
6AE4
100
AcDbEntity
  8
0
100
AcDbLine
 10
973.0641774920004
 20
2090.000026305759
 30
0.0
 11
1016.935733355048
 21
2090.000026305759
 31
0.0
  0
LINE
  5
291B
330
6AE4
100
AcDbEntity
  8
0
100
AcDbLine
 10
589.9995812280908
 20
1571.999999999999
 30
0.0
 11
900.0003950694598
 21
1571.999999999999
 31
0.0
  0
LINE
  5
291C
330
6AE4
100
AcDbEntity
  8
0
100
AcDbLine
 10
624.9999672747495
 20
1677.0
 30
0.0
 11
864.9999672747494
 21
1677.0
 31
0.0
  0
LINE
  5
291D
330
6AE4
100
AcDbEntity
  8
0
100
AcDbLine
 10
624.9999672747495
 20
1657.0
 30
0.0
 11
864.9999672747494
 21
1657.0
 31
0.0
  0
LINE
  5
2920
330
6AE4
100
AcDbEntity
  8
0
100
AcDbLine
 10
589.9995812280908
 20
1571.999999999998
 30
0.0
 11
647.9999345494983
 21
1571.999999999999
 31
0.0
  0
LINE
  5
2921
330
6AE4
100
AcDbEntity
  8
0
100
AcDbLine
 10
624.9999672747495
 20
1677.0
 30
0.0
 11
624.9999672747495
 21
1657.0
 31
0.0
  0
LINE
  5
2924
330
6AE4
100
AcDbEntity
  8
0
100
AcDbLine
 10
864.9999672747494
 20
1677.0
 30
0.0
 11
864.9999672747494
 21
1657.0
 31
0.0
  0
LINE
  5
294A
330
6AE4
100
AcDbEntity
  8
0
100
AcDbLine
 10
1107.999934549498
 20
1616.5
 30
0.0
 11
1080.499934549498
 21
1616.499999999999
 31
0.0
  0
LINE
  5
294B
330
6AE4
100
AcDbEntity
  8
0
100
AcDbLine
 10
1107.999934549498
 20
1612.0
 30
0.0
 11
1080.499934549498
 21
1611.999999999999
 31
0.0
  0
ARC
  5
294C
330
6AE4
100
AcDbEntity
  8
0
100
AcDbCircle
 10
1097.607618154193
 20
1623.909533999999
 30
0.0
 40
5.090450299999996
100
AcDbArc
 50
47.11662999999878
 51
132.8833100000216
  0
LINE
  5
294D
330
6AE4
100
AcDbEntity
  8
0
100
AcDbLine
 10
1107.999934549498
 20
1608.5
 30
0.0
 11
1086.499934549499
 21
1608.5
 31
0.0
  0
LINE
  5
294E
330
6AE4
100
AcDbEntity
  8
0
100
AcDbLine
 10
1107.999934549498
 20
1600.999999999999
 30
0.0
 11
1087.999934549499
 21
1600.999999999999
 31
0.0
  0
ARC
  5
294F
330
6AE4
100
AcDbEntity
  8
0
100
AcDbCircle
 10
1097.607634549498
 20
1588.109520999999
 30
0.0
 40
5.090450299999996
100
AcDbArc
 50
47.11662999999878
 51
132.8833100000216
  0
ARC
  5
2950
330
6AE4
100
AcDbEntity
  8
0
100
AcDbCircle
 10
1097.866003296817
 20
1657.3
 30
0.0
 40
2.0
100
AcDbArc
 50
270.0
 51
7.662255660758751
  0
ARC
  5
2951
330
6AE4
100
AcDbEntity
  8
0
100
AcDbCircle
 10
1082.999934549498
 20
1655.3
 30
0.0
 40
17.0
100
AcDbArc
 50
7.662255660758751
 51
82.33774433924121
  0
LINE
  5
2952
330
6AE4
100
AcDbEntity
  8
0
100
AcDbLine
 10
1072.999934549498
 20
1682.0
 30
0.0
 11
1139.999934549498
 21
1682.0
 31
0.0
  0
LINE
  5
2953
330
6AE4
100
AcDbEntity
  8
0
100
AcDbLine
 10
1097.607618154193
 20
1628.999983
 30
0.0
 11
1118.392228154194
 21
1628.999983
 31
0.0
  0
LINE
  5
2954
330
6AE4
100
AcDbEntity
  8
0
100
AcDbLine
 10
1097.607634549498
 20
1593.199969999998
 30
0.0
 11
1118.392239549499
 21
1593.199969999998
 31
0.0
  0
ARC
  5
2955
330
6AE4
100
AcDbEntity
  8
0
100
AcDbCircle
 10
1097.607629704085
 20
1568.964285714285
 30
0.0
 40
3.464285714285712
100
AcDbArc
 50
179.4093113971838
 51
0.5906886028161921
  0
ARC
  5
2956
330
6AE4
100
AcDbEntity
  8
0
100
AcDbCircle
 10
1097.607634549498
 20
1588.290448999998
 30
0.0
 40
5.090450299999996
100
AcDbArc
 50
227.1166830000212
 51
312.8833600000124
  0
LINE
  5
2957
330
6AE4
100
AcDbEntity
  8
0
100
AcDbLine
 10
1072.999934549498
 20
1541.999999999999
 30
0.0
 11
1133.699934549498
 21
1541.999999999999
 31
0.0
  0
LINE
  5
2958
330
6AE4
100
AcDbEntity
  8
0
100
AcDbLine
 10
1118.392239394911
 20
1565.499999999999
 30
0.0
 11
1097.607629704085
 21
1565.499999999999
 31
0.0
  0
LINE
  5
2959
330
6AE4
100
AcDbEntity
  8
0
100
AcDbLine
 10
1122.999934549498
 20
1583.2
 30
0.0
 11
1092.999934549498
 21
1583.2
 31
0.0
  0
LINE
  5
295A
330
6AE4
100
AcDbEntity
  8
0
100
AcDbLine
 10
1125.999934549498
 20
1557.0
 30
0.0
 11
1094.999934549498
 21
1557.0
 31
0.0
  0
LINE
  5
295B
330
6AE4
100
AcDbEntity
  8
0
100
AcDbLine
 10
1139.999934549498
 20
1579.999999999999
 30
0.0
 11
1081.499934549499
 21
1580.0
 31
0.0
  0
LINE
  5
295C
330
6AE4
100
AcDbEntity
  8
0
100
AcDbLine
 10
1139.999934549498
 20
1575.499999999999
 30
0.0
 11
1081.499934549498
 21
1575.5
 31
0.0
  0
LINE
  5
295D
330
6AE4
100
AcDbEntity
  8
0
100
AcDbLine
 10
994.9999345494976
 20
1571.999999999999
 30
0.0
 11
1073.014653175259
 21
1571.999999999999
 31
0.0
  0
LINE
  5
295E
330
6AE4
100
AcDbEntity
  8
0
100
AcDbLine
 10
994.9999345494976
 20
1584.121341004633
 30
0.0
 11
994.9999345494976
 21
1526.694335075292
 31
0.0
  0
LINE
  5
295F
330
6AE4
100
AcDbEntity
  8
0
100
AcDbLine
 10
1087.999934549498
 20
1542.999999999999
 30
0.0
 11
1087.999934549498
 21
1550.0
 31
0.0
  0
LINE
  5
2960
330
6AE4
100
AcDbEntity
  8
0
100
AcDbLine
 10
1077.499934549498
 20
1541.999999999999
 30
0.0
 11
1077.499934549498
 21
1571.5
 31
0.0
  0
LINE
  5
2961
330
6AE4
100
AcDbEntity
  8
0
100
AcDbLine
 10
1072.999934549498
 20
1541.999999999999
 30
0.0
 11
1072.999934549498
 21
1571.5
 31
0.0
  0
ARC
  5
2962
330
6AE4
100
AcDbEntity
  8
0
100
AcDbCircle
 10
1086.999934549498
 20
1542.999999999999
 30
0.0
 40
1.0
100
AcDbArc
 50
270.0
 51
0.0
  0
ARC
  5
2963
330
6AE4
100
AcDbEntity
  8
0
100
AcDbCircle
 10
1081.499934549499
 20
1571.5
 30
0.0
 40
4.0
100
AcDbArc
 50
90.0
 51
180.0
  0
ARC
  5
2964
330
6AE4
100
AcDbEntity
  8
0
100
AcDbCircle
 10
1081.499934549498
 20
1571.5
 30
0.0
 40
8.5
100
AcDbArc
 50
90.0
 51
180.0
  0
LINE
  5
2965
330
6AE4
100
AcDbEntity
  8
0
100
AcDbLine
 10
1094.143528088947
 20
1568.999999999999
 30
0.0
 11
1094.143528088947
 21
1575.499999999999
 31
0.0
  0
LINE
  5
2966
330
6AE4
100
AcDbEntity
  8
0
100
AcDbLine
 10
1092.999934549498
 20
1580.0
 30
0.0
 11
1092.999934549498
 21
1583.2
 31
0.0
  0
ARC
  5
2967
330
6AE4
100
AcDbEntity
  8
0
100
AcDbCircle
 10
1094.999934549498
 20
1550.0
 30
0.0
 40
7.0
100
AcDbArc
 50
90.0
 51
180.0
  0
LINE
  5
2968
330
6AE4
100
AcDbEntity
  8
0
100
AcDbLine
 10
1094.143554549499
 20
1591.839508999998
 30
0.0
 11
1094.143554549499
 21
1584.56046
 31
0.0
  0
LINE
  5
2969
330
6AE4
100
AcDbEntity
  8
0
100
AcDbLine
 10
994.9999345494976
 20
1695.2527699338
 30
0.0
 11
994.9999345494976
 21
1637.82576400446
 31
0.0
  0
ARC
  5
296A
330
6AE4
100
AcDbEntity
  8
0
100
AcDbCircle
 10
1084.999934549498
 20
1657.3
 30
0.0
 40
2.0
100
AcDbArc
 50
180.0
 51
270.0
  0
LINE
  5
296B
330
6AE4
100
AcDbEntity
  8
0
100
AcDbLine
 10
1077.499934549498
 20
1682.0
 30
0.0
 11
1077.499934549498
 21
1619.499999999999
 31
0.0
  0
LINE
  5
296C
330
6AE4
100
AcDbEntity
  8
0
100
AcDbLine
 10
1072.999934549498
 20
1682.0
 30
0.0
 11
1072.999934549498
 21
1619.499999999999
 31
0.0
  0
LINE
  5
296D
330
6AE4
100
AcDbEntity
  8
0
100
AcDbLine
 10
1094.143528154194
 20
1627.639521999999
 30
0.0
 11
1094.143528154194
 21
1616.499999999999
 31
0.0
  0
LINE
  5
296E
330
6AE4
100
AcDbEntity
  8
0
100
AcDbLine
 10
1096.199934549499
 20
1608.5
 30
0.0
 11
1096.199934549499
 21
1611.999999999999
 31
0.0
  0
LINE
  5
296F
330
6AE4
100
AcDbEntity
  8
0
100
AcDbLine
 10
1087.999934549499
 20
1600.999999999999
 30
0.0
 11
1086.499934549499
 21
1600.999999999999
 31
0.0
  0
LINE
  5
2970
330
6AE4
100
AcDbEntity
  8
0
100
AcDbLine
 10
1086.499934549499
 20
1608.5
 30
0.0
 11
1086.499934549499
 21
1600.999999999999
 31
0.0
  0
LINE
  5
2971
330
6AE4
100
AcDbEntity
  8
0
100
AcDbLine
 10
1084.999934549498
 20
1655.3
 30
0.0
 11
1097.866003296817
 21
1655.3
 31
0.0
  0
ARC
  5
2972
330
6AE4
100
AcDbEntity
  8
0
100
AcDbCircle
 10
1080.499934549498
 20
1619.499999999999
 30
0.0
 40
3.0
100
AcDbArc
 50
180.0
 51
270.0
  0
ARC
  5
2973
330
6AE4
100
AcDbEntity
  8
0
100
AcDbCircle
 10
1080.499934549498
 20
1619.499999999999
 30
0.0
 40
7.5
100
AcDbArc
 50
180.0
 51
270.0
  0
ARC
  5
2974
330
6AE4
100
AcDbEntity
  8
0
100
AcDbCircle
 10
1084.999934549498
 20
1670.166068747319
 30
0.0
 40
2.0
100
AcDbArc
 50
82.33774433924121
 51
180.0
  0
LINE
  5
2975
330
6AE4
100
AcDbEntity
  8
0
100
AcDbLine
 10
1082.999934549498
 20
1657.3
 30
0.0
 11
1082.999934549498
 21
1670.166068747319
 31
0.0
  0
LINE
  5
2976
330
6AE4
100
AcDbEntity
  8
0
100
AcDbLine
 10
1100.026478588121
 20
1600.999999999999
 30
0.0
 11
1100.024842024965
 21
1593.199969999998
 31
0.0
  0
LINE
  5
2977
330
6AE4
100
AcDbEntity
  8
0
100
AcDbLine
 10
1116.026479164558
 20
1600.999999999999
 30
0.0
 11
1116.024842601402
 21
1593.199969999998
 31
0.0
  0
LINE
  5
2978
330
6AE4
100
AcDbEntity
  8
0
100
AcDbLine
 10
1107.999934549498
 20
1638.659543302269
 30
0.0
 11
1107.999934549498
 21
1559.37616872948
 31
0.0
  0
LINE
  5
2979
330
6AE4
100
AcDbEntity
  8
0
100
AcDbLine
 10
1132.999934549498
 20
1542.999999999999
 30
0.0
 11
1132.999934549498
 21
1550.0
 31
0.0
  0
ARC
  5
297A
330
6AE4
100
AcDbEntity
  8
0
100
AcDbCircle
 10
1136.999934549498
 20
1544.999999999999
 30
0.0
 40
3.0
100
AcDbArc
 50
270.0
 51
0.0
  0
ARC
  5
297B
330
6AE4
100
AcDbEntity
  8
0
100
AcDbCircle
 10
1133.999934549498
 20
1542.999999999999
 30
0.0
 40
1.0
100
AcDbArc
 50
180.0
 51
270.0
  0
LINE
  5
297C
330
6AE4
100
AcDbEntity
  8
0
100
AcDbLine
 10
1133.999934549498
 20
1541.999999999999
 30
0.0
 11
1136.999934549498
 21
1541.999999999999
 31
0.0
  0
ARC
  5
297D
330
6AE4
100
AcDbEntity
  8
0
100
AcDbCircle
 10
1125.999934549498
 20
1550.0
 30
0.0
 40
7.0
100
AcDbArc
 50
0.0
 51
90.0
  0
ARC
  5
297E
330
6AE4
100
AcDbEntity
  8
0
100
AcDbCircle
 10
1118.392239549499
 20
1588.109520999999
 30
0.0
 40
5.090450299999996
100
AcDbArc
 50
47.11667999997996
 51
132.8833600000123
  0
ARC
  5
297F
330
6AE4
100
AcDbEntity
  8
0
100
AcDbCircle
 10
1107.999934549498
 20
1574.87879
 30
0.0
 40
18.321183
100
AcDbArc
 50
67.78066999999825
 51
112.2192899999792
  0
LINE
  5
2980
330
6AE4
100
AcDbEntity
  8
0
100
AcDbLine
 10
1101.071731319222
 20
1575.499999999999
 30
0.0
 11
1101.071731319222
 21
1568.999999999999
 31
0.0
  0
LINE
  5
2981
330
6AE4
100
AcDbEntity
  8
0
100
AcDbLine
 10
1099.499934549498
 20
1580.0
 30
0.0
 11
1099.499934549498
 21
1575.5
 31
0.0
  0
ARC
  5
2982
330
6AE4
100
AcDbEntity
  8
0
100
AcDbCircle
 10
1118.392239394911
 20
1568.964285714285
 30
0.0
 40
3.464285714285712
100
AcDbArc
 50
179.4093113971838
 51
0.5906886028161921
  0
LINE
  5
2983
330
6AE4
100
AcDbEntity
  8
0
100
AcDbLine
 10
1121.856341010048
 20
1575.499999999999
 30
0.0
 11
1121.856341010048
 21
1568.999999999999
 31
0.0
  0
LINE
  5
2984
330
6AE4
100
AcDbEntity
  8
0
100
AcDbLine
 10
1114.928137779773
 20
1575.499999999999
 30
0.0
 11
1114.928137779773
 21
1568.999999999999
 31
0.0
  0
ARC
  5
2985
330
6AE4
100
AcDbEntity
  8
0
100
AcDbCircle
 10
1118.392239549499
 20
1588.290448999998
 30
0.0
 40
5.090450299999996
100
AcDbArc
 50
227.1166380000248
 51
312.8833100000215
  0
LINE
  5
2986
330
6AE4
100
AcDbEntity
  8
0
100
AcDbLine
 10
1122.999934549498
 20
1579.999999999999
 30
0.0
 11
1122.999934549498
 21
1583.2
 31
0.0
  0
LINE
  5
2987
330
6AE4
100
AcDbEntity
  8
0
100
AcDbLine
 10
1116.499934549499
 20
1579.999999999999
 30
0.0
 11
1116.499934549499
 21
1575.499999999999
 31
0.0
  0
ARC
  5
2988
330
6AE4
100
AcDbEntity
  8
0
100
AcDbCircle
 10
1107.999934549498
 20
1574.107142857142
 30
0.0
 40
8.607142857142848
100
AcDbArc
 50
216.3958791981003
 51
323.6041208018996
  0
ARC
  5
2989
330
6AE4
100
AcDbEntity
  8
0
100
AcDbCircle
 10
1107.999934549498
 20
1601.521172999999
 30
0.0
 40
18.321183
100
AcDbArc
 50
247.7807000000199
 51
292.2193200000009
  0
LINE
  5
298A
330
6AE4
100
AcDbEntity
  8
0
100
AcDbLine
 10
1101.071744549499
 20
1591.839508999998
 30
0.0
 11
1101.071744549499
 21
1584.56046
 31
0.0
  0
LINE
  5
298B
330
6AE4
100
AcDbEntity
  8
0
100
AcDbLine
 10
1121.856328549499
 20
1591.839502999999
 30
0.0
 11
1121.856328549499
 21
1584.560467
 31
0.0
  0
LINE
  5
298C
330
6AE4
100
AcDbEntity
  8
0
100
AcDbLine
 10
1114.928143549499
 20
1591.839508999998
 30
0.0
 11
1114.928143549499
 21
1584.56046
 31
0.0
  0
LINE
  5
298D
330
6AE4
100
AcDbEntity
  8
0
100
AcDbLine
 10
1139.999934549498
 20
1544.999999999999
 30
0.0
 11
1139.999934549498
 21
1579.999999999999
 31
0.0
  0
LINE
  5
298E
330
6AE4
100
AcDbEntity
  8
0
100
AcDbLine
 10
1139.999934549498
 20
1682.0
 30
0.0
 11
1139.999934549498
 21
1612.0
 31
0.0
  0
ARC
  5
298F
330
6AE4
100
AcDbEntity
  8
0
100
AcDbCircle
 10
1130.999934549498
 20
1657.3
 30
0.0
 40
2.0
100
AcDbArc
 50
270.0
 51
0.0
  0
ARC
  5
2990
330
6AE4
100
AcDbEntity
  8
0
100
AcDbCircle
 10
1118.13386580218
 20
1657.3
 30
0.0
 40
2.0
100
AcDbArc
 50
172.3377443392412
 51
270.0
  0
LINE
  5
2991
330
6AE4
100
AcDbEntity
  8
0
100
AcDbLine
 10
1130.999934549498
 20
1655.3
 30
0.0
 11
1118.13386580218
 21
1655.3
 31
0.0
  0
LINE
  5
2992
330
6AE4
100
AcDbEntity
  8
0
100
AcDbLine
 10
1129.499934549498
 20
1608.5
 30
0.0
 11
1107.999934549498
 21
1608.499999999999
 31
0.0
  0
LINE
  5
2993
330
6AE4
100
AcDbEntity
  8
0
100
AcDbLine
 10
1139.999934549498
 20
1612.0
 30
0.0
 11
1107.999934549498
 21
1611.999999999999
 31
0.0
  0
LINE
  5
2994
330
6AE4
100
AcDbEntity
  8
0
100
AcDbLine
 10
1139.999934549498
 20
1616.5
 30
0.0
 11
1107.999934549498
 21
1616.499999999999
 31
0.0
  0
LINE
  5
2995
330
6AE4
100
AcDbEntity
  8
0
100
AcDbLine
 10
1127.999934549499
 20
1600.999999999999
 30
0.0
 11
1107.999934549498
 21
1600.999999999999
 31
0.0
  0
LINE
  5
2996
330
6AE4
100
AcDbEntity
  8
0
100
AcDbLine
 10
1101.071718154193
 20
1627.639521999999
 30
0.0
 11
1101.071718154193
 21
1616.499999999999
 31
0.0
  0
LINE
  5
2997
330
6AE4
100
AcDbEntity
  8
0
100
AcDbLine
 10
1121.856318154193
 20
1627.639521999999
 30
0.0
 11
1121.856318154193
 21
1616.499999999999
 31
0.0
  0
LINE
  5
2998
330
6AE4
100
AcDbEntity
  8
0
100
AcDbLine
 10
1114.928138154193
 20
1627.639521999999
 30
0.0
 11
1114.928138154193
 21
1616.499999999999
 31
0.0
  0
ARC
  5
2999
330
6AE4
100
AcDbEntity
  8
0
100
AcDbCircle
 10
1118.392228154194
 20
1623.909533999999
 30
0.0
 40
5.090450299999996
100
AcDbArc
 50
47.11667999997996
 51
132.8833600000123
  0
LINE
  5
299A
330
6AE4
100
AcDbEntity
  8
0
100
AcDbLine
 10
1119.799934549497
 20
1608.499999999999
 30
0.0
 11
1119.799934549499
 21
1611.999999999999
 31
0.0
  0
ARC
  5
299B
330
6AE4
100
AcDbEntity
  8
0
100
AcDbCircle
 10
1107.999928154193
 20
1610.67882
 30
0.0
 40
18.321183
100
AcDbArc
 50
67.78066999999825
 51
112.2192899999792
  0
LINE
  5
299C
330
6AE4
100
AcDbEntity
  8
0
100
AcDbLine
 10
1129.499934549498
 20
1608.5
 30
0.0
 11
1129.499934549498
 21
1600.999999999999
 31
0.0
  0
LINE
  5
299D
330
6AE4
100
AcDbEntity
  8
0
100
AcDbLine
 10
1129.499934549498
 20
1600.999999999999
 30
0.0
 11
1127.999934549499
 21
1600.999999999999
 31
0.0
  0
ARC
  5
299E
330
6AE4
100
AcDbEntity
  8
0
100
AcDbCircle
 10
1132.999934549498
 20
1655.3
 30
0.0
 40
17.0
100
AcDbArc
 50
97.66225566075878
 51
172.3377443392412
  0
ARC
  5
299F
330
6AE4
100
AcDbEntity
  8
0
100
AcDbCircle
 10
1130.999934549498
 20
1670.166068747319
 30
0.0
 40
2.0
100
AcDbArc
 50
0.0
 51
97.66225566075878
  0
LINE
  5
29A0
330
6AE4
100
AcDbEntity
  8
0
100
AcDbLine
 10
1132.999934549498
 20
1657.3
 30
0.0
 11
1132.999934549498
 21
1670.166068747319
 31
0.0
  0
TEXT
  5
29A1
330
6AE4
100
AcDbEntity
  8
0
100
AcDbText
 10
1226.115927864733
 20
2221.491978762596
 30
0.0
 40
24.0
  1
「配管側」ラベル
 50
89.99999656979346
100
AcDbText
  0
LINE
  5
29A3
330
6AE4
100
AcDbEntity
  8
0
100
AcDbLine
 10
1139.999955423524
 20
2137.000031738607
 30
0.0
 11
1139.999955423524
 21
2362.999955017667
 31
0.0
  0
LINE
  5
29A4
330
6AE4
100
AcDbEntity
  8
0
100
AcDbLine
 10
1109.999955423524
 20
2137.000031738607
 30
0.0
 11
1109.999955423524
 21
2362.999955017667
 31
0.0
  0
LINE
  5
29A7
330
6AE4
100
AcDbEntity
  8
0
100
AcDbLine
 10
1139.99997629755
 20
2132.500031738607
 30
0.0
 11
1072.99997629755
 21
2132.500031738607
 31
0.0
  0
LINE
  5
29A8
330
6AE4
100
AcDbEntity
  8
0
100
AcDbLine
 10
1139.99997629755
 20
2137.000031738607
 30
0.0
 11
1072.99997629755
 21
2137.000031738607
 31
0.0
  0
LINE
  5
29A9
330
6AE4
100
AcDbEntity
  8
0
100
AcDbLine
 10
1078.974102278928
 20
2102.000033833997
 30
0.0
 11
1137.025850316172
 21
2102.000033833997
 31
0.0
  0
LINE
  5
29AA
330
6AE4
100
AcDbEntity
  8
0
100
AcDbLine
 10
1116.49999712157
 20
2070.000075397899
 30
0.0
 11
1072.99997629755
 21
2070.000037654343
 31
0.0
  0
CIRCLE
  5
29AB
330
6AE4
100
AcDbEntity
  8
0
100
AcDbCircle
 10
1107.99997629755
 20
2102.000033833997
 30
0.0
 40
21.0
  0
CIRCLE
  5
29AC
330
6AE4
100
AcDbEntity
  8
0
100
AcDbCircle
 10
995.0000208740258
 20
2089.999960361297
 30
0.0
 40
6.0
  0
LINE
  5
29AD
330
6AE4
100
AcDbEntity
  8
0
100
AcDbLine
 10
994.999955423524
 20
2111.935804237283
 30
0.0
 11
994.999955423524
 21
2068.064248374235
 31
0.0
  0
LINE
  5
29AE
330
6AE4
100
AcDbEntity
  8
0
100
AcDbLine
 10
1072.99997629755
 20
2137.000031738607
 30
0.0
 11
1072.99997629755
 21
2070.000037654343
 31
0.0
  0
LINE
  5
29AF
330
6AE4
100
AcDbEntity
  8
0
100
AcDbLine
 10
1077.49997629755
 20
2132.500031738607
 30
0.0
 11
1077.49997629755
 21
2070.000037654343
 31
0.0
  0
ARC
  5
29B0
330
6AE4
100
AcDbEntity
  8
0
100
AcDbCircle
 10
1115.99997629755
 20
2094.000075397891
 30
0.0
 40
24.0
100
AcDbArc
 50
270.0000497136854
 51
0.0
  0
LINE
  5
29B1
330
6AE4
100
AcDbEntity
  8
0
100
AcDbLine
 10
1139.99997629755
 20
2093.500075397891
 30
0.0
 11
1139.99997629755
 21
2137.000031738607
 31
0.0
  0
LINE
  5
29B2
330
6AE4
100
AcDbEntity
  8
0
100
AcDbLine
 10
1107.99997629755
 20
2072.974159815375
 30
0.0
 11
1107.99997629755
 21
2131.02590785262
 31
0.0
  0
LINE
  5
29B4
330
6AE4
100
AcDbEntity
  8
0
100
AcDbLine
 10
1078.974102278928
 20
2397.999952922278
 30
0.0
 11
1137.025850316172
 21
2397.999952922278
 31
0.0
  0
LINE
  5
29B5
330
6AE4
100
AcDbEntity
  8
0
100
AcDbLine
 10
1139.99997629755
 20
2367.499955017667
 30
0.0
 11
1072.99997629755
 21
2367.499955017667
 31
0.0
  0
LINE
  5
29B6
330
6AE4
100
AcDbEntity
  8
0
100
AcDbLine
 10
1139.99997629755
 20
2362.999955017667
 30
0.0
 11
1072.99997629755
 21
2362.999955017667
 31
0.0
  0
LINE
  5
29B7
330
6AE4
100
AcDbEntity
  8
0
100
AcDbLine
 10
1140.726924517488
 20
2244.423997047517
 30
0.0
 11
1214.498287469312
 21
2190.505655513153
 31
0.0
  0
LINE
  5
29B9
330
6AE4
100
AcDbEntity
  8
0
100
AcDbLine
 10
1214.498287469312
 20
2190.505655513153
 30
0.0
 11
1214.498287469312
 21
2215.174317623189
 31
0.0
  0
LINE
  5
29BA
330
6AE4
100
AcDbEntity
  8
0
100
AcDbLine
 10
1139.99997629755
 20
2406.499911358386
 30
0.0
 11
1139.99997629755
 21
2362.999955017667
 31
0.0
  0
TEXT
  5
29BB
330
6AE4
100
AcDbEntity
  8
0
100
AcDbText
 10
565.5084324796953
 20
2539.378324638053
 30
0.0
 40
25.0
  1
4-φ12＜機器取付穴＞
100
AcDbText
  0
LINE
  5
29BC
330
6AE4
100
AcDbEntity
  8
0
100
AcDbLine
 10
551.6932394872967
 20
2529.999973998448
 30
0.0
 11
901.9407883097343
 21
2529.999973998448
 31
0.0
  0
LINE
  5
29BE
330
6AE4
100
AcDbEntity
  8
0
100
AcDbLine
 10
1116.49999712157
 20
2429.999911358378
 30
0.0
 11
1072.99997629755
 21
2429.999949101933
 31
0.0
  0
LINE
  5
3B40
330
6AE4
100
AcDbEntity
  8
0
100
AcDbLine
 10
524.9999554235246
 20
2370.000019772024
 30
0.0
 11
524.9999554235246
 21
2129.999966984252
 31
0.0
  0
LINE
  5
3B42
330
6AE4
100
AcDbEntity
  8
0
100
AcDbLine
 10
464.9999554235247
 20
2370.000034635712
 30
0.0
 11
464.9999554235247
 21
2129.999952120564
 31
0.0
  0
LINE
  5
3B4B
330
6AE4
100
AcDbEntity
  8
0
100
AcDbLine
 10
1024.999955423524
 20
2370.000019772024
 30
0.0
 11
1024.999955423524
 21
2129.999966984252
 31
0.0
  0
LINE
  5
3B4D
330
6AE4
100
AcDbEntity
  8
0
100
AcDbLine
 10
964.9999554235249
 20
2370.000034635712
 30
0.0
 11
964.9999554235249
 21
2129.999952120564
 31
0.0
  0
LINE
  5
442F
330
6AE4
100
AcDbEntity
  8
0
100
AcDbLine
 10
1592.156168583049
 20
2136.985274707769
 30
0.0
 11
1592.156168583049
 21
2362.999993422745
 31
0.0
  0
LINE
  5
4430
330
6AE4
100
AcDbEntity
  8
0
100
AcDbLine
 10
1482.156168583048
 20
2136.999993333531
 30
0.0
 11
1482.156168583048
 21
2362.999993422745
 31
0.0
  0
LINE
  5
4431
330
6AE4
100
AcDbEntity
  8
0
100
AcDbLine
 10
1512.156168583048
 20
2136.999993333531
 30
0.0
 11
1512.156168583048
 21
2362.999993422745
 31
0.0
  0
LINE
  5
4432
330
6AE4
100
AcDbEntity
  8
0
100
AcDbLine
 10
1622.156168583049
 20
2136.999993333531
 30
0.0
 11
1622.156168583049
 21
2362.999993422743
 31
0.0
  0
LINE
  5
4433
330
6AE4
100
AcDbEntity
  8
0
100
AcDbLine
 10
1563.156168583049
 20
2109.973449294909
 30
0.0
 11
1570.956198583048
 21
2109.975085858064
 31
0.0
  0
LINE
  5
4434
330
6AE4
100
AcDbEntity
  8
0
100
AcDbLine
 10
1563.156168583048
 20
2093.97344871847
 30
0.0
 11
1570.956198583048
 21
2093.975085281627
 31
0.0
  0
LINE
  5
4435
330
6AE4
100
AcDbEntity
  8
0
100
AcDbLine
 10
1525.496625280777
 20
2101.99999333353
 30
0.0
 11
1604.779999853567
 21
2101.99999333353
 31
0.0
  0
ARC
  5
4436
330
6AE4
100
AcDbEntity
  8
0
100
AcDbCircle
 10
1576.046647583048
 20
2091.60768833353
 30
0.0
 40
5.090450299999996
100
AcDbArc
 50
137.1166399999829
 51
222.8833200000158
  0
ARC
  5
4437
330
6AE4
100
AcDbEntity
  8
0
100
AcDbCircle
 10
1595.191882868762
 20
2091.607688488118
 30
0.0
 40
3.464285714285712
100
AcDbArc
 50
269.4093113971837
 51
90.59068860281616
  0
ARC
  5
4438
330
6AE4
100
AcDbEntity
  8
0
100
AcDbCircle
 10
1575.865719583049
 20
2091.60768833353
 30
0.0
 40
5.090450299999996
100
AcDbArc
 50
317.116689999979
 51
42.88336199997586
  0
LINE
  5
4439
330
6AE4
100
AcDbEntity
  8
0
100
AcDbLine
 10
1622.156168583049
 20
2136.999993333531
 30
0.0
 11
1622.156168583049
 21
2076.299993333531
 31
0.0
  0
LINE
  5
443A
330
6AE4
100
AcDbEntity
  8
0
100
AcDbLine
 10
1580.956168583048
 20
2086.999993333531
 30
0.0
 11
1580.956168583048
 21
2116.999993333529
 31
0.0
  0
LINE
  5
443B
330
6AE4
100
AcDbEntity
  8
0
100
AcDbLine
 10
1607.156168583048
 20
2083.999993333531
 30
0.0
 11
1607.156168583048
 21
2114.999993333531
 31
0.0
  0
LINE
  5
443C
330
6AE4
100
AcDbEntity
  8
0
100
AcDbLine
 10
1584.156168583049
 20
2069.999993333532
 30
0.0
 11
1584.156168583048
 21
2128.499993333531
 31
0.0
  0
LINE
  5
443D
330
6AE4
100
AcDbEntity
  8
0
100
AcDbLine
 10
1588.656168583049
 20
2069.999993333532
 30
0.0
 11
1588.656168583048
 21
2128.499993333531
 31
0.0
  0
LINE
  5
443E
330
6AE4
100
AcDbEntity
  8
0
100
AcDbLine
 10
1621.156168583049
 20
2076.999993333531
 30
0.0
 11
1614.156168583048
 21
2076.999993333531
 31
0.0
  0
ARC
  5
443F
330
6AE4
100
AcDbEntity
  8
0
100
AcDbCircle
 10
1619.156168583048
 20
2072.999993333531
 30
0.0
 40
3.0
100
AcDbArc
 50
270.0
 51
0.0
  0
ARC
  5
4440
330
6AE4
100
AcDbEntity
  8
0
100
AcDbCircle
 10
1621.156168583049
 20
2075.999993333531
 30
0.0
 40
1.0
100
AcDbArc
 50
0.0
 51
90.0
  0
LINE
  5
4441
330
6AE4
100
AcDbEntity
  8
0
100
AcDbLine
 10
1622.156168583049
 20
2075.999993333531
 30
0.0
 11
1622.156168583049
 21
2072.999993333531
 31
0.0
  0
LINE
  5
4442
330
6AE4
100
AcDbEntity
  8
0
100
AcDbLine
 10
1588.656168583048
 20
2088.14358687298
 30
0.0
 11
1595.156168583048
 21
2088.14358687298
 31
0.0
  0
LINE
  5
4443
330
6AE4
100
AcDbEntity
  8
0
100
AcDbLine
 10
1584.156168583048
 20
2086.999993333531
 30
0.0
 11
1580.956168583048
 21
2086.999993333531
 31
0.0
  0
LINE
  5
4444
330
6AE4
100
AcDbEntity
  8
0
100
AcDbLine
 10
1619.156168583048
 20
2069.999993333532
 30
0.0
 11
1584.156168583049
 21
2069.999993333532
 31
0.0
  0
ARC
  5
4445
330
6AE4
100
AcDbEntity
  8
0
100
AcDbCircle
 10
1614.156168583048
 20
2083.999993333531
 30
0.0
 40
7.0
100
AcDbArc
 50
180.0
 51
270.0
  0
LINE
  5
4446
330
6AE4
100
AcDbEntity
  8
0
100
AcDbLine
 10
1572.316665583049
 20
2088.143599333529
 30
0.0
 11
1579.595701583048
 21
2088.143599333529
 31
0.0
  0
LINE
  5
4447
330
6AE4
100
AcDbEntity
  8
0
100
AcDbLine
 10
1621.156168583048
 20
2121.999993333531
 30
0.0
 11
1614.156168583048
 21
2121.999993333531
 31
0.0
  0
LINE
  5
4448
330
6AE4
100
AcDbEntity
  8
0
100
AcDbLine
 10
1622.156168583049
 20
2132.499993333532
 30
0.0
 11
1592.656168583048
 21
2132.499993333532
 31
0.0
  0
LINE
  5
4449
330
6AE4
100
AcDbEntity
  8
0
100
AcDbLine
 10
1622.156168583049
 20
2136.999993333531
 30
0.0
 11
1592.656168583048
 21
2136.999993333531
 31
0.0
  0
ARC
  5
444A
330
6AE4
100
AcDbEntity
  8
0
100
AcDbCircle
 10
1621.156168583049
 20
2122.999993333531
 30
0.0
 40
1.0
100
AcDbArc
 50
270.0
 51
0.0
  0
ARC
  5
444B
330
6AE4
100
AcDbEntity
  8
0
100
AcDbCircle
 10
1614.156168583048
 20
2114.999993333531
 30
0.0
 40
7.0
100
AcDbArc
 50
90.0
 51
180.0
  0
ARC
  5
444C
330
6AE4
100
AcDbEntity
  8
0
100
AcDbCircle
 10
1576.046647583048
 20
2112.392293333531
 30
0.0
 40
5.090450299999996
100
AcDbArc
 50
137.116689999979
 51
222.8833700000026
  0
LINE
  5
444D
330
6AE4
100
AcDbEntity
  8
0
100
AcDbLine
 10
1570.956198583048
 20
2112.392293333531
 30
0.0
 11
1570.956198583048
 21
2091.60768833353
 31
0.0
  0
ARC
  5
444E
330
6AE4
100
AcDbEntity
  8
0
100
AcDbCircle
 10
1589.277378583048
 20
2101.99999333353
 30
0.0
 40
18.321183
100
AcDbArc
 50
157.7807100000153
 51
202.219330000004
  0
LINE
  5
444F
330
6AE4
100
AcDbEntity
  8
0
100
AcDbLine
 10
1588.656168583048
 20
2108.928196563807
 30
0.0
 11
1595.156168583048
 21
2108.928196563807
 31
0.0
  0
LINE
  5
4450
330
6AE4
100
AcDbEntity
  8
0
100
AcDbLine
 10
1595.156168583048
 20
2115.856399794083
 30
0.0
 11
1588.656168583048
 21
2115.856399794083
 31
0.0
  0
ARC
  5
4451
330
6AE4
100
AcDbEntity
  8
0
100
AcDbCircle
 10
1595.191882868762
 20
2112.392298178944
 30
0.0
 40
3.464285714285712
100
AcDbArc
 50
269.4093113971837
 51
90.59068860281616
  0
LINE
  5
4452
330
6AE4
100
AcDbEntity
  8
0
100
AcDbLine
 10
1584.156168583048
 20
2116.999993333529
 30
0.0
 11
1580.956168583048
 21
2116.999993333529
 31
0.0
  0
ARC
  5
4453
330
6AE4
100
AcDbEntity
  8
0
100
AcDbCircle
 10
1575.865719583049
 20
2112.392293333531
 30
0.0
 40
5.090450299999996
100
AcDbArc
 50
317.1166399999829
 51
42.88331699997915
  0
LINE
  5
4454
330
6AE4
100
AcDbEntity
  8
0
100
AcDbLine
 10
1584.156168583048
 20
2110.499993333529
 30
0.0
 11
1588.656168583048
 21
2110.499993333529
 31
0.0
  0
LINE
  5
4455
330
6AE4
100
AcDbEntity
  8
0
100
AcDbLine
 10
1588.656168583048
 20
2095.071790103256
 30
0.0
 11
1595.156168583048
 21
2095.071790103256
 31
0.0
  0
LINE
  5
4456
330
6AE4
100
AcDbEntity
  8
0
100
AcDbLine
 10
1584.156168583048
 20
2093.49999333353
 30
0.0
 11
1588.656168583048
 21
2093.49999333353
 31
0.0
  0
LINE
  5
4457
330
6AE4
100
AcDbEntity
  8
0
100
AcDbLine
 10
1598.656168583048
 20
2091.607688488118
 30
0.0
 11
1598.656168583048
 21
2112.392298178944
 31
0.0
  0
ARC
  5
4458
330
6AE4
100
AcDbEntity
  8
0
100
AcDbCircle
 10
1590.049025725906
 20
2101.999993333532
 30
0.0
 40
8.607142857142848
100
AcDbArc
 50
306.395879198099
 51
53.60412080190093
  0
ARC
  5
4459
330
6AE4
100
AcDbEntity
  8
0
100
AcDbCircle
 10
1562.634995583049
 20
2101.99999333353
 30
0.0
 40
18.321183
100
AcDbArc
 50
337.7806800000032
 51
22.2192999999745
  0
LINE
  5
445A
330
6AE4
100
AcDbEntity
  8
0
100
AcDbLine
 10
1572.316659583048
 20
2108.92818333353
 30
0.0
 11
1579.595708583048
 21
2108.92818333353
 31
0.0
  0
LINE
  5
445B
330
6AE4
100
AcDbEntity
  8
0
100
AcDbLine
 10
1572.316659583048
 20
2115.85637333353
 30
0.0
 11
1579.595708583048
 21
2115.85637333353
 31
0.0
  0
LINE
  5
445C
330
6AE4
100
AcDbEntity
  8
0
100
AcDbLine
 10
1572.316659583048
 20
2095.07178433353
 30
0.0
 11
1579.595708583048
 21
2095.07178433353
 31
0.0
  0
ARC
  5
445D
330
6AE4
100
AcDbEntity
  8
0
100
AcDbCircle
 10
1592.656168583048
 20
2128.499993333531
 30
0.0
 40
4.0
100
AcDbArc
 50
90.0
 51
180.0
  0
ARC
  5
445E
330
6AE4
100
AcDbEntity
  8
0
100
AcDbCircle
 10
1592.656168583048
 20
2128.499993333531
 30
0.0
 40
8.5
100
AcDbArc
 50
90.0
 51
180.0
  0
ARC
  5
445F
330
6AE4
100
AcDbEntity
  8
0
100
AcDbCircle
 10
1540.246634583048
 20
2091.607699728836
 30
0.0
 40
5.090450299999996
100
AcDbArc
 50
137.1166399999829
 51
222.8833200000158
  0
LINE
  5
4460
330
6AE4
100
AcDbEntity
  8
0
100
AcDbLine
 10
1508.856168583047
 20
2078.999993333531
 30
0.0
 11
1508.856168583047
 21
2091.86606208085
 31
0.0
  0
ARC
  5
4461
330
6AE4
100
AcDbEntity
  8
0
100
AcDbCircle
 10
1508.856168583047
 20
2076.999993333531
 30
0.0
 40
17.0
100
AcDbArc
 50
97.66225566075904
 51
172.3377443392417
  0
LINE
  5
4462
330
6AE4
100
AcDbEntity
  8
0
100
AcDbLine
 10
1482.156168583048
 20
2136.999993333531
 30
0.0
 11
1482.156168583048
 21
2069.999993333532
 31
0.0
  0
LINE
  5
4463
330
6AE4
100
AcDbEntity
  8
0
100
AcDbLine
 10
1555.656168583048
 20
2080.499993333529
 30
0.0
 11
1555.656168583049
 21
2101.99999333353
 31
0.0
  0
LINE
  5
4464
330
6AE4
100
AcDbEntity
  8
0
100
AcDbLine
 10
1552.156168583048
 20
2069.999993333532
 30
0.0
 11
1552.156168583049
 21
2101.99999333353
 31
0.0
  0
LINE
  5
4465
330
6AE4
100
AcDbEntity
  8
0
100
AcDbLine
 10
1547.656168583048
 20
2069.999993333532
 30
0.0
 11
1547.656168583049
 21
2101.99999333353
 31
0.0
  0
LINE
  5
4466
330
6AE4
100
AcDbEntity
  8
0
100
AcDbLine
 10
1563.156168583048
 20
2081.999993333529
 30
0.0
 11
1563.156168583048
 21
2101.99999333353
 31
0.0
  0
LINE
  5
4467
330
6AE4
100
AcDbEntity
  8
0
100
AcDbLine
 10
1482.156168583048
 20
2069.999993333532
 30
0.0
 11
1552.156168583048
 21
2069.999993333532
 31
0.0
  0
ARC
  5
4468
330
6AE4
100
AcDbEntity
  8
0
100
AcDbCircle
 10
1506.856168583048
 20
2078.999993333531
 30
0.0
 40
2.0
100
AcDbArc
 50
270.0
 51
0.0
  0
LINE
  5
4469
330
6AE4
100
AcDbEntity
  8
0
100
AcDbLine
 10
1536.516646583048
 20
2088.143609728836
 30
0.0
 11
1547.656168583048
 21
2088.143609728836
 31
0.0
  0
LINE
  5
446A
330
6AE4
100
AcDbEntity
  8
0
100
AcDbLine
 10
1555.656168583048
 20
2080.499993333529
 30
0.0
 11
1563.156168583048
 21
2080.499993333529
 31
0.0
  0
LINE
  5
446B
330
6AE4
100
AcDbEntity
  8
0
100
AcDbLine
 10
1563.156168583048
 20
2080.499993333529
 30
0.0
 11
1563.156168583048
 21
2081.999993333529
 31
0.0
  0
ARC
  5
446C
330
6AE4
100
AcDbEntity
  8
0
100
AcDbCircle
 10
1493.990099835729
 20
2078.999993333531
 30
0.0
 40
2.0
100
AcDbArc
 50
172.3377443392417
 51
270.0
  0
LINE
  5
446D
330
6AE4
100
AcDbEntity
  8
0
100
AcDbLine
 10
1506.856168583048
 20
2076.999993333531
 30
0.0
 11
1493.990099835729
 21
2076.999993333531
 31
0.0
  0
ARC
  5
446E
330
6AE4
100
AcDbEntity
  8
0
100
AcDbCircle
 10
1506.856168583048
 20
2112.133924586213
 30
0.0
 40
2.0
100
AcDbArc
 50
262.3377443392409
 51
0.0
  0
ARC
  5
446F
330
6AE4
100
AcDbEntity
  8
0
100
AcDbCircle
 10
1506.856168583048
 20
2124.999993333532
 30
0.0
 40
2.0
100
AcDbArc
 50
0.0
 51
90.0
  0
LINE
  5
4470
330
6AE4
100
AcDbEntity
  8
0
100
AcDbLine
 10
1482.156168583048
 20
2132.499993333532
 30
0.0
 11
1544.656168583049
 21
2132.499993333532
 31
0.0
  0
LINE
  5
4471
330
6AE4
100
AcDbEntity
  8
0
100
AcDbLine
 10
1482.156168583048
 20
2136.999993333531
 30
0.0
 11
1544.656168583049
 21
2136.999993333531
 31
0.0
  0
ARC
  5
4472
330
6AE4
100
AcDbEntity
  8
0
100
AcDbCircle
 10
1506.856168583048
 20
2091.86606208085
 30
0.0
 40
2.0
100
AcDbArc
 50
0.0
 51
97.66225566075904
  0
LINE
  5
4473
330
6AE4
100
AcDbEntity
  8
0
100
AcDbLine
 10
1547.656168583048
 20
2101.99999333353
 30
0.0
 11
1547.656168583049
 21
2129.499993333531
 31
0.0
  0
LINE
  5
4474
330
6AE4
100
AcDbEntity
  8
0
100
AcDbLine
 10
1552.156168583048
 20
2101.99999333353
 30
0.0
 11
1552.156168583049
 21
2129.49999333353
 31
0.0
  0
LINE
  5
4475
330
6AE4
100
AcDbEntity
  8
0
100
AcDbLine
 10
1555.656168583048
 20
2101.99999333353
 30
0.0
 11
1555.656168583048
 21
2123.499993333529
 31
0.0
  0
LINE
  5
4476
330
6AE4
100
AcDbEntity
  8
0
100
AcDbLine
 10
1563.156168583048
 20
2101.99999333353
 30
0.0
 11
1563.156168583048
 21
2121.999993333529
 31
0.0
  0
LINE
  5
4477
330
6AE4
100
AcDbEntity
  8
0
100
AcDbLine
 10
1508.856168583047
 20
2124.999993333532
 30
0.0
 11
1508.856168583047
 21
2112.133924586213
 31
0.0
  0
LINE
  5
4478
330
6AE4
100
AcDbEntity
  8
0
100
AcDbLine
 10
1536.516646583048
 20
2115.856399728836
 30
0.0
 11
1547.656168583048
 21
2115.856399728836
 31
0.0
  0
LINE
  5
4479
330
6AE4
100
AcDbEntity
  8
0
100
AcDbLine
 10
1536.516646583048
 20
2108.928209728837
 30
0.0
 11
1547.656168583048
 21
2108.928209728837
 31
0.0
  0
ARC
  5
447A
330
6AE4
100
AcDbEntity
  8
0
100
AcDbCircle
 10
1540.246634583048
 20
2112.392309728837
 30
0.0
 40
5.090450299999996
100
AcDbArc
 50
137.116689999979
 51
222.8833700000026
  0
LINE
  5
447B
330
6AE4
100
AcDbEntity
  8
0
100
AcDbLine
 10
1555.656168583048
 20
2113.799993333531
 30
0.0
 11
1552.156168583048
 21
2113.799993333531
 31
0.0
  0
LINE
  5
447C
330
6AE4
100
AcDbEntity
  8
0
100
AcDbLine
 10
1536.516646583048
 20
2095.071789728836
 30
0.0
 11
1547.656168583048
 21
2095.071789728836
 31
0.0
  0
LINE
  5
447D
330
6AE4
100
AcDbEntity
  8
0
100
AcDbLine
 10
1555.656168583048
 20
2090.199993333532
 30
0.0
 11
1552.156168583048
 21
2090.199993333531
 31
0.0
  0
LINE
  5
447E
330
6AE4
100
AcDbEntity
  8
0
100
AcDbLine
 10
1535.156185583048
 20
2112.392309728837
 30
0.0
 11
1535.156185583048
 21
2091.607699728836
 31
0.0
  0
ARC
  5
447F
330
6AE4
100
AcDbEntity
  8
0
100
AcDbCircle
 10
1553.477348583048
 20
2101.999999728837
 30
0.0
 40
18.321183
100
AcDbArc
 50
157.7807100000153
 51
202.219330000004
  0
LINE
  5
4480
330
6AE4
100
AcDbEntity
  8
0
100
AcDbLine
 10
1563.156168583048
 20
2121.999993333529
 30
0.0
 11
1563.156168583048
 21
2123.499993333529
 31
0.0
  0
LINE
  5
4481
330
6AE4
100
AcDbEntity
  8
0
100
AcDbLine
 10
1555.656168583048
 20
2123.499993333529
 30
0.0
 11
1563.156168583048
 21
2123.499993333529
 31
0.0
  0
ARC
  5
4482
330
6AE4
100
AcDbEntity
  8
0
100
AcDbCircle
 10
1544.656168583049
 20
2129.499993333531
 30
0.0
 40
3.0
100
AcDbArc
 50
0.0
 51
90.0
  0
ARC
  5
4483
330
6AE4
100
AcDbEntity
  8
0
100
AcDbCircle
 10
1544.656168583049
 20
2129.499993333531
 30
0.0
 40
7.5
100
AcDbArc
 50
0.0
 51
90.0
  0
ARC
  5
4484
330
6AE4
100
AcDbEntity
  8
0
100
AcDbCircle
 10
1508.856168583047
 20
2126.999993333532
 30
0.0
 40
17.0
100
AcDbArc
 50
187.6622556607582
 51
262.3377443392409
  0
ARC
  5
4485
330
6AE4
100
AcDbEntity
  8
0
100
AcDbCircle
 10
1493.990099835729
 20
2124.999993333531
 30
0.0
 40
2.0
100
AcDbArc
 50
90.0
 51
187.6622556607582
  0
LINE
  5
4486
330
6AE4
100
AcDbEntity
  8
0
100
AcDbLine
 10
1506.856168583048
 20
2126.999993333532
 30
0.0
 11
1493.990099835729
 21
2126.999993333531
 31
0.0
  0
LINE
  5
4487
330
6AE4
100
AcDbEntity
  8
0
100
AcDbLine
 10
1547.656168583048
 20
2397.999993422745
 30
0.0
 11
1547.656168583049
 21
2370.499993422745
 31
0.0
  0
LINE
  5
4488
330
6AE4
100
AcDbEntity
  8
0
100
AcDbLine
 10
1552.156168583048
 20
2397.999993422745
 30
0.0
 11
1552.156168583049
 21
2370.499993422745
 31
0.0
  0
ARC
  5
4489
330
6AE4
100
AcDbEntity
  8
0
100
AcDbCircle
 10
1540.246634583048
 20
2387.607677027439
 30
0.0
 40
5.090450299999996
100
AcDbArc
 50
137.1166299999974
 51
222.8833100000208
  0
LINE
  5
448A
330
6AE4
100
AcDbEntity
  8
0
100
AcDbLine
 10
1555.656168583048
 20
2397.999993422745
 30
0.0
 11
1555.656168583048
 21
2376.499993422745
 31
0.0
  0
LINE
  5
448B
330
6AE4
100
AcDbEntity
  8
0
100
AcDbLine
 10
1563.156168583048
 20
2397.999993422745
 30
0.0
 11
1563.156168583048
 21
2377.999993422745
 31
0.0
  0
ARC
  5
448C
330
6AE4
100
AcDbEntity
  8
0
100
AcDbCircle
 10
1576.046647583048
 20
2387.607693422745
 30
0.0
 40
5.090450299999996
100
AcDbArc
 50
137.1166299999974
 51
222.8833100000208
  0
ARC
  5
448D
330
6AE4
100
AcDbEntity
  8
0
100
AcDbCircle
 10
1506.856168583048
 20
2387.866062170063
 30
0.0
 40
2.0
100
AcDbArc
 50
0.0
 51
97.66225566075904
  0
ARC
  5
448E
330
6AE4
100
AcDbEntity
  8
0
100
AcDbCircle
 10
1508.856168583047
 20
2372.999993422744
 30
0.0
 40
17.0
100
AcDbArc
 50
97.66225566075904
 51
172.3377443392417
  0
LINE
  5
448F
330
6AE4
100
AcDbEntity
  8
0
100
AcDbLine
 10
1482.156168583048
 20
2362.999993422745
 30
0.0
 11
1482.156168583048
 21
2429.999993422744
 31
0.0
  0
LINE
  5
4490
330
6AE4
100
AcDbEntity
  8
0
100
AcDbLine
 10
1535.156185583048
 20
2387.607677027439
 30
0.0
 11
1535.156185583048
 21
2408.39228702744
 31
0.0
  0
LINE
  5
4491
330
6AE4
100
AcDbEntity
  8
0
100
AcDbLine
 10
1570.956198583048
 20
2387.607693422745
 30
0.0
 11
1570.956198583048
 21
2408.392298422745
 31
0.0
  0
ARC
  5
4492
330
6AE4
100
AcDbEntity
  8
0
100
AcDbCircle
 10
1595.191882868762
 20
2387.607688577331
 30
0.0
 40
3.464285714285712
100
AcDbArc
 50
269.4093113971837
 51
90.59068860281616
  0
ARC
  5
4493
330
6AE4
100
AcDbEntity
  8
0
100
AcDbCircle
 10
1575.865719583049
 20
2387.607693422745
 30
0.0
 40
5.090450299999996
100
AcDbArc
 50
317.1166830000208
 51
42.88336000001573
  0
LINE
  5
4494
330
6AE4
100
AcDbEntity
  8
0
100
AcDbLine
 10
1622.156168583049
 20
2362.999993422745
 30
0.0
 11
1622.156168583049
 21
2423.699993422744
 31
0.0
  0
LINE
  5
4495
330
6AE4
100
AcDbEntity
  8
0
100
AcDbLine
 10
1598.656168583048
 20
2408.392298268157
 30
0.0
 11
1598.656168583048
 21
2387.607688577331
 31
0.0
  0
LINE
  5
4496
330
6AE4
100
AcDbEntity
  8
0
100
AcDbLine
 10
1580.956168583048
 20
2412.999993422745
 30
0.0
 11
1580.956168583048
 21
2382.999993422746
 31
0.0
  0
LINE
  5
4497
330
6AE4
100
AcDbEntity
  8
0
100
AcDbLine
 10
1607.156168583048
 20
2415.999993422744
 30
0.0
 11
1607.156168583048
 21
2384.999993422745
 31
0.0
  0
LINE
  5
4498
330
6AE4
100
AcDbEntity
  8
0
100
AcDbLine
 10
1584.156168583049
 20
2429.999993422744
 30
0.0
 11
1584.156168583048
 21
2371.499993422744
 31
0.0
  0
LINE
  5
4499
330
6AE4
100
AcDbEntity
  8
0
100
AcDbLine
 10
1588.656168583049
 20
2429.999993422744
 30
0.0
 11
1588.656168583048
 21
2371.499993422744
 31
0.0
  0
LINE
  5
449A
330
6AE4
100
AcDbEntity
  8
0
100
AcDbLine
 10
1621.156168583048
 20
2377.999993422744
 30
0.0
 11
1614.156168583048
 21
2377.999993422744
 31
0.0
  0
LINE
  5
449B
330
6AE4
100
AcDbEntity
  8
0
100
AcDbLine
 10
1622.156168583049
 20
2367.499993422744
 30
0.0
 11
1592.656168583048
 21
2367.499993422744
 31
0.0
  0
LINE
  5
449C
330
6AE4
100
AcDbEntity
  8
0
100
AcDbLine
 10
1622.156168583049
 20
2362.999993422745
 30
0.0
 11
1592.656168583048
 21
2362.999993422745
 31
0.0
  0
ARC
  5
449D
330
6AE4
100
AcDbEntity
  8
0
100
AcDbCircle
 10
1621.156168583049
 20
2376.999993422745
 30
0.0
 40
1.0
100
AcDbArc
 50
0.0
 51
90.0
  0
ARC
  5
449E
330
6AE4
100
AcDbEntity
  8
0
100
AcDbCircle
 10
1592.656168583048
 20
2371.499993422744
 30
0.0
 40
4.0
100
AcDbArc
 50
180.0
 51
270.0
  0
ARC
  5
449F
330
6AE4
100
AcDbEntity
  8
0
100
AcDbCircle
 10
1592.656168583048
 20
2371.499993422744
 30
0.0
 40
8.5
100
AcDbArc
 50
180.0
 51
270.0
  0
LINE
  5
44A0
330
6AE4
100
AcDbEntity
  8
0
100
AcDbLine
 10
1595.156168583048
 20
2384.143586962192
 30
0.0
 11
1588.656168583048
 21
2384.143586962192
 31
0.0
  0
LINE
  5
44A1
330
6AE4
100
AcDbEntity
  8
0
100
AcDbLine
 10
1584.156168583048
 20
2382.999993422746
 30
0.0
 11
1580.956168583048
 21
2382.999993422746
 31
0.0
  0
ARC
  5
44A2
330
6AE4
100
AcDbEntity
  8
0
100
AcDbCircle
 10
1614.156168583048
 20
2384.999993422745
 30
0.0
 40
7.0
100
AcDbArc
 50
180.0
 51
270.0
  0
LINE
  5
44A3
330
6AE4
100
AcDbEntity
  8
0
100
AcDbLine
 10
1572.316659583048
 20
2384.143613422745
 30
0.0
 11
1579.595708583048
 21
2384.143613422745
 31
0.0
  0
ARC
  5
44A4
330
6AE4
100
AcDbEntity
  8
0
100
AcDbCircle
 10
1506.856168583048
 20
2374.999993422743
 30
0.0
 40
2.0
100
AcDbArc
 50
270.0
 51
0.0
  0
LINE
  5
44A5
330
6AE4
100
AcDbEntity
  8
0
100
AcDbLine
 10
1482.156168583048
 20
2367.499993422744
 30
0.0
 11
1544.656168583049
 21
2367.499993422744
 31
0.0
  0
LINE
  5
44A6
330
6AE4
100
AcDbEntity
  8
0
100
AcDbLine
 10
1482.156168583048
 20
2362.999993422745
 30
0.0
 11
1544.656168583049
 21
2362.999993422745
 31
0.0
  0
LINE
  5
44A7
330
6AE4
100
AcDbEntity
  8
0
100
AcDbLine
 10
1536.516646583048
 20
2384.143587027439
 30
0.0
 11
1547.656168583048
 21
2384.143587027439
 31
0.0
  0
LINE
  5
44A8
330
6AE4
100
AcDbEntity
  8
0
100
AcDbLine
 10
1555.656168583048
 20
2386.199993422745
 30
0.0
 11
1552.156168583048
 21
2386.199993422745
 31
0.0
  0
LINE
  5
44A9
330
6AE4
100
AcDbEntity
  8
0
100
AcDbLine
 10
1563.156168583048
 20
2377.999993422745
 30
0.0
 11
1563.156168583048
 21
2376.499993422745
 31
0.0
  0
LINE
  5
44AA
330
6AE4
100
AcDbEntity
  8
0
100
AcDbLine
 10
1555.656168583048
 20
2376.499993422745
 30
0.0
 11
1563.156168583048
 21
2376.499993422745
 31
0.0
  0
LINE
  5
44AB
330
6AE4
100
AcDbEntity
  8
0
100
AcDbLine
 10
1508.856168583047
 20
2374.999993422743
 30
0.0
 11
1508.856168583047
 21
2387.866062170063
 31
0.0
  0
ARC
  5
44AC
330
6AE4
100
AcDbEntity
  8
0
100
AcDbCircle
 10
1544.656168583049
 20
2370.499993422745
 30
0.0
 40
3.0
100
AcDbArc
 50
270.0
 51
0.0
  0
ARC
  5
44AD
330
6AE4
100
AcDbEntity
  8
0
100
AcDbCircle
 10
1544.656168583049
 20
2370.499993422745
 30
0.0
 40
7.5
100
AcDbArc
 50
270.0
 51
0.0
  0
ARC
  5
44AE
330
6AE4
100
AcDbEntity
  8
0
100
AcDbCircle
 10
1493.990099835729
 20
2374.999993422744
 30
0.0
 40
2.0
100
AcDbArc
 50
172.3377443392417
 51
270.0
  0
LINE
  5
44AF
330
6AE4
100
AcDbEntity
  8
0
100
AcDbLine
 10
1506.856168583048
 20
2372.999993422744
 30
0.0
 11
1493.990099835729
 21
2372.999993422745
 31
0.0
  0
LINE
  5
44B0
330
6AE4
100
AcDbEntity
  8
0
100
AcDbLine
 10
1563.156168583049
 20
2390.026537461366
 30
0.0
 11
1570.956198583048
 21
2390.024900898211
 31
0.0
  0
LINE
  5
44B1
330
6AE4
100
AcDbEntity
  8
0
100
AcDbLine
 10
1563.156168583048
 20
2406.026538037804
 30
0.0
 11
1570.956198583048
 21
2406.024901474649
 31
0.0
  0
LINE
  5
44B2
330
6AE4
100
AcDbEntity
  8
0
100
AcDbLine
 10
1525.496625280777
 20
2397.999993422745
 30
0.0
 11
1604.779999853567
 21
2397.999993422745
 31
0.0
  0
LINE
  5
44B3
330
6AE4
100
AcDbEntity
  8
0
100
AcDbLine
 10
1621.156168583049
 20
2422.999993422744
 30
0.0
 11
1614.156168583048
 21
2422.999993422744
 31
0.0
  0
ARC
  5
44B4
330
6AE4
100
AcDbEntity
  8
0
100
AcDbCircle
 10
1619.156168583048
 20
2426.999993422745
 30
0.0
 40
3.0
100
AcDbArc
 50
0.0
 51
90.0
  0
ARC
  5
44B5
330
6AE4
100
AcDbEntity
  8
0
100
AcDbCircle
 10
1621.156168583049
 20
2423.999993422746
 30
0.0
 40
1.0
100
AcDbArc
 50
270.0
 51
0.0
  0
LINE
  5
44B6
330
6AE4
100
AcDbEntity
  8
0
100
AcDbLine
 10
1622.156168583049
 20
2423.999993422746
 30
0.0
 11
1622.156168583049
 21
2426.999993422745
 31
0.0
  0
ARC
  5
44B7
330
6AE4
100
AcDbEntity
  8
0
100
AcDbCircle
 10
1614.156168583048
 20
2415.999993422744
 30
0.0
 40
7.0
100
AcDbArc
 50
90.0
 51
180.0
  0
ARC
  5
44B8
330
6AE4
100
AcDbEntity
  8
0
100
AcDbCircle
 10
1576.046647583048
 20
2408.392298422745
 30
0.0
 40
5.090450299999996
100
AcDbArc
 50
137.1166799999828
 51
222.8833600000157
  0
ARC
  5
44B9
330
6AE4
100
AcDbEntity
  8
0
100
AcDbCircle
 10
1589.277378583048
 20
2397.999993422745
 30
0.0
 40
18.321183
100
AcDbArc
 50
157.780669999996
 51
202.2192899999847
  0
LINE
  5
44BA
330
6AE4
100
AcDbEntity
  8
0
100
AcDbLine
 10
1588.656168583048
 20
2391.071790192468
 30
0.0
 11
1595.156168583048
 21
2391.071790192468
 31
0.0
  0
LINE
  5
44BB
330
6AE4
100
AcDbEntity
  8
0
100
AcDbLine
 10
1584.156168583048
 20
2389.499993422745
 30
0.0
 11
1588.656168583048
 21
2389.499993422745
 31
0.0
  0
ARC
  5
44BC
330
6AE4
100
AcDbEntity
  8
0
100
AcDbCircle
 10
1595.191882868762
 20
2408.392298268157
 30
0.0
 40
3.464285714285712
100
AcDbArc
 50
269.4093113971837
 51
90.59068860281616
  0
LINE
  5
44BD
330
6AE4
100
AcDbEntity
  8
0
100
AcDbLine
 10
1588.656168583048
 20
2411.856399883295
 30
0.0
 11
1595.156168583048
 21
2411.856399883295
 31
0.0
  0
LINE
  5
44BE
330
6AE4
100
AcDbEntity
  8
0
100
AcDbLine
 10
1588.656168583048
 20
2404.92819665302
 30
0.0
 11
1595.156168583048
 21
2404.92819665302
 31
0.0
  0
ARC
  5
44BF
330
6AE4
100
AcDbEntity
  8
0
100
AcDbCircle
 10
1575.865719583049
 20
2408.392298422745
 30
0.0
 40
5.090450299999996
100
AcDbArc
 50
317.116638000024
 51
42.88331000002086
  0
LINE
  5
44C0
330
6AE4
100
AcDbEntity
  8
0
100
AcDbLine
 10
1584.156168583048
 20
2412.999993422745
 30
0.0
 11
1580.956168583048
 21
2412.999993422745
 31
0.0
  0
LINE
  5
44C1
330
6AE4
100
AcDbEntity
  8
0
100
AcDbLine
 10
1584.156168583048
 20
2406.499993422746
 30
0.0
 11
1588.656168583048
 21
2406.499993422746
 31
0.0
  0
ARC
  5
44C2
330
6AE4
100
AcDbEntity
  8
0
100
AcDbCircle
 10
1590.049025725906
 20
2397.999993422744
 30
0.0
 40
8.607142857142848
100
AcDbArc
 50
306.395879198099
 51
53.60412080190093
  0
ARC
  5
44C3
330
6AE4
100
AcDbEntity
  8
0
100
AcDbCircle
 10
1562.634995583049
 20
2397.999993422745
 30
0.0
 40
18.321183
100
AcDbArc
 50
337.7807000000256
 51
22.21932000000116
  0
LINE
  5
44C4
330
6AE4
100
AcDbEntity
  8
0
100
AcDbLine
 10
1572.316659583048
 20
2391.071803422745
 30
0.0
 11
1579.595708583048
 21
2391.071803422745
 31
0.0
  0
LINE
  5
44C5
330
6AE4
100
AcDbEntity
  8
0
100
AcDbLine
 10
1572.316665583049
 20
2411.856387422745
 30
0.0
 11
1579.595701583048
 21
2411.856387422745
 31
0.0
  0
LINE
  5
44C6
330
6AE4
100
AcDbEntity
  8
0
100
AcDbLine
 10
1572.316659583048
 20
2404.928202422745
 30
0.0
 11
1579.595708583048
 21
2404.928202422745
 31
0.0
  0
LINE
  5
44C7
330
6AE4
100
AcDbEntity
  8
0
100
AcDbLine
 10
1619.156168583048
 20
2429.999993422744
 30
0.0
 11
1584.156168583049
 21
2429.999993422744
 31
0.0
  0
LINE
  5
44C8
330
6AE4
100
AcDbEntity
  8
0
100
AcDbLine
 10
1482.156168583048
 20
2429.999993422744
 30
0.0
 11
1552.156168583048
 21
2429.999993422744
 31
0.0
  0
ARC
  5
44C9
330
6AE4
100
AcDbEntity
  8
0
100
AcDbCircle
 10
1506.856168583048
 20
2420.999993422745
 30
0.0
 40
2.0
100
AcDbArc
 50
0.0
 51
90.0
  0
ARC
  5
44CA
330
6AE4
100
AcDbEntity
  8
0
100
AcDbCircle
 10
1506.856168583048
 20
2408.133924675426
 30
0.0
 40
2.0
100
AcDbArc
 50
262.3377443392409
 51
0.0
  0
LINE
  5
44CB
330
6AE4
100
AcDbEntity
  8
0
100
AcDbLine
 10
1508.856168583047
 20
2420.999993422745
 30
0.0
 11
1508.856168583047
 21
2408.133924675426
 31
0.0
  0
LINE
  5
44CC
330
6AE4
100
AcDbEntity
  8
0
100
AcDbLine
 10
1555.656168583048
 20
2419.499993422745
 30
0.0
 11
1555.656168583049
 21
2397.999993422745
 31
0.0
  0
LINE
  5
44CD
330
6AE4
100
AcDbEntity
  8
0
100
AcDbLine
 10
1552.156168583048
 20
2429.999993422744
 30
0.0
 11
1552.156168583049
 21
2397.999993422745
 31
0.0
  0
LINE
  5
44CE
330
6AE4
100
AcDbEntity
  8
0
100
AcDbLine
 10
1547.656168583048
 20
2429.999993422744
 30
0.0
 11
1547.656168583049
 21
2397.999993422745
 31
0.0
  0
LINE
  5
44CF
330
6AE4
100
AcDbEntity
  8
0
100
AcDbLine
 10
1563.156168583048
 20
2417.999993422745
 30
0.0
 11
1563.156168583048
 21
2397.999993422745
 31
0.0
  0
LINE
  5
44D0
330
6AE4
100
AcDbEntity
  8
0
100
AcDbLine
 10
1536.516646583048
 20
2391.07177702744
 30
0.0
 11
1547.656168583048
 21
2391.07177702744
 31
0.0
  0
LINE
  5
44D1
330
6AE4
100
AcDbEntity
  8
0
100
AcDbLine
 10
1536.516646583048
 20
2411.856377027441
 30
0.0
 11
1547.656168583048
 21
2411.856377027441
 31
0.0
  0
LINE
  5
44D2
330
6AE4
100
AcDbEntity
  8
0
100
AcDbLine
 10
1536.516646583048
 20
2404.92819702744
 30
0.0
 11
1547.656168583048
 21
2404.92819702744
 31
0.0
  0
ARC
  5
44D3
330
6AE4
100
AcDbEntity
  8
0
100
AcDbCircle
 10
1540.246634583048
 20
2408.39228702744
 30
0.0
 40
5.090450299999996
100
AcDbArc
 50
137.1166799999828
 51
222.8833600000157
  0
LINE
  5
44D4
330
6AE4
100
AcDbEntity
  8
0
100
AcDbLine
 10
1555.656168583048
 20
2409.799993422744
 30
0.0
 11
1552.156168583048
 21
2409.799993422744
 31
0.0
  0
ARC
  5
44D5
330
6AE4
100
AcDbEntity
  8
0
100
AcDbCircle
 10
1553.477348583048
 20
2397.99998702744
 30
0.0
 40
18.321183
100
AcDbArc
 50
157.780669999996
 51
202.2192899999847
  0
LINE
  5
44D6
330
6AE4
100
AcDbEntity
  8
0
100
AcDbLine
 10
1555.656168583048
 20
2419.499993422745
 30
0.0
 11
1563.156168583048
 21
2419.499993422745
 31
0.0
  0
LINE
  5
44D7
330
6AE4
100
AcDbEntity
  8
0
100
AcDbLine
 10
1563.156168583048
 20
2419.499993422745
 30
0.0
 11
1563.156168583048
 21
2417.999993422745
 31
0.0
  0
ARC
  5
44D8
330
6AE4
100
AcDbEntity
  8
0
100
AcDbCircle
 10
1508.856168583047
 20
2422.999993422744
 30
0.0
 40
17.0
100
AcDbArc
 50
187.6622556607582
 51
262.3377443392409
  0
ARC
  5
44D9
330
6AE4
100
AcDbEntity
  8
0
100
AcDbCircle
 10
1493.990099835729
 20
2420.999993422745
 30
0.0
 40
2.0
100
AcDbArc
 50
90.0
 51
187.6622556607582
  0
LINE
  5
44DA
330
6AE4
100
AcDbEntity
  8
0
100
AcDbLine
 10
1506.856168583048
 20
2422.999993422744
 30
0.0
 11
1493.990099835729
 21
2422.999993422744
 31
0.0
  0
LINE
  5
4CF3
330
6AE4
100
AcDbEntity
  8
0
100
AcDbLine
 10
80.0
 20
2808.0
 30
0.0
 11
1880.0
 21
2808.0
 31
0.0
  0
LINE
  5
4D0C
330
6AE4
100
AcDbEntity
  8
0
100
AcDbLine
 10
80.0
 20
2808.0
 30
0.0
 11
80.0
 21
-0.0000000000000089
 31
0.0
  0
LINE
  5
4D0D
330
6AE4
100
AcDbEntity
  8
0
100
AcDbLine
 10
1880.0
 20
2808.0
 30
0.0
 11
1880.0
 21
-0.000000000000453
 31
0.0
  0
LINE
  5
4D95
330
6AE4
100
AcDbEntity
  8
0
100
AcDbLine
 10
80.0
 20
0.0
 30
0.0
 11
1880.0
 21
0.0
 31
0.0
  0
LINE
  5
4D96
330
6AE4
100
AcDbEntity
  8
0
100
AcDbLine
 10
80.0
 20
0.0
 30
0.0
 11
1880.0
 21
0.0
 31
0.0
  0
LINE
  5
5BF7
330
6AE4
100
AcDbEntity
  8
0
100
AcDbLine
 10
1117.564675212774
 20
2293.67186263021
 30
0.0
 11
1132.231552065189
 21
2293.67186263021
 31
0.0
  0
LINE
  5
5BF8
330
6AE4
100
AcDbEntity
  8
0
100
AcDbLine
 10
1117.564675212774
 20
2220.714841789236
 30
0.0
 11
1132.231552065189
 21
2220.714841789236
 31
0.0
  0
LINE
  5
5BF9
330
6AE4
100
AcDbEntity
  8
0
100
AcDbLine
 10
1117.564675212774
 20
2293.67186263021
 30
0.0
 11
1117.564675212774
 21
2220.714841789236
 31
0.0
  0
LINE
  5
5BFA
330
6AE4
100
AcDbEntity
  8
0
100
AcDbLine
 10
1132.231552065189
 20
2293.67186263021
 30
0.0
 11
1132.231552065189
 21
2220.714841789236
 31
0.0
  0
ARC
  5
5EA5
330
6AE4
100
AcDbEntity
  8
0
100
AcDbCircle
 10
594.9995812271065
 20
1602.499999999607
 30
0.0
 40
1.0
100
AcDbArc
 50
270.0
 51
90.0
  0
ARC
  5
5EA6
330
6AE4
100
AcDbEntity
  8
0
100
AcDbCircle
 10
584.9995812271068
 20
1624.243557214409
 30
0.0
 40
10.0
100
AcDbArc
 50
0.0
 51
14.32271997981449
  0
LINE
  5
5EA7
330
6AE4
100
AcDbEntity
  8
0
100
AcDbLine
 10
594.9995812271065
 20
1593.499999999608
 30
0.0
 11
594.9995812271065
 21
1601.499999999608
 31
0.0
  0
LINE
  5
5EA8
330
6AE4
100
AcDbEntity
  8
0
100
AcDbLine
 10
594.9995812271065
 20
1603.499999999607
 30
0.0
 11
594.9995812271065
 21
1624.243557214409
 31
0.0
  0
LINE
  5
5EA9
330
6AE4
100
AcDbEntity
  8
0
100
AcDbLine
 10
594.6887583332065
 20
1626.717389667408
 30
0.0
 11
588.9995812264063
 21
1649.000000000009
 31
0.0
  0
ARC
  5
5EAA
330
6AE4
100
AcDbEntity
  8
0
100
AcDbCircle
 10
587.9995812264063
 20
1650.000000000008
 30
0.0
 40
1.0
100
AcDbArc
 50
0.0
 51
90.0
  0
LINE
  5
5EAB
330
6AE4
100
AcDbEntity
  8
0
100
AcDbLine
 10
588.9995812264063
 20
1649.000000000009
 30
0.0
 11
588.9995812264063
 21
1650.000000000008
 31
0.0
  0
LINE
  5
5EAC
330
6AE4
100
AcDbEntity
  8
0
100
AcDbLine
 10
559.9995812277069
 20
1603.499999999607
 30
0.0
 11
594.9995812271065
 21
1603.499999999607
 31
0.0
  0
LINE
  5
5EAD
330
6AE4
100
AcDbEntity
  8
0
100
AcDbLine
 10
559.9995812277069
 20
1601.499999999608
 30
0.0
 11
594.9995812271065
 21
1601.499999999608
 31
0.0
  0
LINE
  5
5EAE
330
6AE4
100
AcDbEntity
  8
0
100
AcDbLine
 10
559.9995812277069
 20
1593.499999999608
 30
0.0
 11
594.9995812271065
 21
1593.499999999608
 31
0.0
  0
LINE
  5
5EAF
330
6AE4
100
AcDbEntity
  8
0
100
AcDbLine
 10
559.9995812277069
 20
1651.000000000008
 30
0.0
 11
587.9995812264063
 21
1651.000000000008
 31
0.0
  0
LINE
  5
5EB0
330
6AE4
100
AcDbEntity
  8
0
100
AcDbLine
 10
589.9995812280908
 20
1560.999999999999
 30
0.0
 11
559.9995812277069
 21
1560.999999999999
 31
0.0
  0
LINE
  5
5EB1
330
6AE4
100
AcDbEntity
  8
0
100
AcDbLine
 10
589.9995812280908
 20
1560.999999999999
 30
0.0
 11
589.9995812280908
 21
1573.999999999999
 31
0.0
  0
LINE
  5
5EB3
330
6AE4
100
AcDbEntity
  8
0
100
AcDbLine
 10
588.9995812277069
 20
1573.999999999998
 30
0.0
 11
588.9995812277069
 21
1593.500000000147
 31
0.0
  0
LINE
  5
5EB4
330
6AE4
100
AcDbEntity
  8
0
100
AcDbLine
 10
589.9995812280908
 20
1573.999999999999
 30
0.0
 11
589.9995812280908
 21
1571.999999999999
 31
0.0
  0
LINE
  5
5EB5
330
6AE4
100
AcDbEntity
  8
0
100
AcDbLine
 10
589.9995812280908
 20
1573.999999999999
 30
0.0
 11
559.9995812277069
 21
1573.999999999999
 31
0.0
  0
LINE
  5
5EB6
330
6AE4
100
AcDbEntity
  8
0
100
AcDbLine
 10
559.9995812277069
 20
1593.500000000147
 30
0.0
 11
588.9995812277069
 21
1593.500000000147
 31
0.0
  0
LINE
  5
5EB7
330
6AE4
100
AcDbEntity
  8
0
100
AcDbLine
 10
576.9995812277069
 20
1652.0
 30
0.0
 11
576.9995812277069
 21
1651.000000000008
 31
0.0
  0
LINE
  5
5EB8
330
6AE4
100
AcDbEntity
  8
0
100
AcDbLine
 10
576.9995812277069
 20
1652.0
 30
0.0
 11
559.9995812277069
 21
1652.0
 31
0.0
  0
ARC
  5
5EB9
330
6AE4
100
AcDbEntity
  8
0
100
AcDbCircle
 10
524.9995812283072
 20
1602.499999999607
 30
0.0
 40
1.0
100
AcDbArc
 50
90.0
 51
270.0
  0
ARC
  5
5EBA
330
6AE4
100
AcDbEntity
  8
0
100
AcDbCircle
 10
534.9995812283073
 20
1624.243557214409
 30
0.0
 40
10.0
100
AcDbArc
 50
165.6772800201854
 51
180.0
  0
LINE
  5
5EBB
330
6AE4
100
AcDbEntity
  8
0
100
AcDbLine
 10
524.9995812283072
 20
1593.499999999608
 30
0.0
 11
524.9995812283072
 21
1601.499999999608
 31
0.0
  0
LINE
  5
5EBC
330
6AE4
100
AcDbEntity
  8
0
100
AcDbLine
 10
524.9995812283072
 20
1603.499999999607
 30
0.0
 11
524.9995812283072
 21
1624.243557214409
 31
0.0
  0
LINE
  5
5EBD
330
6AE4
100
AcDbEntity
  8
0
100
AcDbLine
 10
525.310404122207
 20
1626.717389667408
 30
0.0
 11
530.9995812290067
 21
1649.000000000009
 31
0.0
  0
ARC
  5
5EBE
330
6AE4
100
AcDbEntity
  8
0
100
AcDbCircle
 10
531.9995812290065
 20
1650.000000000008
 30
0.0
 40
1.0
100
AcDbArc
 50
90.0
 51
180.0
  0
LINE
  5
5EBF
330
6AE4
100
AcDbEntity
  8
0
100
AcDbLine
 10
530.9995812290067
 20
1649.000000000009
 30
0.0
 11
530.9995812290067
 21
1650.000000000008
 31
0.0
  0
LINE
  5
5EC0
330
6AE4
100
AcDbEntity
  8
0
100
AcDbLine
 10
559.9995812277069
 20
1603.499999999607
 30
0.0
 11
524.9995812283072
 21
1603.499999999607
 31
0.0
  0
LINE
  5
5EC1
330
6AE4
100
AcDbEntity
  8
0
100
AcDbLine
 10
559.9995812277069
 20
1601.499999999608
 30
0.0
 11
524.9995812283072
 21
1601.499999999608
 31
0.0
  0
LINE
  5
5EC2
330
6AE4
100
AcDbEntity
  8
0
100
AcDbLine
 10
559.9995812277069
 20
1593.499999999608
 30
0.0
 11
524.9995812283072
 21
1593.499999999608
 31
0.0
  0
LINE
  5
5EC3
330
6AE4
100
AcDbEntity
  8
0
100
AcDbLine
 10
559.9995812277069
 20
1651.000000000008
 30
0.0
 11
531.9995812290065
 21
1651.000000000008
 31
0.0
  0
LINE
  5
5EC4
330
6AE4
100
AcDbEntity
  8
0
100
AcDbLine
 10
529.999581227323
 20
1560.999999999999
 30
0.0
 11
559.9995812277069
 21
1560.999999999999
 31
0.0
  0
LINE
  5
5EC5
330
6AE4
100
AcDbEntity
  8
0
100
AcDbLine
 10
529.999581227323
 20
1560.999999999999
 30
0.0
 11
529.999581227323
 21
1573.999999999999
 31
0.0
  0
LINE
  5
5EC7
330
6AE4
100
AcDbEntity
  8
0
100
AcDbLine
 10
530.9995812277069
 20
1573.999999999999
 30
0.0
 11
530.9995812277069
 21
1593.500000000147
 31
0.0
  0
LINE
  5
5EC8
330
6AE4
100
AcDbEntity
  8
0
100
AcDbLine
 10
529.999581227323
 20
1573.999999999999
 30
0.0
 11
529.999581227323
 21
1571.999999999999
 31
0.0
  0
LINE
  5
5EC9
330
6AE4
100
AcDbEntity
  8
0
100
AcDbLine
 10
529.999581227323
 20
1573.999999999999
 30
0.0
 11
559.9995812277069
 21
1573.999999999999
 31
0.0
  0
LINE
  5
5ECA
330
6AE4
100
AcDbEntity
  8
0
100
AcDbLine
 10
559.9995812277069
 20
1593.500000000147
 30
0.0
 11
530.9995812277069
 21
1593.500000000147
 31
0.0
  0
LINE
  5
5ECB
330
6AE4
100
AcDbEntity
  8
0
100
AcDbLine
 10
542.9995812277069
 20
1652.0
 30
0.0
 11
542.9995812277069
 21
1651.000000000008
 31
0.0
  0
LINE
  5
5ECC
330
6AE4
100
AcDbEntity
  8
0
100
AcDbLine
 10
542.9995812277069
 20
1652.0
 30
0.0
 11
559.9995812277069
 21
1652.0
 31
0.0
  0
ARC
  5
5ECD
330
6AE4
100
AcDbEntity
  8
0
100
AcDbCircle
 10
965.0003950692431
 20
1602.499999999607
 30
0.0
 40
1.0
100
AcDbArc
 50
270.0
 51
90.0
  0
ARC
  5
5ECE
330
6AE4
100
AcDbEntity
  8
0
100
AcDbCircle
 10
955.0003950692437
 20
1624.243557214409
 30
0.0
 40
10.0
100
AcDbArc
 50
0.0
 51
14.32271997981449
  0
LINE
  5
5ECF
330
6AE4
100
AcDbEntity
  8
0
100
AcDbLine
 10
965.0003950692431
 20
1593.499999999608
 30
0.0
 11
965.0003950692431
 21
1601.499999999608
 31
0.0
  0
LINE
  5
5ED0
330
6AE4
100
AcDbEntity
  8
0
100
AcDbLine
 10
965.0003950692431
 20
1603.499999999607
 30
0.0
 11
965.0003950692431
 21
1624.243557214409
 31
0.0
  0
LINE
  5
5ED1
330
6AE4
100
AcDbEntity
  8
0
100
AcDbLine
 10
964.6895721753436
 20
1626.717389667408
 30
0.0
 11
959.0003950685426
 21
1649.000000000009
 31
0.0
  0
ARC
  5
5ED2
330
6AE4
100
AcDbEntity
  8
0
100
AcDbCircle
 10
958.0003950685433
 20
1650.000000000008
 30
0.0
 40
1.0
100
AcDbArc
 50
0.0
 51
90.0
  0
LINE
  5
5ED3
330
6AE4
100
AcDbEntity
  8
0
100
AcDbLine
 10
959.0003950685426
 20
1649.000000000009
 30
0.0
 11
959.0003950685426
 21
1650.000000000008
 31
0.0
  0
LINE
  5
5ED4
330
6AE4
100
AcDbEntity
  8
0
100
AcDbLine
 10
930.0003950698433
 20
1603.499999999607
 30
0.0
 11
965.0003950692431
 21
1603.499999999607
 31
0.0
  0
LINE
  5
5ED5
330
6AE4
100
AcDbEntity
  8
0
100
AcDbLine
 10
930.0003950698433
 20
1601.499999999608
 30
0.0
 11
965.0003950692431
 21
1601.499999999608
 31
0.0
  0
LINE
  5
5ED6
330
6AE4
100
AcDbEntity
  8
0
100
AcDbLine
 10
930.0003950698433
 20
1593.499999999608
 30
0.0
 11
965.0003950692431
 21
1593.499999999608
 31
0.0
  0
LINE
  5
5ED7
330
6AE4
100
AcDbEntity
  8
0
100
AcDbLine
 10
930.0003950698433
 20
1651.000000000008
 30
0.0
 11
958.0003950685433
 21
1651.000000000008
 31
0.0
  0
LINE
  5
5ED8
330
6AE4
100
AcDbEntity
  8
0
100
AcDbLine
 10
960.0003950702271
 20
1560.999999999999
 30
0.0
 11
930.0003950698433
 21
1560.999999999999
 31
0.0
  0
LINE
  5
5ED9
330
6AE4
100
AcDbEntity
  8
0
100
AcDbLine
 10
960.0003950702271
 20
1560.999999999999
 30
0.0
 11
960.0003950702271
 21
1573.999999999999
 31
0.0
  0
LINE
  5
5EDB
330
6AE4
100
AcDbEntity
  8
0
100
AcDbLine
 10
959.0003950698434
 20
1573.999999999998
 30
0.0
 11
959.0003950698434
 21
1593.500000000147
 31
0.0
  0
LINE
  5
5EDC
330
6AE4
100
AcDbEntity
  8
0
100
AcDbLine
 10
960.0003950702271
 20
1573.999999999999
 30
0.0
 11
960.0003950702271
 21
1571.999999999999
 31
0.0
  0
LINE
  5
5EDD
330
6AE4
100
AcDbEntity
  8
0
100
AcDbLine
 10
960.0003950702271
 20
1573.999999999999
 30
0.0
 11
930.0003950698433
 21
1573.999999999999
 31
0.0
  0
LINE
  5
5EDE
330
6AE4
100
AcDbEntity
  8
0
100
AcDbLine
 10
930.0003950698433
 20
1593.500000000147
 30
0.0
 11
959.0003950698434
 21
1593.500000000147
 31
0.0
  0
LINE
  5
5EDF
330
6AE4
100
AcDbEntity
  8
0
100
AcDbLine
 10
947.0003950698433
 20
1652.0
 30
0.0
 11
947.0003950698433
 21
1651.000000000008
 31
0.0
  0
LINE
  5
5EE0
330
6AE4
100
AcDbEntity
  8
0
100
AcDbLine
 10
947.0003950698433
 20
1652.0
 30
0.0
 11
930.0003950698433
 21
1652.0
 31
0.0
  0
ARC
  5
5EE1
330
6AE4
100
AcDbEntity
  8
0
100
AcDbCircle
 10
895.000395070444
 20
1602.499999999607
 30
0.0
 40
1.0
100
AcDbArc
 50
90.0
 51
270.0
  0
ARC
  5
5EE2
330
6AE4
100
AcDbEntity
  8
0
100
AcDbCircle
 10
905.0003950704439
 20
1624.243557214409
 30
0.0
 40
10.0
100
AcDbArc
 50
165.6772800201854
 51
180.0
  0
LINE
  5
5EE3
330
6AE4
100
AcDbEntity
  8
0
100
AcDbLine
 10
895.000395070444
 20
1593.499999999608
 30
0.0
 11
895.000395070444
 21
1601.499999999608
 31
0.0
  0
LINE
  5
5EE4
330
6AE4
100
AcDbEntity
  8
0
100
AcDbLine
 10
895.000395070444
 20
1603.499999999607
 30
0.0
 11
895.000395070444
 21
1624.243557214409
 31
0.0
  0
LINE
  5
5EE5
330
6AE4
100
AcDbEntity
  8
0
100
AcDbLine
 10
895.311217964344
 20
1626.717389667408
 30
0.0
 11
901.0003950711434
 21
1649.000000000009
 31
0.0
  0
ARC
  5
5EE6
330
6AE4
100
AcDbEntity
  8
0
100
AcDbCircle
 10
902.0003950711434
 20
1650.000000000008
 30
0.0
 40
1.0
100
AcDbArc
 50
90.0
 51
180.0
  0
LINE
  5
5EE7
330
6AE4
100
AcDbEntity
  8
0
100
AcDbLine
 10
901.0003950711434
 20
1649.000000000009
 30
0.0
 11
901.0003950711434
 21
1650.000000000008
 31
0.0
  0
LINE
  5
5EE8
330
6AE4
100
AcDbEntity
  8
0
100
AcDbLine
 10
930.0003950698433
 20
1603.499999999607
 30
0.0
 11
895.000395070444
 21
1603.499999999607
 31
0.0
  0
LINE
  5
5EE9
330
6AE4
100
AcDbEntity
  8
0
100
AcDbLine
 10
930.0003950698433
 20
1601.499999999608
 30
0.0
 11
895.000395070444
 21
1601.499999999608
 31
0.0
  0
LINE
  5
5EEA
330
6AE4
100
AcDbEntity
  8
0
100
AcDbLine
 10
930.0003950698433
 20
1593.499999999608
 30
0.0
 11
895.000395070444
 21
1593.499999999608
 31
0.0
  0
LINE
  5
5EEB
330
6AE4
100
AcDbEntity
  8
0
100
AcDbLine
 10
930.0003950698433
 20
1651.000000000008
 30
0.0
 11
902.0003950711434
 21
1651.000000000008
 31
0.0
  0
LINE
  5
5EEC
330
6AE4
100
AcDbEntity
  8
0
100
AcDbLine
 10
900.0003950694598
 20
1560.999999999999
 30
0.0
 11
930.0003950698433
 21
1560.999999999999
 31
0.0
  0
LINE
  5
5EED
330
6AE4
100
AcDbEntity
  8
0
100
AcDbLine
 10
900.0003950694598
 20
1560.999999999999
 30
0.0
 11
900.0003950694598
 21
1573.999999999999
 31
0.0
  0
LINE
  5
5EEF
330
6AE4
100
AcDbEntity
  8
0
100
AcDbLine
 10
901.0003950698434
 20
1573.999999999999
 30
0.0
 11
901.0003950698434
 21
1593.500000000147
 31
0.0
  0
LINE
  5
5EF0
330
6AE4
100
AcDbEntity
  8
0
100
AcDbLine
 10
900.0003950694598
 20
1573.999999999999
 30
0.0
 11
900.0003950694598
 21
1571.999999999999
 31
0.0
  0
LINE
  5
5EF1
330
6AE4
100
AcDbEntity
  8
0
100
AcDbLine
 10
900.0003950694598
 20
1573.999999999999
 30
0.0
 11
930.0003950698433
 21
1573.999999999999
 31
0.0
  0
LINE
  5
5EF2
330
6AE4
100
AcDbEntity
  8
0
100
AcDbLine
 10
930.0003950698433
 20
1593.500000000147
 30
0.0
 11
901.0003950698434
 21
1593.500000000147
 31
0.0
  0
LINE
  5
5EF3
330
6AE4
100
AcDbEntity
  8
0
100
AcDbLine
 10
913.0003950698434
 20
1652.0
 30
0.0
 11
913.0003950698434
 21
1651.000000000008
 31
0.0
  0
LINE
  5
5EF4
330
6AE4
100
AcDbEntity
  8
0
100
AcDbLine
 10
913.0003950698434
 20
1652.0
 30
0.0
 11
930.0003950698433
 21
1652.0
 31
0.0
  0
LINE
  5
5EF5
330
6AE4
100
AcDbEntity
  8
0
100
AcDbLine
 10
589.9995812280908
 20
1571.999999999999
 30
0.0
 11
900.0003950694598
 21
1571.999999999999
 31
0.0
  0
LINE
  5
61E0
330
6AE4
100
AcDbEntity
  8
0
100
AcDbLine
 10
472.0641851205821
 20
1120.5129486052
 30
0.0
 11
181.3236104091136
 21
1120.5129486052
 31
0.0
  0
LINE
  5
61E1
330
6AE4
100
AcDbEntity
  8
0
100
AcDbLine
 10
472.0641851205821
 20
820.5128825715187
 30
0.0
 11
181.3236104091136
 21
820.5128825715187
 31
0.0
  0
LINE
  5
61E2
330
6AE4
100
AcDbEntity
  8
0
100
AcDbLine
 10
199.3236104091136
 20
1100.5129486052
 30
0.0
 11
199.3236104091136
 21
840.5128825715188
 31
0.0
  0
LINE
  5
61E6
330
6AE4
100
AcDbEntity
  8
0
100
AcDbLine
 10
494.9999630521063
 20
1143.448726536723
 30
0.0
 11
494.9999630521063
 21
1240.448726536723
 31
0.0
  0
LINE
  5
61E7
330
6AE4
100
AcDbEntity
  8
0
100
AcDbLine
 10
994.9999630521059
 20
1143.448726536723
 30
0.0
 11
994.9999630521059
 21
1240.448726536723
 31
0.0
  0
LINE
  5
61E8
330
6AE4
100
AcDbEntity
  8
0
100
AcDbLine
 10
514.9999630521063
 20
1222.448726536722
 30
0.0
 11
974.9999630521063
 21
1222.448726536722
 31
0.0
  0
LINE
  5
61EC
330
6AE4
100
AcDbEntity
  8
0
100
AcDbLine
 10
1137.56471023742
 20
2240.09743857506
 30
0.0
 11
1124.579988329857
 21
2256.225541512229
 31
0.0
  0
LINE
  5
61ED
330
6AE4
100
AcDbEntity
  8
0
100
AcDbLine
 10
1124.579988329857
 20
2256.225541512229
 30
0.0
 11
1143.889138797556
 21
2248.750555519975
 31
0.0
  0
LINE
  5
61EE
330
6AE4
100
AcDbEntity
  8
0
100
AcDbLine
 10
1124.579988329857
 20
2256.225541512229
 30
0.0
 11
1140.726924517488
 21
2244.423997047517
 31
0.0
  0
CIRCLE
  5
61EF
330
6AE4
100
AcDbEntity
  8
0
100
AcDbCircle
 10
1107.99997629755
 20
2397.999952922278
 30
0.0
 40
12.0000000000005
  0
CIRCLE
  5
61F1
330
6AE4
100
AcDbEntity
  8
0
100
AcDbCircle
 10
1107.99997629755
 20
2102.000033833997
 30
0.0
 40
12.0000000000005
  0
CIRCLE
  5
61F3
330
6AE4
100
AcDbEntity
  8
0
100
AcDbCircle
 10
382.0
 20
2398.000041563901
 30
0.0
 40
12.0000000000005
  0
CIRCLE
  5
61F5
330
6AE4
100
AcDbEntity
  8
0
100
AcDbCircle
 10
382.0
 20
2398.000061954071
 30
0.0
 40
12.0000000000005
  0
CIRCLE
  5
61F7
330
6AE4
100
AcDbEntity
  8
0
100
AcDbCircle
 10
382.0
 20
2102.000122475621
 30
0.0
 40
12.0000000000005
  0
LINE
  5
61F9
330
6AE4
100
AcDbEntity
  8
0
100
AcDbLine
 10
349.0
 20
1682.0
 30
0.0
 11
131.9999554235242
 21
1682.0
 31
0.0
  0
LINE
  5
61FA
330
6AE4
100
AcDbEntity
  8
0
100
AcDbLine
 10
349.0
 20
1541.999999999999
 30
0.0
 11
131.9999554235241
 21
1541.999999999999
 31
0.0
  0
LINE
  5
61FB
330
6AE4
100
AcDbEntity
  8
0
100
AcDbLine
 10
149.9999554235242
 20
1662.0
 30
0.0
 11
149.9999554235242
 21
1561.999999999999
 31
0.0
  0
LINE
  5
6205
330
6AE4
100
AcDbEntity
  8
0
100
AcDbLine
 10
349.0
 20
1652.0
 30
0.0
 11
231.9999554235246
 21
1652.0
 31
0.0
  0
LINE
  5
6206
330
6AE4
100
AcDbEntity
  8
0
100
AcDbLine
 10
248.9999554235246
 20
1682.0
 30
0.0
 11
231.9999554235246
 21
1682.0
 31
0.0
  0
LINE
  5
6207
330
6AE4
100
AcDbEntity
  8
0
100
AcDbLine
 10
249.9999554235246
 20
1652.0
 30
0.0
 11
249.9999554235246
 21
1682.0
 31
0.0
  0
LINE
  5
6208
330
6AE4
100
AcDbEntity
  8
0
100
AcDbLine
 10
249.9999554235246
 20
1682.0
 30
0.0
 11
249.9999554235246
 21
1739.5
 31
0.0
  0
LINE
  5
620C
330
6AE4
100
AcDbEntity
  8
0
100
AcDbLine
 10
349.0
 20
1571.999999999998
 30
0.0
 11
231.9999554235241
 21
1571.999999999998
 31
0.0
  0
LINE
  5
620D
330
6AE4
100
AcDbEntity
  8
0
100
AcDbLine
 10
248.9999554235241
 20
1541.999999999999
 30
0.0
 11
231.9999554235241
 21
1541.999999999999
 31
0.0
  0
LINE
  5
620E
330
6AE4
100
AcDbEntity
  8
0
100
AcDbLine
 10
249.9999554235242
 20
1571.999999999998
 30
0.0
 11
249.9999554235242
 21
1541.999999999999
 31
0.0
  0
LINE
  5
6212
330
6AE4
100
AcDbEntity
  8
0
100
AcDbLine
 10
494.9999554235247
 20
2410.000026394977
 30
0.0
 11
496.8489405894943
 21
2420.186337347844
 31
0.0
  0
LINE
  5
6213
330
6AE4
100
AcDbEntity
  8
0
100
AcDbLine
 10
494.9999554235247
 20
2410.000026394977
 30
0.0
 11
501.6943790249075
 21
2417.897137868023
 31
0.0
  0
LINE
  5
6214
330
6AE4
100
AcDbEntity
  8
0
100
AcDbLine
 10
499.2716598072005
 20
2419.041737607933
 30
0.0
 11
494.9999554235247
 21
2410.000026394977
 31
0.0
  0
LINE
  5
6215
330
6AE4
100
AcDbEntity
  8
0
100
AcDbLine
 10
372.9999791759801
 20
2430.0
 30
0.0
 11
131.9999554235242
 21
2430.0
 31
0.0
  0
LINE
  5
6216
330
6AE4
100
AcDbEntity
  8
0
100
AcDbLine
 10
372.4999791759791
 20
2070.000164039522
 30
0.0
 11
131.9999554235241
 21
2070.000164039522
 31
0.0
  0
LINE
  5
6217
330
6AE4
100
AcDbEntity
  8
0
100
AcDbLine
 10
149.9999554235242
 20
2410.0
 30
0.0
 11
149.9999554235242
 21
2090.000164039522
 31
0.0
  0
LINE
  5
621B
330
6AE4
100
AcDbEntity
  8
0
100
AcDbLine
 10
1139.99997629755
 20
2407.499911358386
 30
0.0
 11
1139.99997629755
 21
2647.999949101932
 31
0.0
  0
LINE
  5
621C
330
6AE4
100
AcDbEntity
  8
0
100
AcDbLine
 10
350.0
 20
2407.500000000009
 30
0.0
 11
350.0
 21
2647.999949101932
 31
0.0
  0
LINE
  5
621D
330
6AE4
100
AcDbEntity
  8
0
100
AcDbLine
 10
1119.99997629755
 20
2629.999949101931
 30
0.0
 11
370.0
 21
2629.999949101931
 31
0.0
  0
LINE
  5
6221
330
6AE4
100
AcDbEntity
  8
0
100
AcDbLine
 10
494.9999630521063
 20
820.5128825715187
 30
0.0
 11
506.2454424210169
 21
803.1273166718081
 31
0.0
  0
LINE
  5
6222
330
6AE4
100
AcDbEntity
  8
0
100
AcDbLine
 10
494.9999630521063
 20
820.5128825715187
 30
0.0
 11
496.046050913462
 21
799.8338011587452
 31
0.0
  0
LINE
  5
6223
330
6AE4
100
AcDbEntity
  8
0
100
AcDbLine
 10
501.1457466672395
 20
801.4805589152768
 30
0.0
 11
494.9999630521063
 21
820.5128825715187
 31
0.0
  0
TEXT
  5
6224
330
6AE4
100
AcDbEntity
  8
0
100
AcDbText
 10
543.8871258322333
 20
737.9408663546619
 30
0.0
 40
25.0
  1
4-∅20
100
AcDbText
  0
LINE
  5
6225
330
6AE4
100
AcDbEntity
  8
0
100
AcDbLine
 10
388.9282032302755
 20
2114.00012247562
 30
0.0
 11
395.8564064605509
 21
2102.000122475621
 31
0.0
  0
LINE
  5
6226
330
6AE4
100
AcDbEntity
  8
0
100
AcDbLine
 10
395.8564064605509
 20
2102.000122475621
 30
0.0
 11
388.9282032302755
 21
2090.00012247562
 31
0.0
  0
LINE
  5
6227
330
6AE4
100
AcDbEntity
  8
0
100
AcDbLine
 10
388.9282032302755
 20
2090.00012247562
 30
0.0
 11
375.0717967697245
 21
2090.00012247562
 31
0.0
  0
LINE
  5
6228
330
6AE4
100
AcDbEntity
  8
0
100
AcDbLine
 10
375.0717967697245
 20
2090.00012247562
 30
0.0
 11
368.1435935394489
 21
2102.000122475621
 31
0.0
  0
LINE
  5
6229
330
6AE4
100
AcDbEntity
  8
0
100
AcDbLine
 10
368.1435935394489
 20
2102.000122475621
 30
0.0
 11
375.0717967697245
 21
2114.00012247562
 31
0.0
  0
LINE
  5
622A
330
6AE4
100
AcDbEntity
  8
0
100
AcDbLine
 10
375.0717967697245
 20
2114.00012247562
 30
0.0
 11
388.9282032302755
 21
2114.00012247562
 31
0.0
  0
LINE
  5
622B
330
6AE4
100
AcDbEntity
  8
0
100
AcDbLine
 10
1101.071773067275
 20
2385.999952922278
 30
0.0
 11
1094.143569836998
 21
2397.999952922278
 31
0.0
  0
LINE
  5
622C
330
6AE4
100
AcDbEntity
  8
0
100
AcDbLine
 10
1094.143569836998
 20
2397.999952922278
 30
0.0
 11
1101.071773067275
 21
2409.999952922278
 31
0.0
  0
LINE
  5
622D
330
6AE4
100
AcDbEntity
  8
0
100
AcDbLine
 10
1101.071773067275
 20
2409.999952922278
 30
0.0
 11
1114.928179527826
 21
2409.999952922278
 31
0.0
  0
LINE
  5
622E
330
6AE4
100
AcDbEntity
  8
0
100
AcDbLine
 10
1114.928179527826
 20
2409.999952922278
 30
0.0
 11
1121.856382758101
 21
2397.999952922278
 31
0.0
  0
LINE
  5
622F
330
6AE4
100
AcDbEntity
  8
0
100
AcDbLine
 10
1121.856382758101
 20
2397.999952922278
 30
0.0
 11
1114.928179527826
 21
2385.999952922278
 31
0.0
  0
LINE
  5
6230
330
6AE4
100
AcDbEntity
  8
0
100
AcDbLine
 10
1114.928179527826
 20
2385.999952922278
 30
0.0
 11
1101.071773067275
 21
2385.999952922278
 31
0.0
  0
TEXT
  5
6231
330
6AE4
100
AcDbEntity
  8
0
100
AcDbText
 10
186.8236104091135
 20
941.3462489216927
 30
0.0
 40
25.0
  1
300
 50
90.0
100
AcDbText
  0
LINE
  5
6232
330
6AE4
100
AcDbEntity
  8
0
100
AcDbLine
 10
199.3236104091136
 20
820.5128825715187
 30
0.0
 11
193.9646265604917
 21
840.5128825715188
 31
0.0
  0
LINE
  5
6233
330
6AE4
100
AcDbEntity
  8
0
100
AcDbLine
 10
199.3236104091136
 20
820.5128825715187
 30
0.0
 11
204.6825942577357
 21
840.5128825715188
 31
0.0
  0
LINE
  5
6234
330
6AE4
100
AcDbEntity
  8
0
100
AcDbLine
 10
199.3236104091136
 20
840.5128825715188
 30
0.0
 11
199.3236104091136
 21
820.5128825715187
 31
0.0
  0
LINE
  5
6235
330
6AE4
100
AcDbEntity
  8
0
100
AcDbLine
 10
199.3236104091136
 20
1120.5129486052
 30
0.0
 11
204.6825942577359
 21
1100.5129486052
 31
0.0
  0
LINE
  5
6236
330
6AE4
100
AcDbEntity
  8
0
100
AcDbLine
 10
199.3236104091136
 20
1120.5129486052
 30
0.0
 11
193.9646265604917
 21
1100.5129486052
 31
0.0
  0
LINE
  5
6237
330
6AE4
100
AcDbEntity
  8
0
100
AcDbLine
 10
199.3236104091136
 20
1100.5129486052
 30
0.0
 11
199.3236104091136
 21
1120.5129486052
 31
0.0
  0
TEXT
  5
6238
330
6AE4
100
AcDbEntity
  8
0
100
AcDbText
 10
715.8332963854397
 20
1234.948726536722
 30
0.0
 40
25.0
  1
500
100
AcDbText
  0
LINE
  5
6239
330
6AE4
100
AcDbEntity
  8
0
100
AcDbLine
 10
994.9999630521059
 20
1222.448726536722
 30
0.0
 11
974.9999630521063
 21
1217.089742688101
 31
0.0
  0
LINE
  5
623A
330
6AE4
100
AcDbEntity
  8
0
100
AcDbLine
 10
994.9999630521059
 20
1222.448726536722
 30
0.0
 11
974.9999630521063
 21
1227.807710385345
 31
0.0
  0
LINE
  5
623B
330
6AE4
100
AcDbEntity
  8
0
100
AcDbLine
 10
974.9999630521063
 20
1222.448726536722
 30
0.0
 11
994.9999630521059
 21
1222.448726536722
 31
0.0
  0
LINE
  5
623C
330
6AE4
100
AcDbEntity
  8
0
100
AcDbLine
 10
494.9999630521063
 20
1222.448726536722
 30
0.0
 11
514.9999630521063
 21
1227.807710385345
 31
0.0
  0
LINE
  5
623D
330
6AE4
100
AcDbEntity
  8
0
100
AcDbLine
 10
494.9999630521063
 20
1222.448726536722
 30
0.0
 11
514.9999630521063
 21
1217.089742688101
 31
0.0
  0
LINE
  5
623E
330
6AE4
100
AcDbEntity
  8
0
100
AcDbLine
 10
514.9999630521063
 20
1222.448726536722
 30
0.0
 11
494.9999630521063
 21
1222.448726536722
 31
0.0
  0
LINE
  5
623F
330
6AE4
100
AcDbEntity
  8
0
100
AcDbLine
 10
1101.071773067275
 20
2114.000033833997
 30
0.0
 11
1094.143569836998
 21
2102.000033833997
 31
0.0
  0
LINE
  5
6240
330
6AE4
100
AcDbEntity
  8
0
100
AcDbLine
 10
1094.143569836998
 20
2102.000033833997
 30
0.0
 11
1101.071773067275
 21
2090.000033833997
 31
0.0
  0
LINE
  5
6241
330
6AE4
100
AcDbEntity
  8
0
100
AcDbLine
 10
1101.071773067275
 20
2090.000033833997
 30
0.0
 11
1114.928179527826
 21
2090.000033833997
 31
0.0
  0
LINE
  5
6242
330
6AE4
100
AcDbEntity
  8
0
100
AcDbLine
 10
1114.928179527826
 20
2090.000033833997
 30
0.0
 11
1121.856382758101
 21
2102.000033833997
 31
0.0
  0
LINE
  5
6243
330
6AE4
100
AcDbEntity
  8
0
100
AcDbLine
 10
1121.856382758101
 20
2102.000033833997
 30
0.0
 11
1114.928179527826
 21
2114.000033833997
 31
0.0
  0
LINE
  5
6244
330
6AE4
100
AcDbEntity
  8
0
100
AcDbLine
 10
1114.928179527826
 20
2114.000033833997
 30
0.0
 11
1101.071773067275
 21
2114.000033833997
 31
0.0
  0
LINE
  5
6245
330
6AE4
100
AcDbEntity
  8
0
100
AcDbLine
 10
388.9282032302755
 20
2386.000041563901
 30
0.0
 11
395.8564064605509
 21
2398.000041563901
 31
0.0
  0
LINE
  5
6246
330
6AE4
100
AcDbEntity
  8
0
100
AcDbLine
 10
395.8564064605509
 20
2398.000041563901
 30
0.0
 11
388.9282032302755
 21
2410.000041563901
 31
0.0
  0
LINE
  5
6247
330
6AE4
100
AcDbEntity
  8
0
100
AcDbLine
 10
388.9282032302755
 20
2410.000041563901
 30
0.0
 11
375.0717967697245
 21
2410.000041563901
 31
0.0
  0
LINE
  5
6248
330
6AE4
100
AcDbEntity
  8
0
100
AcDbLine
 10
375.0717967697245
 20
2410.000041563901
 30
0.0
 11
368.1435935394489
 21
2398.000041563901
 31
0.0
  0
LINE
  5
6249
330
6AE4
100
AcDbEntity
  8
0
100
AcDbLine
 10
368.1435935394489
 20
2398.000041563901
 30
0.0
 11
375.0717967697245
 21
2386.000041563901
 31
0.0
  0
LINE
  5
624A
330
6AE4
100
AcDbEntity
  8
0
100
AcDbLine
 10
375.0717967697245
 20
2386.000041563901
 30
0.0
 11
388.9282032302755
 21
2386.000041563901
 31
0.0
  0
LINE
  5
624B
330
6AE4
100
AcDbEntity
  8
0
100
AcDbLine
 10
388.9282032302755
 20
2386.000061954071
 30
0.0
 11
395.8564064605509
 21
2398.000061954071
 31
0.0
  0
LINE
  5
624C
330
6AE4
100
AcDbEntity
  8
0
100
AcDbLine
 10
395.8564064605509
 20
2398.000061954071
 30
0.0
 11
388.9282032302755
 21
2410.000061954071
 31
0.0
  0
LINE
  5
624D
330
6AE4
100
AcDbEntity
  8
0
100
AcDbLine
 10
388.9282032302755
 20
2410.000061954071
 30
0.0
 11
375.0717967697245
 21
2410.000061954071
 31
0.0
  0
LINE
  5
624E
330
6AE4
100
AcDbEntity
  8
0
100
AcDbLine
 10
375.0717967697245
 20
2410.000061954071
 30
0.0
 11
368.1435935394489
 21
2398.000061954071
 31
0.0
  0
LINE
  5
624F
330
6AE4
100
AcDbEntity
  8
0
100
AcDbLine
 10
368.1435935394489
 20
2398.000061954071
 30
0.0
 11
375.0717967697245
 21
2386.000061954071
 31
0.0
  0
LINE
  5
6250
330
6AE4
100
AcDbEntity
  8
0
100
AcDbLine
 10
375.0717967697245
 20
2386.000061954071
 30
0.0
 11
388.9282032302755
 21
2386.000061954071
 31
0.0
  0
LINE
  5
6251
330
6AE4
100
AcDbEntity
  8
0
100
AcDbLine
 10
149.9999554235242
 20
1541.999999999999
 30
0.0
 11
144.640971574902
 21
1561.999999999999
 31
0.0
  0
LINE
  5
6252
330
6AE4
100
AcDbEntity
  8
0
100
AcDbLine
 10
149.9999554235242
 20
1541.999999999999
 30
0.0
 11
155.3589392721462
 21
1561.999999999999
 31
0.0
  0
LINE
  5
6253
330
6AE4
100
AcDbEntity
  8
0
100
AcDbLine
 10
149.9999554235242
 20
1561.999999999999
 30
0.0
 11
149.9999554235242
 21
1541.999999999999
 31
0.0
  0
LINE
  5
6254
330
6AE4
100
AcDbEntity
  8
0
100
AcDbLine
 10
149.9999554235242
 20
1682.0
 30
0.0
 11
155.3589392721463
 21
1662.0
 31
0.0
  0
LINE
  5
6255
330
6AE4
100
AcDbEntity
  8
0
100
AcDbLine
 10
149.9999554235242
 20
1682.0
 30
0.0
 11
144.640971574902
 21
1662.0
 31
0.0
  0
LINE
  5
6256
330
6AE4
100
AcDbEntity
  8
0
100
AcDbLine
 10
149.9999554235242
 20
1662.0
 30
0.0
 11
149.9999554235242
 21
1682.0
 31
0.0
  0
TEXT
  5
6257
330
6AE4
100
AcDbEntity
  8
0
100
AcDbText
 10
131.9999554235238
 20
1512.178571428571
 30
0.0
 40
25.0
  1
据付時約 140
 50
90.0
100
AcDbText
  0
TEXT
  5
625F
330
6AE4
100
AcDbEntity
  8
0
100
AcDbText
 10
237.4999554235244
 20
1702.0
 30
0.0
 40
25.0
  1
30
 50
90.0
100
AcDbText
  0
TEXT
  5
6264
330
6AE4
100
AcDbEntity
  8
0
100
AcDbText
 10
237.8359159768387
 20
1487.584516102295
 30
0.0
 40
25.0
  1
30
 50
90.0
100
AcDbText
  0
TEXT
  5
6265
330
6AE4
100
AcDbEntity
  8
0
100
AcDbText
 10
137.4999554235238
 20
2218.750082019761
 30
0.0
 40
25.0
  1
360
 50
90.0
100
AcDbText
  0
LINE
  5
6266
330
6AE4
100
AcDbEntity
  8
0
100
AcDbLine
 10
149.9999554235242
 20
2070.000164039522
 30
0.0
 11
144.640971574902
 21
2090.000164039522
 31
0.0
  0
LINE
  5
6267
330
6AE4
100
AcDbEntity
  8
0
100
AcDbLine
 10
149.9999554235242
 20
2070.000164039522
 30
0.0
 11
155.3589392721462
 21
2090.000164039522
 31
0.0
  0
LINE
  5
6268
330
6AE4
100
AcDbEntity
  8
0
100
AcDbLine
 10
149.9999554235242
 20
2090.000164039522
 30
0.0
 11
149.9999554235242
 21
2070.000164039522
 31
0.0
  0
LINE
  5
6269
330
6AE4
100
AcDbEntity
  8
0
100
AcDbLine
 10
149.9999554235242
 20
2430.0
 30
0.0
 11
155.3589392721463
 21
2410.0
 31
0.0
  0
LINE
  5
626A
330
6AE4
100
AcDbEntity
  8
0
100
AcDbLine
 10
149.9999554235242
 20
2430.0
 30
0.0
 11
144.6409715749022
 21
2410.0
 31
0.0
  0
LINE
  5
626B
330
6AE4
100
AcDbEntity
  8
0
100
AcDbLine
 10
149.9999554235242
 20
2410.0
 30
0.0
 11
149.9999554235242
 21
2430.0
 31
0.0
  0
TEXT
  5
626C
330
6AE4
100
AcDbEntity
  8
0
100
AcDbText
 10
713.7499881487752
 20
2642.499949101932
 30
0.0
 40
25.0
  1
790
100
AcDbText
  0
LINE
  5
626D
330
6AE4
100
AcDbEntity
  8
0
100
AcDbLine
 10
350.0
 20
2629.999949101931
 30
0.0
 11
370.0
 21
2635.358932950553
 31
0.0
  0
LINE
  5
626E
330
6AE4
100
AcDbEntity
  8
0
100
AcDbLine
 10
350.0
 20
2629.999949101931
 30
0.0
 11
370.0
 21
2624.640965253309
 31
0.0
  0
LINE
  5
626F
330
6AE4
100
AcDbEntity
  8
0
100
AcDbLine
 10
370.0
 20
2629.999949101931
 30
0.0
 11
350.0
 21
2629.999949101931
 31
0.0
  0
LINE
  5
6270
330
6AE4
100
AcDbEntity
  8
0
100
AcDbLine
 10
1139.99997629755
 20
2629.999949101931
 30
0.0
 11
1119.99997629755
 21
2624.64096525331
 31
0.0
  0
LINE
  5
6271
330
6AE4
100
AcDbEntity
  8
0
100
AcDbLine
 10
1139.99997629755
 20
2629.999949101931
 30
0.0
 11
1119.99997629755
 21
2635.358932950553
 31
0.0
  0
LINE
  5
6272
330
6AE4
100
AcDbEntity
  8
0
100
AcDbLine
 10
1119.99997629755
 20
2629.999949101931
 30
0.0
 11
1139.99997629755
 21
2629.999949101931
 31
0.0
  0
ARC
  5
6273
330
6AE4
100
AcDbEntity
  8
0
100
AcDbCircle
 10
249.9999554235246
 20
1682.0
 30
0.0
 40
1.25
100
AcDbArc
 50
270.0
 51
90.0
  0
ARC
  5
6274
330
6AE4
100
AcDbEntity
  8
0
100
AcDbCircle
 10
249.9999554235246
 20
1682.0
 30
0.0
 40
1.25
100
AcDbArc
 50
90.0
 51
270.0
  0
ARC
  5
6275
330
6AE4
100
AcDbEntity
  8
0
100
AcDbCircle
 10
249.9999554235246
 20
1652.0
 30
0.0
 40
1.25
100
AcDbArc
 50
90.0
 51
270.0
  0
ARC
  5
6276
330
6AE4
100
AcDbEntity
  8
0
100
AcDbCircle
 10
249.9999554235246
 20
1652.0
 30
0.0
 40
1.25
100
AcDbArc
 50
270.0
 51
90.0
  0
ARC
  5
6277
330
6AE4
100
AcDbEntity
  8
0
100
AcDbCircle
 10
249.9999554235242
 20
1541.999999999999
 30
0.0
 40
1.25
100
AcDbArc
 50
90.0
 51
270.0
  0
ARC
  5
6278
330
6AE4
100
AcDbEntity
  8
0
100
AcDbCircle
 10
249.9999554235242
 20
1541.999999999999
 30
0.0
 40
1.25
100
AcDbArc
 50
270.0
 51
90.0
  0
ARC
  5
6279
330
6AE4
100
AcDbEntity
  8
0
100
AcDbCircle
 10
249.9999554235242
 20
1571.999999999998
 30
0.0
 40
1.25
100
AcDbArc
 50
270.0
 51
90.0
  0
ARC
  5
627A
330
6AE4
100
AcDbEntity
  8
0
100
AcDbCircle
 10
249.9999554235242
 20
1571.999999999998
 30
0.0
 40
1.25
100
AcDbArc
 50
90.0
 51
270.0
  0
TEXT
  5
657B
330
6AE4
100
AcDbEntity
  8
0
100
AcDbText
 10
318.821351523949
 20
1463.061770170579
 30
0.0
 40
30.0
  1
※搭載機器や施工状況等によって、据付高さは若干異なる可能性があります。
100
AcDbText
  0
LINE
  5
6C04
330
6AE4
100
AcDbEntity
  8
0
100
AcDbLine
 10
494.9999630521063
 20
1152.448726536723
 30
0.0
 11
494.9999630521063
 21
1240.448726536722
 31
0.0
  0
LINE
  5
6C05
330
6AE4
100
AcDbEntity
  8
0
100
AcDbLine
 10
349.9999714973923
 20
1160.512969007128
 30
0.0
 11
349.9999714973923
 21
1240.448726536722
 31
0.0
  0
LINE
  5
6C06
330
6AE4
100
AcDbEntity
  8
0
100
AcDbLine
 10
474.9999630521063
 20
1222.448726536722
 30
0.0
 11
369.9999714973923
 21
1222.448726536722
 31
0.0
  0
LINE
  5
6C0C
330
6AE4
100
AcDbEntity
  8
0
  6
ByBlock
100
AcDbLine
 10
474.9999630521063
 20
1227.807710336722
 30
0.0
 11
494.9999630521063
 21
1222.448726536722
 31
0.0
  0
LINE
  5
6C0D
330
6AE4
100
AcDbEntity
  8
0
  6
ByBlock
100
AcDbLine
 10
494.9999630521063
 20
1222.448726536722
 30
0.0
 11
474.9999630521063
 21
1217.089742736722
 31
0.0
  0
LINE
  5
6C0E
330
6AE4
100
AcDbEntity
  8
0
  6
ByBlock
100
AcDbLine
 10
494.9999630521063
 20
1222.448726536722
 30
0.0
 11
474.9999630521063
 21
1222.448726536722
 31
0.0
  0
LINE
  5
6C0F
330
6AE4
100
AcDbEntity
  8
0
  6
ByBlock
100
AcDbLine
 10
369.9999714973923
 20
1217.089742736722
 30
0.0
 11
349.9999714973923
 21
1222.448726536722
 31
0.0
  0
LINE
  5
6C10
330
6AE4
100
AcDbEntity
  8
0
  6
ByBlock
100
AcDbLine
 10
349.9999714973923
 20
1222.448726536722
 30
0.0
 11
369.9999714973923
 21
1227.807710336722
 31
0.0
  0
LINE
  5
6C11
330
6AE4
100
AcDbEntity
  8
0
  6
ByBlock
100
AcDbLine
 10
349.9999714973923
 20
1222.448726536722
 30
0.0
 11
369.9999714973923
 21
1222.448726536722
 31
0.0
  0
TEXT
  5
6C12
330
6AE4
100
AcDbEntity
  8
0
100
AcDbText
 10
393.3333006080827
 20
1237.448726536722
 30
0.0
 40
25.0
  1
145
100
AcDbText
  0
LINE
  5
6C13
330
6AE4
100
AcDbEntity
  8
0
100
AcDbLine
 10
1139.999971497378
 20
1160.512969007128
 30
0.0
 11
1139.999971497378
 21
1240.448726536722
 31
0.0
  0
LINE
  5
6C14
330
6AE4
100
AcDbEntity
  8
0
100
AcDbLine
 10
1014.999979942664
 20
1222.448726536722
 30
0.0
 11
1119.999971497378
 21
1222.448726536722
 31
0.0
  0
LINE
  5
6C15
330
6AE4
100
AcDbEntity
  8
0
  6
ByBlock
100
AcDbLine
 10
1014.999979942664
 20
1227.807710336722
 30
0.0
 11
994.9999799426642
 21
1222.448726536722
 31
0.0
  0
LINE
  5
6C16
330
6AE4
100
AcDbEntity
  8
0
  6
ByBlock
100
AcDbLine
 10
994.9999799426642
 20
1222.448726536722
 30
0.0
 11
1014.999979942664
 21
1217.089742736722
 31
0.0
  0
LINE
  5
6C17
330
6AE4
100
AcDbEntity
  8
0
  6
ByBlock
100
AcDbLine
 10
994.9999799426642
 20
1222.448726536722
 30
0.0
 11
1014.999979942664
 21
1222.448726536722
 31
0.0
  0
LINE
  5
6C18
330
6AE4
100
AcDbEntity
  8
0
  6
ByBlock
100
AcDbLine
 10
1119.999971497378
 20
1217.089742736722
 30
0.0
 11
1139.999971497378
 21
1222.448726536722
 31
0.0
  0
LINE
  5
6C19
330
6AE4
100
AcDbEntity
  8
0
  6
ByBlock
100
AcDbLine
 10
1139.999971497378
 20
1222.448726536722
 30
0.0
 11
1119.999971497378
 21
1227.807710336722
 31
0.0
  0
LINE
  5
6C1A
330
6AE4
100
AcDbEntity
  8
0
  6
ByBlock
100
AcDbLine
 10
1139.999971497378
 20
1222.448726536722
 30
0.0
 11
1119.999971497378
 21
1222.448726536722
 31
0.0
  0
TEXT
  5
6C1B
330
6AE4
100
AcDbEntity
  8
0
100
AcDbText
 10
1038.333309053354
 20
1237.448726536722
 30
0.0
 40
25.0
  1
145
100
AcDbText
  0
ENDSEC
  0
SECTION
  2
OBJECTS
  0
DICTIONARY
  5
6A81
330
0
100
AcDbDictionary
281
     1
  3
ACAD_CIP_PREVIOUS_PRODUCT_INFO
350
6B3E
  3
ACAD_COLOR
350
6AD7
  3
ACAD_DETAILVIEWSTYLE
350
6ADE
  3
ACAD_FIELDLIST
350
6B8F
  3
ACAD_GROUP
350
6A82
  3
ACAD_LAYOUT
350
6AD6
  3
ACAD_MATERIAL
350
6A85
  3
ACAD_MLEADERSTYLE
350
6ADA
  3
ACAD_MLINESTYLE
350
6AD3
  3
ACAD_PLOTSETTINGS
350
6AD5
  3
ACAD_PLOTSTYLENAME
350
6A83
  3
ACAD_SCALELIST
350
6AB7
  3
ACAD_SECTIONVIEWSTYLE
350
6ADC
  3
ACAD_TABLESTYLE
350
6AD8
  3
ACAD_VISUALSTYLE
350
6A9E
  3
ACDB_RECOMPOSE_DATA
350
6D2A
  3
AcDbVariableDictionary
350
6D1D
  3
AcDsDecomposeData
350
6D30
  3
AcmDictionary
350
6B64
  3
AMG
350
6B3F
  3
AMGSNAPSETTINGS
350
6BA4
  0
DICTIONARY
  5
6D17
330
6A77
100
AcDbDictionary
280
     1
281
     1
  3
ACAD_LAYERSTATES
360
6D18
  0
DICTIONARY
  5
6D10
330
6AC9
100
AcDbDictionary
280
     1
281
     1
  3
ADSK_XREC_LAYER_RECONCILED
360
6D11
  0
DICTIONARY
  5
6D12
330
6AF2
100
AcDbDictionary
280
     1
281
     1
  3
ADSK_XREC_LAYER_RECONCILED
360
6D13
  0
DICTIONARY
  5
6C0A
330
6AE4
100
AcDbDictionary
280
     1
281
     1
  3
ACAD_SORTENTS
360
6C0B
  0
XRECORD
  5
6B3E
102
{ACAD_REACTORS
330
6A81
102
}
330
6A81
100
AcDbXrecord
280
     1
300
AMECH_PP
300
2021
300
87400AMECH_PP_2021_0F
  0
DICTIONARY
  5
6AD7
102
{ACAD_REACTORS
330
6A81
102
}
330
6A81
100
AcDbDictionary
281
     1
  0
DICTIONARY
  5
6ADE
102
{ACAD_REACTORS
330
6A81
102
}
330
6A81
100
AcDbDictionary
281
     1
  3
Imperial24
350
6ADF
  0
FIELDLIST
  5
6B8F
102
{ACAD_REACTORS
330
6A81
102
}
330
6A81
100
AcDbIdSet
 90
        8
330
6B8D
330
6B8E
330
6B90
330
6B91
330
6B95
330
6B96
330
6B97
330
6B98
100
AcDbFieldList
  0
DICTIONARY
  5
6A82
102
{ACAD_REACTORS
330
6A81
102
}
330
6A81
100
AcDbDictionary
281
     1
  0
DICTIONARY
  5
6AD6
102
{ACAD_REACTORS
330
6A81
102
}
330
6A81
100
AcDbDictionary
281
     1
  3
Model
350
6AE7
  3
レイアウト1
350
6AE3
  0
DICTIONARY
  5
6A85
102
{ACAD_REACTORS
330
6A81
102
}
330
6A81
100
AcDbDictionary
281
     1
  3
ByBlock
350
6A8E
  3
ByLayer
350
6A86
  3
Global
350
6A96
  0
DICTIONARY
  5
6ADA
102
{ACAD_REACTORS
330
6A81
102
}
330
6A81
100
AcDbDictionary
281
     1
  3
Standard
350
6ADB
  0
DICTIONARY
  5
6AD3
102
{ACAD_REACTORS
330
6A81
102
}
330
6A81
100
AcDbDictionary
281
     1
  3
Standard
350
6AD4
  0
DICTIONARY
  5
6AD5
102
{ACAD_REACTORS
330
6A81
102
}
330
6A81
100
AcDbDictionary
281
     1
  0
ACDBDICTIONARYWDFLT
  5
6A83
102
{ACAD_REACTORS
330
6A81
102
}
330
6A81
100
AcDbDictionary
281
     1
  3
Normal
350
6A84
100
AcDbDictionaryWithDefault
340
6A84
  0
DICTIONARY
  5
6AB7
102
{ACAD_REACTORS
330
6A81
102
}
330
6A81
100
AcDbDictionary
281
     1
  3
A0
350
6AB8
  3
A1
350
6AB9
  3
A2
350
6ABA
  3
A3
350
6ABB
  3
A4
350
6ABC
  3
A5
350
6ABD
  3
A6
350
6ABE
  3
A7
350
6ABF
  3
A8
350
6AC0
  3
A9
350
6AC1
  3
B0
350
6AC2
  3
B1
350
6AC3
  3
B2
350
6AC4
  3
B3
350
6AC5
  3
B4
350
6AC6
  3
B5
350
6AC7
  3
B6
350
6AC8
  0
DICTIONARY
  5
6ADC
102
{ACAD_REACTORS
330
6A81
102
}
330
6A81
100
AcDbDictionary
281
     1
  3
Imperial24
350
6ADD
  0
DICTIONARY
  5
6AD8
102
{ACAD_REACTORS
330
6A81
102
}
330
6A81
100
AcDbDictionary
281
     1
  3
Standard
350
6AD9
  0
DICTIONARY
  5
6A9E
102
{ACAD_REACTORS
330
6A81
102
}
330
6A81
100
AcDbDictionary
281
     1
  3
2dWireframe
350
6AA4
  3
Basic
350
6AA3
  3
Brighten
350
6AAA
  3
ColorChange
350
6AAE
  3
Conceptual
350
6AA7
  3
Dim
350
6AA9
  3
EdgeColorOff
350
6AB6
  3
Facepattern
350
6AAD
  3
Flat
350
6A9F
  3
FlatWithEdges
350
6AA0
  3
Gouraud
350
6AA1
  3
GouraudWithEdges
350
6AA2
  3
Hidden
350
6AA6
  3
JitterOff
350
6AB4
  3
Linepattern
350
6AAC
  3
OverhangOff
350
6AB5
  3
Realistic
350
6AA8
  3
Shaded
350
6AB3
  3
Shaded with edges
350
6AB2
  3
Shades of Gray
350
6AAF
  3
Sketchy
350
6AB0
  3
Thicken
350
6AAB
  3
Wireframe
350
6AA5
  3
X-Ray
350
6AB1
  0
XRECORD
  5
6D2A
102
{ACAD_REACTORS
330
6A81
102
}
330
6A81
100
AcDbXrecord
280
     1
 90
        1
330
6AD9
  0
DICTIONARY
  5
6D1D
102
{ACAD_REACTORS
330
6A81
102
}
330
6A81
100
AcDbDictionary
281
     1
  3
CANNOSCALE
350
6D23
  3
CMLEADERSTYLE
350
6D1F
  3
CTABLESTYLE
350
6D1E
  3
CVIEWDETAILSTYLE
350
6D20
  3
CVIEWSECTIONSTYLE
350
6D21
  3
LAYEREVAL
350
6D25
  3
LAYERNOTIFY
350
6D26
  3
LIGHTINGUNITS
350
6D24
  3
MSLTSCALE
350
6D22
  3
XCLIPFRAME
350
6D27
  0
DICTIONARY
  5
6D30
102
{ACAD_REACTORS
330
6A81
102
}
330
6A81
100
AcDbDictionary
281
     1
  3
AcDsRecords
350
6D32
  3
AcDsSchemas
350
6D31
1001
ACAD
1070
     2
  0
DICTIONARY
  5
6B64
102
{ACAD_REACTORS
330
6A81
102
}
330
6A81
100
AcDbDictionary
281
     1
  3
AcmStdDictionary
350
6B6B
  0
DICTIONARY
  5
6B3F
102
{ACAD_REACTORS
330
6A81
102
}
330
6A81
100
AcDbDictionary
281
     1
  0
DICTIONARY
  5
6BA4
102
{ACAD_REACTORS
330
6A81
102
}
330
6A81
100
AcDbDictionary
281
     1
  0
DICTIONARY
  5
6D18
102
{ACAD_REACTORS
330
6D17
102
}
330
6D17
100
AcDbDictionary
281
     1
  0
XRECORD
  5
6D11
102
{ACAD_REACTORS
330
6D10
102
}
330
6D10
100
AcDbXrecord
280
     1
290
     1
  0
XRECORD
  5
6D13
102
{ACAD_REACTORS
330
6D12
102
}
330
6D12
100
AcDbXrecord
280
     1
290
     1
  0
SORTENTSTABLE
  5
6C0B
102
{ACAD_REACTORS
330
6C0A
102
}
330
6C0A
100
AcDbSortentsTable
330
6AE4
  0
ACDBDETAILVIEWSTYLE
  5
6ADF
102
{ACAD_XDICTIONARY
360
6D65
102
}
102
{ACAD_REACTORS
330
6ADE
330
6B88
102
}
330
6ADE
100
AcDbModelDocViewStyle
 70
     0
  3
Imperial24
290
     0
100
AcDbDetailViewStyle
 70
     0
 71
     0
 90
        3
 71
     1
340
6ACA
 62
   256
 40
0.24
340
0
 62
   256
 40
0.24
300

 40
0.36
280
     3
 71
     2
340
6AD1
 90
       25
 62
   256
 71
     3
340
6ACA
 62
   256
 40
0.24
 90
        1
 40
0.75
 90
        1
300
%<\AcVar ViewType \f "%tc1">% %<\AcVar ViewDetailId>%\PSCALE %<\AcVar ViewScale \f "%sn">%
 71
     4
340
6AD1
 90
       25
 62
   256
340
6AD1
 90
       25
 62
   256
280
     0
  0
LAYOUT
  5
6AE7
102
{ACAD_REACTORS
330
6AD6
102
}
330
6AD6
100
AcDbPlotSettings
  1

  2
産機2F_DocuPrint 4050
  4

  6

 40
0.0
 41
0.0
 42
0.0
 43
0.0
 44
0.0
 45
0.0
 46
0.0
 47
0.0
 48
0.0
 49
0.0
140
0.0
141
0.0
142
1.0
143
1.0
 70
  1712
 72
     0
 73
     0
 74
     0
  7

 75
     0
147
1.0
 76
     0
 77
     2
 78
   300
148
0.0
149
0.0
100
AcDbLayout
  1
Model
 70
     1
 71
     0
 10
0.0
 20
0.0
 11
12.0
 21
9.0
 12
0.0
 22
0.0
 32
0.0
 14
0.0
 24
0.0
 34
0.0
 15
0.0
 25
0.0
 35
0.0
146
0.0
 13
0.0
 23
0.0
 33
0.0
 16
1.0
 26
0.0
 36
0.0
 17
0.0
 27
1.0
 37
0.0
 76
     0
330
6AE4
331
6AE8
  0
LAYOUT
  5
6AE3
102
{ACAD_REACTORS
330
6AD6
102
}
330
6AD6
100
AcDbPlotSettings
  1

  2
産機2F_DocuPrint 4050
  4

  6

 40
0.0
 41
0.0
 42
0.0
 43
0.0
 44
0.0
 45
0.0
 46
0.0
 47
0.0
 48
0.0
 49
0.0
140
0.0
141
0.0
142
1.0
143
1.0
 70
   688
 72
     0
 73
     0
 74
     5
  7

 75
    16
147
1.0
 76
     0
 77
     2
 78
   300
148
0.0
149
0.0
100
AcDbLayout
  1
レイアウト1
 70
     0
 71
     1
 10
0.0
 20
0.0
 11
12.0
 21
9.0
 12
0.0
 22
0.0
 32
0.0
 14
1.000000000000000E+20
 24
1.000000000000000E+20
 34
1.000000000000000E+20
 15
-1.000000000000000E+20
 25
-1.000000000000000E+20
 35
-1.000000000000000E+20
146
0.0
 13
0.0
 23
0.0
 33
0.0
 16
1.0
 26
0.0
 36
0.0
 17
0.0
 27
1.0
 37
0.0
 76
     0
330
6AE0
  0
MATERIAL
  5
6A8E
102
{ACAD_XDICTIONARY
360
6A8F
102
}
102
{ACAD_REACTORS
330
6A85
102
}
330
6A85
100
AcDbMaterial
  1
ByBlock
 72
     0
 43
0.0208333333333333
 43
0.0
 43
0.0
 43
0.0
 43
0.0
 43
0.0208333333333333
 43
0.0
 43
0.0
 43
0.0
 43
0.0
 43
1.0
 43
0.0
 43
0.0
 43
0.0
 43
0.0
 43
1.0
 77
     0
 47
0.0208333333333333
 47
0.0
 47
0.0
 47
0.0
 47
0.0
 47
0.0208333333333333
 47
0.0
 47
0.0
 47
0.0
 47
0.0
 47
1.0
 47
0.0
 47
0.0
 47
0.0
 47
0.0
 47
1.0
171
     0
 49
0.0208333333333333
 49
0.0
 49
0.0
 49
0.0
 49
0.0
 49
0.0208333333333333
 49
0.0
 49
0.0
 49
0.0
 49
0.0
 49
1.0
 49
0.0
 49
0.0
 49
0.0
 49
0.0
 49
1.0
175
     0
142
0.0208333333333333
142
0.0
142
0.0
142
0.0
142
0.0
142
0.0208333333333333
142
0.0
142
0.0
142
0.0
142
0.0
142
1.0
142
0.0
142
0.0
142
0.0
142
0.0
142
1.0
179
     0
144
0.0208333333333333
144
0.0
144
0.0
144
0.0
144
0.0
144
0.0208333333333333
144
0.0
144
0.0
144
0.0
144
0.0
144
1.0
144
0.0
144
0.0
144
0.0
144
0.0
144
1.0
147
0.0208333333333333
147
0.0
147
0.0
147
0.0
147
0.0
147
0.0208333333333333
147
0.0
147
0.0
147
0.0
147
0.0
147
1.0
147
0.0
147
0.0
147
0.0
147
0.0
147
1.0
  0
MATERIAL
  5
6A86
102
{ACAD_XDICTIONARY
360
6A87
102
}
102
{ACAD_REACTORS
330
6A85
102
}
330
6A85
100
AcDbMaterial
  1
ByLayer
 72
     0
 43
0.0208333333333333
 43
0.0
 43
0.0
 43
0.0
 43
0.0
 43
0.0208333333333333
 43
0.0
 43
0.0
 43
0.0
 43
0.0
 43
1.0
 43
0.0
 43
0.0
 43
0.0
 43
0.0
 43
1.0
 77
     0
 47
0.0208333333333333
 47
0.0
 47
0.0
 47
0.0
 47
0.0
 47
0.0208333333333333
 47
0.0
 47
0.0
 47
0.0
 47
0.0
 47
1.0
 47
0.0
 47
0.0
 47
0.0
 47
0.0
 47
1.0
171
     0
 49
0.0208333333333333
 49
0.0
 49
0.0
 49
0.0
 49
0.0
 49
0.0208333333333333
 49
0.0
 49
0.0
 49
0.0
 49
0.0
 49
1.0
 49
0.0
 49
0.0
 49
0.0
 49
0.0
 49
1.0
175
     0
142
0.0208333333333333
142
0.0
142
0.0
142
0.0
142
0.0
142
0.0208333333333333
142
0.0
142
0.0
142
0.0
142
0.0
142
1.0
142
0.0
142
0.0
142
0.0
142
0.0
142
1.0
179
     0
144
0.0208333333333333
144
0.0
144
0.0
144
0.0
144
0.0
144
0.0208333333333333
144
0.0
144
0.0
144
0.0
144
0.0
144
1.0
144
0.0
144
0.0
144
0.0
144
0.0
144
1.0
147
0.0208333333333333
147
0.0
147
0.0
147
0.0
147
0.0
147
0.0208333333333333
147
0.0
147
0.0
147
0.0
147
0.0
147
1.0
147
0.0
147
0.0
147
0.0
147
0.0
147
1.0
  0
MATERIAL
  5
6A96
102
{ACAD_XDICTIONARY
360
6A97
102
}
102
{ACAD_REACTORS
330
6A85
102
}
330
6A85
100
AcDbMaterial
  1
Global
 72
     0
 43
0.0208333333333333
 43
0.0
 43
0.0
 43
0.0
 43
0.0
 43
0.0208333333333333
 43
0.0
 43
0.0
 43
0.0
 43
0.0
 43
1.0
 43
0.0
 43
0.0
 43
0.0
 43
0.0
 43
1.0
 77
     0
 47
0.0208333333333333
 47
0.0
 47
0.0
 47
0.0
 47
0.0
 47
0.0208333333333333
 47
0.0
 47
0.0
 47
0.0
 47
0.0
 47
1.0
 47
0.0
 47
0.0
 47
0.0
 47
0.0
 47
1.0
171
     0
 49
0.0208333333333333
 49
0.0
 49
0.0
 49
0.0
 49
0.0
 49
0.0208333333333333
 49
0.0
 49
0.0
 49
0.0
 49
0.0
 49
1.0
 49
0.0
 49
0.0
 49
0.0
 49
0.0
 49
1.0
175
     0
142
0.0208333333333333
142
0.0
142
0.0
142
0.0
142
0.0
142
0.0208333333333333
142
0.0
142
0.0
142
0.0
142
0.0
142
1.0
142
0.0
142
0.0
142
0.0
142
0.0
142
1.0
179
     0
144
0.0208333333333333
144
0.0
144
0.0
144
0.0
144
0.0
144
0.0208333333333333
144
0.0
144
0.0
144
0.0
144
0.0
144
1.0
144
0.0
144
0.0
144
0.0
144
0.0
144
1.0
147
0.0208333333333333
147
0.0
147
0.0
147
0.0
147
0.0
147
0.0208333333333333
147
0.0
147
0.0
147
0.0
147
0.0
147
1.0
147
0.0
147
0.0
147
0.0
147
0.0
147
1.0
  0
MLEADERSTYLE
  5
6ADB
102
{ACAD_REACTORS
330
6ADA
102
}
330
6ADA
100
AcDbMLeaderStyle
170
     2
171
     1
172
     0
 90
        2
 40
0.0
 41
0.0
173
     1
 91
-1056964608
340
6ACF
 92
       -2
290
     1
 42
0.09
291
     1
 43
0.36
  3
Standard
 44
0.18
300

342
6ACA
174
     1
178
     6
175
     1
176
     0
 93
-1056964608
 45
0.18
292
     0
297
     0
 46
0.18
 94
-1056964608
 47
1.0
 49
1.0
140
1.0
293
     1
141
0.0
294
     1
177
     0
142
1.0
295
     0
296
     0
143
0.125
1001
ACAD_MLEADERVER
1070
     2
  0
MLINESTYLE
  5
6AD4
102
{ACAD_REACTORS
330
6AD3
102
}
330
6AD3
100
AcDbMlineStyle
  2
STANDARD
 70
     0
  3

 62
   256
 51
90.0
 52
90.0
 71
     2
 49
0.5
 62
   256
  6
BYLAYER
 49
-0.5
 62
   256
  6
BYLAYER
  0
ACDBPLACEHOLDER
  5
6A84
102
{ACAD_REACTORS
330
6A83
102
}
330
6A83
  0
SCALE
  5
6AB8
102
{ACAD_REACTORS
330
6AB7
102
}
330
6AB7
100
AcDbScale
 70
     0
300
1:1
140
1.0
141
1.0
290
     1
  0
SCALE
  5
6AB9
102
{ACAD_REACTORS
330
6AB7
102
}
330
6AB7
100
AcDbScale
 70
     0
300
1/128" = 1'-0"
140
0.0078125
141
12.0
290
     0
  0
SCALE
  5
6ABA
102
{ACAD_REACTORS
330
6AB7
102
}
330
6AB7
100
AcDbScale
 70
     0
300
1/64" = 1'-0"
140
0.015625
141
12.0
290
     0
  0
SCALE
  5
6ABB
102
{ACAD_REACTORS
330
6AB7
102
}
330
6AB7
100
AcDbScale
 70
     0
300
1/32" = 1'-0"
140
0.03125
141
12.0
290
     0
  0
SCALE
  5
6ABC
102
{ACAD_REACTORS
330
6AB7
102
}
330
6AB7
100
AcDbScale
 70
     0
300
1/16" = 1'-0"
140
0.0625
141
12.0
290
     0
  0
SCALE
  5
6ABD
102
{ACAD_REACTORS
330
6AB7
102
}
330
6AB7
100
AcDbScale
 70
     0
300
3/32" = 1'-0"
140
0.09375
141
12.0
290
     0
  0
SCALE
  5
6ABE
102
{ACAD_REACTORS
330
6AB7
102
}
330
6AB7
100
AcDbScale
 70
     0
300
1/8" = 1'-0"
140
0.125
141
12.0
290
     0
  0
SCALE
  5
6ABF
102
{ACAD_REACTORS
330
6AB7
102
}
330
6AB7
100
AcDbScale
 70
     0
300
3/16" = 1'-0"
140
0.1875
141
12.0
290
     0
  0
SCALE
  5
6AC0
102
{ACAD_REACTORS
330
6AB7
102
}
330
6AB7
100
AcDbScale
 70
     0
300
1/4" = 1'-0"
140
0.25
141
12.0
290
     0
  0
SCALE
  5
6AC1
102
{ACAD_REACTORS
330
6AB7
102
}
330
6AB7
100
AcDbScale
 70
     0
300
3/8" = 1'-0"
140
0.375
141
12.0
290
     0
  0
SCALE
  5
6AC2
102
{ACAD_REACTORS
330
6AB7
102
}
330
6AB7
100
AcDbScale
 70
     0
300
1/2" = 1'-0"
140
0.5
141
12.0
290
     0
  0
SCALE
  5
6AC3
102
{ACAD_REACTORS
330
6AB7
102
}
330
6AB7
100
AcDbScale
 70
     0
300
3/4" = 1'-0"
140
0.75
141
12.0
290
     0
  0
SCALE
  5
6AC4
102
{ACAD_REACTORS
330
6AB7
102
}
330
6AB7
100
AcDbScale
 70
     0
300
1" = 1'-0"
140
1.0
141
12.0
290
     0
  0
SCALE
  5
6AC5
102
{ACAD_REACTORS
330
6AB7
102
}
330
6AB7
100
AcDbScale
 70
     0
300
1-1/2" = 1'-0"
140
1.5
141
12.0
290
     0
  0
SCALE
  5
6AC6
102
{ACAD_REACTORS
330
6AB7
102
}
330
6AB7
100
AcDbScale
 70
     0
300
3" = 1'-0"
140
3.0
141
12.0
290
     0
  0
SCALE
  5
6AC7
102
{ACAD_REACTORS
330
6AB7
102
}
330
6AB7
100
AcDbScale
 70
     0
300
6" = 1'-0"
140
6.0
141
12.0
290
     0
  0
SCALE
  5
6AC8
102
{ACAD_REACTORS
330
6AB7
102
}
330
6AB7
100
AcDbScale
 70
     0
300
1'-0" = 1'-0"
140
12.0
141
12.0
290
     0
  0
ACDBSECTIONVIEWSTYLE
  5
6ADD
102
{ACAD_XDICTIONARY
360
6D63
102
}
102
{ACAD_REACTORS
330
6ADC
330
6B87
102
}
330
6ADC
100
AcDbModelDocViewStyle
 70
     0
  3
Imperial24
290
     0
100
AcDbSectionViewStyle
 70
     0
 71
     0
 90
       78
 71
     1
340
6ACA
 62
   256
 40
0.24
340
0
340
0
 62
   256
 40
0.24
300
I, O, Q, S, X, Z
 40
0.48
 90
        3
 40
0.18
 90
        1
 71
     2
340
6AD1
 90
       25
 62
   256
340
6AD1
 90
       50
 62
   256
 40
0.24
 40
0.0
 40
0.24
 71
     3
340
6ACA
 62
   256
 40
0.24
 90
        1
 40
0.75
 90
        1
300
%<\AcVar ViewType \f "%tc1">% %<\AcVar ViewSectionStartId>%-%<\AcVar ViewSectionEndId>%\PSCALE %<\AcVar ViewScale \f "%sn">%
 71
     4
 62
   256
 62
   257
300
ANSI31
 40
1.0
 90
        0
290
     0
290
     0
 90
        6
 40
0.0
 40
1.570796326794896
 40
0.2617993877991494
 40
1.308996938995747
 40
-0.2617993877991494
 40
1.832595714594046
  0
TABLESTYLE
  5
6AD9
102
{ACAD_XDICTIONARY
360
6D28
102
}
102
{ACAD_REACTORS
330
6AD8
102
}
330
6AD8
100
AcDbTableStyle
  3
Standard
 70
     0
 71
     0
 40
0.06
 41
0.06
280
     0
281
     0
  7
STANDARD
140
0.18
170
     2
 62
     0
 63
     7
283
     0
 90
      512
 91
        0
  1

274
    -2
284
     1
 64
     0
275
    -2
285
     1
 65
     0
276
    -2
286
     1
 66
     0
277
    -2
287
     1
 67
     0
278
    -2
288
     1
 68
     0
279
    -2
289
     1
 69
     0
  7
STANDARD
140
0.25
170
     5
 62
     0
 63
     7
283
     0
 90
      512
 91
        0
  1

274
    -2
284
     1
 64
     0
275
    -2
285
     1
 65
     0
276
    -2
286
     1
 66
     0
277
    -2
287
     1
 67
     0
278
    -2
288
     1
 68
     0
279
    -2
289
     1
 69
     0
  7
STANDARD
140
0.18
170
     5
 62
     0
 63
     7
283
     0
 90
      512
 91
        0
  1

274
    -2
284
     1
 64
     0
275
    -2
285
     1
 65
     0
276
    -2
286
     1
 66
     0
277
    -2
287
     1
 67
     0
278
    -2
288
     1
 68
     0
279
    -2
289
     1
 69
     0
  0
VISUALSTYLE
  5
6AA4
102
{ACAD_XDICTIONARY
360
6D3D
102
}
102
{ACAD_REACTORS
330
6A9E
102
}
330
6A9E
100
AcDbVisualStyle
  2
2dWireframe
 70
     4
 71
     0
 72
     2
 73
     0
 90
        0
 40
-0.6
 41
-30.0
 62
     5
 63
     7
421
 16777215
 74
     1
 91
        4
 64
     7
 65
   257
 75
     1
175
     1
 42
1.0
 92
        0
 66
   257
 43
1.0
 76
     1
 77
     6
 78
     2
 67
     7
 79
     5
170
     0
171
     0
290
     0
174
     0
 93
        1
 44
0.0
173
     0
291
     0
 45
0.0
1001
ACAD
1000
AcDbSavedByObjectVersion
1070
     0
  0
VISUALSTYLE
  5
6AA3
102
{ACAD_XDICTIONARY
360
6D3B
102
}
102
{ACAD_REACTORS
330
6A9E
102
}
330
6A9E
100
AcDbVisualStyle
  2
Basic
 70
     7
 71
     1
 72
     0
 73
     1
 90
        0
 40
-0.6
 41
-30.0
 62
     5
 63
     7
421
 16777215
 74
     0
 91
        4
 64
     7
 65
   257
 75
     1
175
     1
 42
1.0
 92
        8
 66
     7
 43
1.0
 76
     1
 77
     6
 78
     2
 67
     7
 79
     5
170
     0
171
     0
290
     0
174
     0
 93
        1
 44
0.0
173
     0
291
     1
 45
0.0
1001
ACAD
1000
AcDbSavedByObjectVersion
1070
     0
  0
VISUALSTYLE
  5
6AAA
102
{ACAD_XDICTIONARY
360
6D49
102
}
102
{ACAD_REACTORS
330
6A9E
102
}
330
6A9E
100
AcDbVisualStyle
  2
Brighten
 70
    12
 71
     2
 72
     2
 73
     0
 90
        0
 40
-0.6
 41
-30.0
 62
     5
 63
     7
421
 16777215
 74
     1
 91
        4
 64
     7
 65
   257
 75
     1
175
     1
 42
1.0
 92
        8
 66
     7
 43
1.0
 76
     1
 77
     6
 78
     2
 67
     7
 79
     5
170
     0
171
     0
290
     0
174
     0
 93
        1
 44
50.0
173
     0
291
     1
 45
0.0
1001
ACAD
1000
AcDbSavedByObjectVersion
1070
     0
  0
VISUALSTYLE
  5
6AAE
102
{ACAD_XDICTIONARY
360
6D51
102
}
102
{ACAD_REACTORS
330
6A9E
102
}
330
6A9E
100
AcDbVisualStyle
  2
ColorChange
 70
    16
 71
     2
 72
     2
 73
     3
 90
        0
 40
-0.6
 41
-30.0
 62
     5
 63
     8
421
  8421504
 74
     1
 91
        4
 64
     7
 65
   257
 75
     1
175
     1
 42
1.0
 92
        8
 66
     8
424
  8421504
 43
1.0
 76
     1
 77
     6
 78
     2
 67
     7
 79
     5
170
     0
171
     0
290
     0
174
     0
 93
        1
 44
0.0
173
     0
291
     1
 45
0.0
1001
ACAD
1000
AcDbSavedByObjectVersion
1070
     0
  0
VISUALSTYLE
  5
6AA7
102
{ACAD_XDICTIONARY
360
6D43
102
}
102
{ACAD_REACTORS
330
6A9E
102
}
330
6A9E
100
AcDbVisualStyle
  2
Conceptual
 70
     9
 71
     3
 72
     2
 73
     0
 90
        0
 40
-0.6
 41
-30.0
 62
     5
 63
     7
421
 16777215
 74
     2
 91
        2
 64
     7
 65
   257
 75
     1
175
     1
 42
179.0
 92
        8
 66
     7
 43
1.0
 76
     1
 77
     6
 78
     2
 67
     7
 79
     3
170
     0
171
     0
290
     0
174
     0
 93
        1
 44
0.0
173
     0
291
     0
 45
0.0
1001
ACAD
1000
AcDbSavedByObjectVersion
1070
     0
  0
VISUALSTYLE
  5
6AA9
102
{ACAD_XDICTIONARY
360
6D47
102
}
102
{ACAD_REACTORS
330
6A9E
102
}
330
6A9E
100
AcDbVisualStyle
  2
Dim
 70
    11
 71
     2
 72
     2
 73
     0
 90
        0
 40
-0.6
 41
-30.0
 62
     5
 63
     7
421
 16777215
 74
     1
 91
        4
 64
     7
 65
   257
 75
     1
175
     1
 42
1.0
 92
        8
 66
     7
 43
1.0
 76
     1
 77
     6
 78
     2
 67
     7
 79
     5
170
     0
171
     0
290
     0
174
     0
 93
        1
 44
-50.0
173
     0
291
     1
 45
0.0
1001
ACAD
1000
AcDbSavedByObjectVersion
1070
     0
  0
VISUALSTYLE
  5
6AB6
102
{ACAD_XDICTIONARY
360
6D61
102
}
102
{ACAD_REACTORS
330
6A9E
102
}
330
6A9E
100
AcDbVisualStyle
  2
EdgeColorOff
 70
    22
 71
     2
 72
     2
 73
     0
 90
        0
 40
-0.6
 41
-30.0
 62
     5
 63
     7
421
 16777215
 74
     1
 91
        4
 64
     7
 65
   257
 75
     1
175
     1
 42
1.0
 92
        8
 66
     7
 43
1.0
 76
     1
 77
     6
 78
     2
 67
     7
 79
     5
170
     0
171
     0
290
     0
174
     0
 93
        1
 44
0.0
173
     0
291
     1
 45
0.0
1001
ACAD
1000
AcDbSavedByObjectVersion
1070
     0
  0
VISUALSTYLE
  5
6AAD
102
{ACAD_XDICTIONARY
360
6D4F
102
}
102
{ACAD_REACTORS
330
6A9E
102
}
330
6A9E
100
AcDbVisualStyle
  2
Facepattern
 70
    15
 71
     2
 72
     2
 73
     0
 90
        0
 40
-0.6
 41
-30.0
 62
     5
 63
     7
421
 16777215
 74
     1
 91
        4
 64
     7
 65
   257
 75
     1
175
     1
 42
1.0
 92
        8
 66
     7
 43
1.0
 76
     1
 77
     6
 78
     2
 67
     7
 79
     5
170
     0
171
     0
290
     0
174
     0
 93
        1
 44
0.0
173
     0
291
     1
 45
0.0
1001
ACAD
1000
AcDbSavedByObjectVersion
1070
     0
  0
VISUALSTYLE
  5
6A9F
102
{ACAD_XDICTIONARY
360
6D33
102
}
102
{ACAD_REACTORS
330
6A9E
102
}
330
6A9E
100
AcDbVisualStyle
  2
Flat
 70
     0
 71
     2
 72
     1
 73
     1
 90
        2
 40
-0.6
 41
30.0
 62
     5
 63
     7
421
 16777215
 74
     0
 91
        0
 64
     7
 65
   257
 75
     1
175
     1
 42
1.0
 92
        8
 66
     7
 43
1.0
 76
     1
 77
     6
 78
     2
 67
     7
 79
     5
170
     0
171
     0
290
     0
174
     0
 93
       13
 44
0.0
173
     0
291
     1
 45
0.0
1001
ACAD
1000
AcDbSavedByObjectVersion
1070
     0
  0
VISUALSTYLE
  5
6AA0
102
{ACAD_XDICTIONARY
360
6D35
102
}
102
{ACAD_REACTORS
330
6A9E
102
}
330
6A9E
100
AcDbVisualStyle
  2
FlatWithEdges
 70
     1
 71
     2
 72
     1
 73
     1
 90
        2
 40
-0.6
 41
30.0
 62
     5
 63
     7
421
 16777215
 74
     1
 91
        0
 64
     7
 65
   257
 75
     1
175
     1
 42
1.0
 92
        0
 66
   257
 43
1.0
 76
     1
 77
     6
 78
     2
 67
     7
 79
     5
170
     0
171
     0
290
     0
174
     0
 93
       13
 44
0.0
173
     0
291
     1
 45
0.0
1001
ACAD
1000
AcDbSavedByObjectVersion
1070
     0
  0
VISUALSTYLE
  5
6AA1
102
{ACAD_XDICTIONARY
360
6D37
102
}
102
{ACAD_REACTORS
330
6A9E
102
}
330
6A9E
100
AcDbVisualStyle
  2
Gouraud
 70
     2
 71
     2
 72
     2
 73
     1
 90
        2
 40
-0.6
 41
30.0
 62
     5
 63
     7
421
 16777215
 74
     0
 91
        0
 64
     7
 65
   257
 75
     1
175
     1
 42
1.0
 92
        0
 66
     7
 43
1.0
 76
     1
 77
     6
 78
     2
 67
     7
 79
     5
170
     0
171
     0
290
     0
174
     0
 93
       13
 44
0.0
173
     0
291
     1
 45
0.0
1001
ACAD
1000
AcDbSavedByObjectVersion
1070
     0
  0
VISUALSTYLE
  5
6AA2
102
{ACAD_XDICTIONARY
360
6D39
102
}
102
{ACAD_REACTORS
330
6A9E
102
}
330
6A9E
100
AcDbVisualStyle
  2
GouraudWithEdges
 70
     3
 71
     2
 72
     2
 73
     1
 90
        2
 40
-0.6
 41
30.0
 62
     5
 63
     7
421
 16777215
 74
     1
 91
        0
 64
     7
 65
   257
 75
     1
175
     1
 42
1.0
 92
        0
 66
   257
 43
1.0
 76
     1
 77
     6
 78
     2
 67
     7
 79
     5
170
     0
171
     0
290
     0
174
     0
 93
       13
 44
0.0
173
     0
291
     1
 45
0.0
1001
ACAD
1000
AcDbSavedByObjectVersion
1070
     0
  0
VISUALSTYLE
  5
6AA6
102
{ACAD_XDICTIONARY
360
6D41
102
}
102
{ACAD_REACTORS
330
6A9E
102
}
330
6A9E
100
AcDbVisualStyle
  2
Hidden
 70
     6
 71
     1
 72
     2
 73
     2
 90
        0
 40
-0.6
 41
-30.0
 62
     5
 63
     7
421
 16777215
 74
     2
 91
        2
 64
     7
 65
   257
 75
     2
175
     1
 42
40.0
 92
        0
 66
   257
 43
1.0
 76
     1
 77
     6
 78
     2
 67
     7
 79
     3
170
     0
171
     0
290
     0
174
     0
 93
        1
 44
0.0
173
     0
291
     0
 45
0.0
1001
ACAD
1000
AcDbSavedByObjectVersion
1070
     0
  0
VISUALSTYLE
  5
6AB4
102
{ACAD_XDICTIONARY
360
6D5D
102
}
102
{ACAD_REACTORS
330
6A9E
102
}
330
6A9E
100
AcDbVisualStyle
  2
JitterOff
 70
    20
 71
     2
 72
     2
 73
     0
 90
        0
 40
-0.6
 41
-30.0
 62
     5
 63
     7
421
 16777215
 74
     1
 91
        4
 64
     7
 65
   257
 75
     1
175
     1
 42
1.0
 92
       10
 66
     7
 43
1.0
 76
     1
 77
     6
 78
     2
 67
     7
 79
     5
170
     0
171
     0
290
     0
174
     0
 93
        1
 44
0.0
173
     0
291
     1
 45
0.0
1001
ACAD
1000
AcDbSavedByObjectVersion
1070
     0
  0
VISUALSTYLE
  5
6AAC
102
{ACAD_XDICTIONARY
360
6D4D
102
}
102
{ACAD_REACTORS
330
6A9E
102
}
330
6A9E
100
AcDbVisualStyle
  2
Linepattern
 70
    14
 71
     2
 72
     2
 73
     0
 90
        0
 40
-0.6
 41
-30.0
 62
     5
 63
     7
421
 16777215
 74
     1
 91
        4
 64
     7
 65
   257
 75
     7
175
     7
 42
1.0
 92
        8
 66
     7
 43
1.0
 76
     1
 77
     6
 78
     2
 67
     7
 79
     5
170
     0
171
     0
290
     0
174
     0
 93
        1
 44
0.0
173
     0
291
     1
 45
0.0
1001
ACAD
1000
AcDbSavedByObjectVersion
1070
     0
  0
VISUALSTYLE
  5
6AB5
102
{ACAD_XDICTIONARY
360
6D5F
102
}
102
{ACAD_REACTORS
330
6A9E
102
}
330
6A9E
100
AcDbVisualStyle
  2
OverhangOff
 70
    21
 71
     2
 72
     2
 73
     0
 90
        0
 40
-0.6
 41
-30.0
 62
     5
 63
     7
421
 16777215
 74
     1
 91
        4
 64
     7
 65
   257
 75
     1
175
     1
 42
1.0
 92
        9
 66
     7
 43
1.0
 76
     1
 77
     6
 78
     2
 67
     7
 79
     5
170
     0
171
     0
290
     0
174
     0
 93
        1
 44
0.0
173
     0
291
     1
 45
0.0
1001
ACAD
1000
AcDbSavedByObjectVersion
1070
     0
  0
VISUALSTYLE
  5
6AA8
102
{ACAD_XDICTIONARY
360
6D45
102
}
102
{ACAD_REACTORS
330
6A9E
102
}
330
6A9E
100
AcDbVisualStyle
  2
Realistic
 70
     8
 71
     2
 72
     3
 73
     0
 90
        2
 40
-0.6
 41
30.0
 62
     5
 63
     7
421
 16777215
 74
     0
 91
        0
 64
     7
 65
   257
 75
     1
175
     1
 42
1.0
 92
        8
 66
   257
 43
1.0
 76
     1
 77
     6
 78
     2
 67
     7
 79
     3
170
     0
171
     0
290
     0
174
     0
 93
       13
 44
0.0
173
     0
291
     0
 45
0.0
1001
ACAD
1000
AcDbSavedByObjectVersion
1070
     0
  0
VISUALSTYLE
  5
6AB3
102
{ACAD_XDICTIONARY
360
6D5B
102
}
102
{ACAD_REACTORS
330
6A9E
102
}
330
6A9E
100
AcDbVisualStyle
  2
Shaded
 70
    27
 71
     2
 72
     2
 73
     1
 90
        2
 40
-0.6
 41
30.0
 62
     5
 63
     7
421
 16777215
 74
     0
 91
        4
 64
     7
 65
   257
 75
     1
175
     1
 42
1.0
 92
        8
 66
   257
 43
1.0
 76
     1
 77
     6
 78
     2
 67
     8
425
  7895160
 79
     3
170
     0
171
     0
290
     0
174
     0
 93
        5
 44
0.0
173
     0
291
     0
 45
0.0
1001
ACAD
1000
AcDbSavedByObjectVersion
1070
     0
  0
VISUALSTYLE
  5
6AB2
102
{ACAD_XDICTIONARY
360
6D59
102
}
102
{ACAD_REACTORS
330
6A9E
102
}
330
6A9E
100
AcDbVisualStyle
  2
Shaded with edges
 70
    26
 71
     2
 72
     2
 73
     1
 90
        2
 40
-0.6
 41
30.0
 62
     5
 63
     7
421
 16777215
 74
     1
 91
        2
 64
     7
 65
   257
 75
     2
175
     1
 42
1.0
 92
        8
 66
   257
 43
1.0
 76
     1
 77
     6
 78
     2
 67
     7
 79
     3
170
     0
171
     0
290
     0
174
     0
 93
        5
 44
0.0
173
     0
291
     0
 45
0.0
1001
ACAD
1000
AcDbSavedByObjectVersion
1070
     0
  0
VISUALSTYLE
  5
6AAF
102
{ACAD_XDICTIONARY
360
6D53
102
}
102
{ACAD_REACTORS
330
6A9E
102
}
330
6A9E
100
AcDbVisualStyle
  2
Shades of Gray
 70
    23
 71
     2
 72
     2
 73
     3
 90
        0
 40
-0.6
 41
-30.0
 62
     5
 63
     7
421
 16777215
 74
     2
 91
        2
 64
     7
 65
     7
 75
     1
175
     1
 42
40.0
 92
        8
 66
     7
 43
1.0
 76
     1
 77
     6
 78
     2
 67
     7
 79
     3
170
     0
171
     0
290
     0
174
     0
 93
        1
 44
0.0
173
     0
291
     0
 45
0.0
1001
ACAD
1000
AcDbSavedByObjectVersion
1070
     0
  0
VISUALSTYLE
  5
6AB0
102
{ACAD_XDICTIONARY
360
6D55
102
}
102
{ACAD_REACTORS
330
6A9E
102
}
330
6A9E
100
AcDbVisualStyle
  2
Sketchy
 70
    24
 71
     1
 72
     2
 73
     2
 90
        0
 40
-0.6
 41
-30.0
 62
     5
 63
     7
421
 16777215
 74
     2
 91
        2
 64
     7
 65
     7
 75
     1
175
     1
 42
40.0
 92
       11
 66
     7
 43
1.0
 76
     1
 77
     6
 78
     2
 67
     7
 79
     6
170
     0
171
     0
290
     0
174
     0
 93
        1
 44
0.0
173
     0
291
     0
 45
0.0
1001
ACAD
1000
AcDbSavedByObjectVersion
1070
     0
  0
VISUALSTYLE
  5
6AAB
102
{ACAD_XDICTIONARY
360
6D4B
102
}
102
{ACAD_REACTORS
330
6A9E
102
}
330
6A9E
100
AcDbVisualStyle
  2
Thicken
 70
    13
 71
     2
 72
     2
 73
     0
 90
        0
 40
-0.6
 41
-30.0
 62
     5
 63
     7
421
 16777215
 74
     1
 91
        4
 64
     7
 65
   257
 75
     1
175
     1
 42
1.0
 92
       12
 66
     7
 43
1.0
 76
     1
 77
     6
 78
     2
 67
     7
 79
     5
170
     0
171
     0
290
     0
174
     0
 93
        1
 44
0.0
173
     0
291
     1
 45
0.0
1001
ACAD
1000
AcDbSavedByObjectVersion
1070
     0
  0
VISUALSTYLE
  5
6AA5
102
{ACAD_XDICTIONARY
360
6D3F
102
}
102
{ACAD_REACTORS
330
6A9E
102
}
330
6A9E
100
AcDbVisualStyle
  2
Wireframe
 70
     5
 71
     0
 72
     2
 73
     0
 90
        0
 40
-0.6
 41
-30.0
 62
     5
 63
     7
421
 16777215
 74
     1
 91
        4
 64
     7
 65
   257
 75
     1
175
     1
 42
1.0
 92
        0
 66
   257
 43
1.0
 76
     1
 77
     6
 78
     2
 67
     7
 79
     3
170
     0
171
     0
290
     0
174
     0
 93
        1
 44
0.0
173
     0
291
     0
 45
0.0
1001
ACAD
1000
AcDbSavedByObjectVersion
1070
     0
  0
VISUALSTYLE
  5
6AB1
102
{ACAD_XDICTIONARY
360
6D57
102
}
102
{ACAD_REACTORS
330
6A9E
102
}
330
6A9E
100
AcDbVisualStyle
  2
X-Ray
 70
    25
 71
     2
 72
     2
 73
     1
 90
        1
 40
0.5
 41
-30.0
 62
     5
 63
     7
421
 16777215
 74
     1
 91
        0
 64
     7
 65
   257
 75
     1
175
     1
 42
1.0
 92
        8
 66
     7
 43
1.0
 76
     1
 77
     6
 78
     2
 67
     7
 79
     3
170
     0
171
     0
290
     0
174
     0
 93
       13
 44
0.0
173
     0
291
     0
 45
0.0
1001
ACAD
1000
AcDbSavedByObjectVersion
1070
     0
  0
DICTIONARYVAR
  5
6D23
102
{ACAD_REACTORS
330
6D1D
102
}
330
6D1D
100
DictionaryVariables
280
     0
  1
1:1
  0
DICTIONARYVAR
  5
6D1F
102
{ACAD_REACTORS
330
6D1D
102
}
330
6D1D
100
DictionaryVariables
280
     0
  1
STANDARD
  0
DICTIONARYVAR
  5
6D1E
102
{ACAD_REACTORS
330
6D1D
102
}
330
6D1D
100
DictionaryVariables
280
     0
  1
STANDARD
  0
DICTIONARYVAR
  5
6D20
102
{ACAD_REACTORS
330
6D1D
102
}
330
6D1D
100
DictionaryVariables
280
     0
  1
Imperial24
  0
DICTIONARYVAR
  5
6D21
102
{ACAD_REACTORS
330
6D1D
102
}
330
6D1D
100
DictionaryVariables
280
     0
  1
Imperial24
  0
DICTIONARYVAR
  5
6D25
102
{ACAD_REACTORS
330
6D1D
102
}
330
6D1D
100
DictionaryVariables
280
     0
  1
1
  0
DICTIONARYVAR
  5
6D26
102
{ACAD_REACTORS
330
6D1D
102
}
330
6D1D
100
DictionaryVariables
280
     0
  1
15
  0
DICTIONARYVAR
  5
6D24
102
{ACAD_REACTORS
330
6D1D
102
}
330
6D1D
100
DictionaryVariables
280
     0
  1
0
  0
DICTIONARYVAR
  5
6D22
102
{ACAD_REACTORS
330
6D1D
102
}
330
6D1D
100
DictionaryVariables
280
     0
  1
0
  0
DICTIONARYVAR
  5
6D27
102
{ACAD_REACTORS
330
6D1D
102
}
330
6D1D
100
DictionaryVariables
280
     0
  1
2
  0
DICTIONARY
  5
6D32
102
{ACAD_REACTORS
330
6D30
102
}
330
6D30
100
AcDbDictionary
281
     1
  0
DICTIONARY
  5
6D31
102
{ACAD_REACTORS
330
6D30
102
}
330
6D30
100
AcDbDictionary
281
     1
  3
2148114848304
350
6D2B
  3
2148114848320
350
6D2C
  3
2148114848336
350
6D2D
  3
2148114848352
350
6D2E
  3
2148114848368
350
6D2F
  0
DICTIONARY
  5
6B6B
102
{ACAD_REACTORS
330
6B64
102
}
330
6B64
100
AcDbDictionary
281
     1
  0
DICTIONARY
  5
6D65
330
6ADF
100
AcDbDictionary
280
     1
281
     1
  3
ACAD_XREC_ROUNDTRIP
360
6D66
  0
DICTIONARY
  5
6A8F
330
6A8E
100
AcDbDictionary
280
     1
281
     1
  3
BUMPTILE
360
6A91
  3
DIFFUSETILE
360
6A90
  3
OPACITYTILE
360
6A94
  3
REFLECTIONTILE
360
6A93
  3
REFRACTIONTILE
360
6A95
  3
SPECULARTILE
360
6A92
  0
DICTIONARY
  5
6A87
330
6A86
100
AcDbDictionary
280
     1
281
     1
  3
BUMPTILE
360
6A89
  3
DIFFUSETILE
360
6A88
  3
OPACITYTILE
360
6A8C
  3
REFLECTIONTILE
360
6A8B
  3
REFRACTIONTILE
360
6A8D
  3
SPECULARTILE
360
6A8A
  0
DICTIONARY
  5
6A97
330
6A96
100
AcDbDictionary
280
     1
281
     1
  3
BUMPTILE
360
6A99
  3
DIFFUSETILE
360
6A98
  3
OPACITYTILE
360
6A9C
  3
REFLECTIONTILE
360
6A9B
  3
REFRACTIONTILE
360
6A9D
  3
SPECULARTILE
360
6A9A
  0
DICTIONARY
  5
6D63
330
6ADD
100
AcDbDictionary
280
     1
281
     1
  3
ACAD_XREC_ROUNDTRIP
360
6D64
  0
DICTIONARY
  5
6D28
330
6AD9
100
AcDbDictionary
280
     1
281
     1
  3
ACAD_ROUNDTRIP_2008_TABLESTYLE_CELLSTYLEMAP
360
6D29
  0
DICTIONARY
  5
6D3D
330
6AA4
100
AcDbDictionary
280
     1
281
     1
  3
ACAD_XREC_ROUNDTRIP
360
6D3E
  0
DICTIONARY
  5
6D3B
330
6AA3
100
AcDbDictionary
280
     1
281
     1
  3
ACAD_XREC_ROUNDTRIP
360
6D3C
  0
DICTIONARY
  5
6D49
330
6AAA
100
AcDbDictionary
280
     1
281
     1
  3
ACAD_XREC_ROUNDTRIP
360
6D4A
  0
DICTIONARY
  5
6D51
330
6AAE
100
AcDbDictionary
280
     1
281
     1
  3
ACAD_XREC_ROUNDTRIP
360
6D52
  0
DICTIONARY
  5
6D43
330
6AA7
100
AcDbDictionary
280
     1
281
     1
  3
ACAD_XREC_ROUNDTRIP
360
6D44
  0
DICTIONARY
  5
6D47
330
6AA9
100
AcDbDictionary
280
     1
281
     1
  3
ACAD_XREC_ROUNDTRIP
360
6D48
  0
DICTIONARY
  5
6D61
330
6AB6
100
AcDbDictionary
280
     1
281
     1
  3
ACAD_XREC_ROUNDTRIP
360
6D62
  0
DICTIONARY
  5
6D4F
330
6AAD
100
AcDbDictionary
280
     1
281
     1
  3
ACAD_XREC_ROUNDTRIP
360
6D50
  0
DICTIONARY
  5
6D33
330
6A9F
100
AcDbDictionary
280
     1
281
     1
  3
ACAD_XREC_ROUNDTRIP
360
6D34
  0
DICTIONARY
  5
6D35
330
6AA0
100
AcDbDictionary
280
     1
281
     1
  3
ACAD_XREC_ROUNDTRIP
360
6D36
  0
DICTIONARY
  5
6D37
330
6AA1
100
AcDbDictionary
280
     1
281
     1
  3
ACAD_XREC_ROUNDTRIP
360
6D38
  0
DICTIONARY
  5
6D39
330
6AA2
100
AcDbDictionary
280
     1
281
     1
  3
ACAD_XREC_ROUNDTRIP
360
6D3A
  0
DICTIONARY
  5
6D41
330
6AA6
100
AcDbDictionary
280
     1
281
     1
  3
ACAD_XREC_ROUNDTRIP
360
6D42
  0
DICTIONARY
  5
6D5D
330
6AB4
100
AcDbDictionary
280
     1
281
     1
  3
ACAD_XREC_ROUNDTRIP
360
6D5E
  0
DICTIONARY
  5
6D4D
330
6AAC
100
AcDbDictionary
280
     1
281
     1
  3
ACAD_XREC_ROUNDTRIP
360
6D4E
  0
DICTIONARY
  5
6D5F
330
6AB5
100
AcDbDictionary
280
     1
281
     1
  3
ACAD_XREC_ROUNDTRIP
360
6D60
  0
DICTIONARY
  5
6D45
330
6AA8
100
AcDbDictionary
280
     1
281
     1
  3
ACAD_XREC_ROUNDTRIP
360
6D46
  0
DICTIONARY
  5
6D5B
330
6AB3
100
AcDbDictionary
280
     1
281
     1
  3
ACAD_XREC_ROUNDTRIP
360
6D5C
  0
DICTIONARY
  5
6D59
330
6AB2
100
AcDbDictionary
280
     1
281
     1
  3
ACAD_XREC_ROUNDTRIP
360
6D5A
  0
DICTIONARY
  5
6D53
330
6AAF
100
AcDbDictionary
280
     1
281
     1
  3
ACAD_XREC_ROUNDTRIP
360
6D54
  0
DICTIONARY
  5
6D55
330
6AB0
100
AcDbDictionary
280
     1
281
     1
  3
ACAD_XREC_ROUNDTRIP
360
6D56
  0
DICTIONARY
  5
6D4B
330
6AAB
100
AcDbDictionary
280
     1
281
     1
  3
ACAD_XREC_ROUNDTRIP
360
6D4C
  0
DICTIONARY
  5
6D3F
330
6AA5
100
AcDbDictionary
280
     1
281
     1
  3
ACAD_XREC_ROUNDTRIP
360
6D40
  0
DICTIONARY
  5
6D57
330
6AB1
100
AcDbDictionary
280
     1
281
     1
  3
ACAD_XREC_ROUNDTRIP
360
6D58
  0
XRECORD
  5
6D2B
102
{ACAD_REACTORS
330
6D31
102
}
330
6D31
100
AcDbXrecord
280
     1
  1
AcDb_Thumbnail_Schema
102
{ATTRRECORD
341
6D2C
  2
AcDbDs::TreatedAsObjectData
280
     1
291
     1
102
ATTRRECORD}
102
{ATTRRECORD
341
6D2D
  2
AcDbDs::Legacy
280
     1
291
     1
102
ATTRRECORD}
  2
AcDbDs::ID
280
    10
 91
        8
102
{ATTRRECORD
341
6D2E
  2
AcDs:Indexable
280
     1
291
     1
102
ATTRRECORD}
102
{ATTRRECORD
341
6D2F
  2
AcDbDs::HandleAttribute
280
     7
282
     1
102
ATTRRECORD}
  2
Thumbnail_Data
280
    15
 91
        0
  0
XRECORD
  5
6D2C
102
{ACAD_REACTORS
330
6D31
102
}
330
6D31
100
AcDbXrecord
280
     1
  1
AcDbDs::TreatedAsObjectDataSchema
  2
AcDbDs::TreatedAsObjectData
280
     1
 91
        0
  0
XRECORD
  5
6D2D
102
{ACAD_REACTORS
330
6D31
102
}
330
6D31
100
AcDbXrecord
280
     1
  1
AcDbDs::LegacySchema
  2
AcDbDs::Legacy
280
     1
 91
        0
  0
XRECORD
  5
6D2E
102
{ACAD_REACTORS
330
6D31
102
}
330
6D31
100
AcDbXrecord
280
     1
  1
AcDbDs::IndexedPropertySchema
  2
AcDs:Indexable
280
     1
 91
        0
  0
XRECORD
  5
6D2F
102
{ACAD_REACTORS
330
6D31
102
}
330
6D31
100
AcDbXrecord
280
     1
  1
AcDbDs::HandleAttributeSchema
  2
AcDbDs::HandleAttribute
280
     7
 91
        1
284
     1
  0
XRECORD
  5
6D66
102
{ACAD_REACTORS
330
6D65
102
}
330
6D65
100
AcDbXrecord
280
     1
102
DISPLAYNAME
  1
Imperial24
102
FLAGS
 90
        0
  0
XRECORD
  5
6A91
102
{ACAD_REACTORS
330
6A8F
102
}
330
6A8F
100
AcDbXrecord
280
     1
270
     1
271
     1
  0
XRECORD
  5
6A90
102
{ACAD_REACTORS
330
6A8F
102
}
330
6A8F
100
AcDbXrecord
280
     1
270
     1
271
     1
  0
XRECORD
  5
6A94
102
{ACAD_REACTORS
330
6A8F
102
}
330
6A8F
100
AcDbXrecord
280
     1
270
     1
271
     1
  0
XRECORD
  5
6A93
102
{ACAD_REACTORS
330
6A8F
102
}
330
6A8F
100
AcDbXrecord
280
     1
270
     1
271
     1
  0
XRECORD
  5
6A95
102
{ACAD_REACTORS
330
6A8F
102
}
330
6A8F
100
AcDbXrecord
280
     1
270
     1
271
     1
  0
XRECORD
  5
6A92
102
{ACAD_REACTORS
330
6A8F
102
}
330
6A8F
100
AcDbXrecord
280
     1
270
     1
271
     1
  0
XRECORD
  5
6A89
102
{ACAD_REACTORS
330
6A87
102
}
330
6A87
100
AcDbXrecord
280
     1
270
     1
271
     1
  0
XRECORD
  5
6A88
102
{ACAD_REACTORS
330
6A87
102
}
330
6A87
100
AcDbXrecord
280
     1
270
     1
271
     1
  0
XRECORD
  5
6A8C
102
{ACAD_REACTORS
330
6A87
102
}
330
6A87
100
AcDbXrecord
280
     1
270
     1
271
     1
  0
XRECORD
  5
6A8B
102
{ACAD_REACTORS
330
6A87
102
}
330
6A87
100
AcDbXrecord
280
     1
270
     1
271
     1
  0
XRECORD
  5
6A8D
102
{ACAD_REACTORS
330
6A87
102
}
330
6A87
100
AcDbXrecord
280
     1
270
     1
271
     1
  0
XRECORD
  5
6A8A
102
{ACAD_REACTORS
330
6A87
102
}
330
6A87
100
AcDbXrecord
280
     1
270
     1
271
     1
  0
XRECORD
  5
6A99
102
{ACAD_REACTORS
330
6A97
102
}
330
6A97
100
AcDbXrecord
280
     1
270
     1
271
     1
  0
XRECORD
  5
6A98
102
{ACAD_REACTORS
330
6A97
102
}
330
6A97
100
AcDbXrecord
280
     1
270
     1
271
     1
  0
XRECORD
  5
6A9C
102
{ACAD_REACTORS
330
6A97
102
}
330
6A97
100
AcDbXrecord
280
     1
270
     1
271
     1
  0
XRECORD
  5
6A9B
102
{ACAD_REACTORS
330
6A97
102
}
330
6A97
100
AcDbXrecord
280
     1
270
     1
271
     1
  0
XRECORD
  5
6A9D
102
{ACAD_REACTORS
330
6A97
102
}
330
6A97
100
AcDbXrecord
280
     1
270
     1
271
     1
  0
XRECORD
  5
6A9A
102
{ACAD_REACTORS
330
6A97
102
}
330
6A97
100
AcDbXrecord
280
     1
270
     1
271
     1
  0
XRECORD
  5
6D64
102
{ACAD_REACTORS
330
6D63
102
}
330
6D63
100
AcDbXrecord
280
     1
102
DISPLAYNAME
  1
Imperial24
102
FLAGS
 90
        0
  0
CELLSTYLEMAP
  5
6D29
102
{ACAD_REACTORS
330
6D28
102
}
330
6D28
100
AcDbCellStyleMap
 90
        3
300
CELLSTYLE
  1
TABLEFORMAT_BEGIN
 90
        5
170
     1
 91
        0
 92
    32768
 62
   257
 93
        1
300
CONTENTFORMAT
  1
CONTENTFORMAT_BEGIN
 90
        0
 91
        0
 92
      512
 93
        0
300

 40
0.0
140
1.0
 94
        5
 62
     0
340
6ACA
144
0.25
309
CONTENTFORMAT_END
171
     0
 94
        0
309
TABLEFORMAT_END
  1
CELLSTYLE_BEGIN
 90
        1
 91
        1
300
_TITLE
309
CELLSTYLE_END
300
CELLSTYLE
  1
TABLEFORMAT_BEGIN
 90
        5
170
     1
 91
        0
 92
        0
 62
   257
 93
        1
300
CONTENTFORMAT
  1
CONTENTFORMAT_BEGIN
 90
        0
 91
        0
 92
      512
 93
        0
300

 40
0.0
140
1.0
 94
        5
 62
     0
340
6ACA
144
0.18
309
CONTENTFORMAT_END
171
     0
 94
        0
309
TABLEFORMAT_END
  1
CELLSTYLE_BEGIN
 90
        2
 91
        1
300
_HEADER
309
CELLSTYLE_END
300
CELLSTYLE
  1
TABLEFORMAT_BEGIN
 90
        5
170
     1
 91
        0
 92
        0
 62
   257
 93
        1
300
CONTENTFORMAT
  1
CONTENTFORMAT_BEGIN
 90
        0
 91
        0
 92
      512
 93
        0
300

 40
0.0
140
1.0
 94
        2
 62
     0
340
6ACA
144
0.18
309
CONTENTFORMAT_END
171
     0
 94
        0
309
TABLEFORMAT_END
  1
CELLSTYLE_BEGIN
 90
        3
 91
        2
300
_DATA
309
CELLSTYLE_END
  0
XRECORD
  5
6D3E
102
{ACAD_REACTORS
330
6D3D
102
}
330
6D3D
100
AcDbXrecord
280
     1
102
RTVSPost2010Prop28
280
     1
102
RTVSPost2010PropOp28
 70
     1
102
RTVSPost2010Prop29
280
     1
102
RTVSPost2010PropOp29
 70
     1
102
RTVSPost2010Prop30
280
     0
102
RTVSPost2010PropOp30
 70
     1
102
RTVSPost2010Prop31
280
     0
102
RTVSPost2010PropOp31
 70
     1
102
RTVSPost2010Prop32
280
     0
102
RTVSPost2010PropOp32
 70
     1
102
RTVSPost2010Prop33
280
     0
102
RTVSPost2010PropOp33
 70
     1
102
RTVSPost2010Prop34
280
     0
102
RTVSPost2010PropOp34
 70
     1
102
RTVSPost2010Prop35
280
     0
102
RTVSPost2010PropOp35
 70
     1
102
RTVSPost2010Prop36
280
     0
102
RTVSPost2010PropOp36
 70
     1
102
RTVSPost2010Prop37
 90
       50
102
RTVSPost2010PropOp37
 70
     1
102
RTVSPost2010Prop38
140
0.0
102
RTVSPost2010PropOp38
 70
     1
102
RTVSPost2010Prop39
140
1.0
102
RTVSPost2010PropOp39
 70
     1
102
RTVSPost2010Prop40
 90
        0
102
RTVSPost2010PropOp40
 70
     1
102
RTVSPost2010Prop41ColorIndex
 90
       18
102
RTVSPost2010Prop41ColorRGB
 90
        0
102
RTVSPost2010PropOp41
 70
     1
102
RTVSPost2010Prop42
 90
       50
102
RTVSPost2010PropOp42
 70
     1
102
RTVSPost2010Prop43
 90
        3
102
RTVSPost2010PropOp43
 70
     1
102
RTVSPost2010Prop44ColorIndex
 90
        5
102
RTVSPost2010Prop44ColorRGB
 90
      255
102
RTVSPost2010PropOp44
 70
     1
102
RTVSPost2010Prop45
280
     0
102
RTVSPost2010PropOp45
 70
     1
102
RTVSPost2010Prop46
 90
       50
102
RTVSPost2010PropOp46
 70
     1
102
RTVSPost2010Prop47
 90
       50
102
RTVSPost2010PropOp47
 70
     1
102
RTVSPost2010Prop48
 90
       50
102
RTVSPost2010PropOp48
 70
     1
102
RTVSPost2010Prop49
280
     0
102
RTVSPost2010PropOp49
 70
     1
102
RTVSPost2010Prop50
 90
       50
102
RTVSPost2010PropOp50
 70
     1
102
RTVSPost2010Prop51ColorIndex
 90
      256
102
RTVSPost2010Prop51ColorRGB
 90
-16777216
102
RTVSPost2010PropOp51
 70
     0
102
RTVSPost2010Prop52
140
1.0
102
RTVSPost2010PropOp52
 70
     0
102
RTVSPost2010Prop53
 90
        2
102
RTVSPost2010PropOp53
 70
     1
102
RTVSPost2010Prop54
  1
strokes_ogs.tif
102
RTVSPost2010PropOp54
 70
     1
102
RTVSPost2010Prop55
280
     0
102
RTVSPost2010PropOp55
 70
     1
102
RTVSPost2010Prop56
140
1.0
102
RTVSPost2010PropOp56
 70
     1
102
RTVSPost2010Prop57
140
1.0
102
RTVSPost2010PropOp57
 70
     1
102
RTVSPropertyOp0
 70
     1
102
RTVSPropertyOp1
 70
     1
102
RTVSPropertyOp2
 70
     1
102
RTVSPropertyOp3
 70
     1
102
RTVSPropertyOp4
 70
     1
102
RTVSPropertyOp5
 70
     1
102
RTVSPropertyOp6
 70
     1
102
RTVSPropertyOp7
 70
     1
102
RTVSPropertyOp8
 70
     1
102
RTVSPropertyOp9
 70
     1
102
RTVSPropertyOp10
 70
     1
102
RTVSPropertyOp11
 70
     1
102
RTVSPropertyOp12
 70
     1
102
RTVSPropertyOp13
 70
     1
102
RTVSPropertyOp14
 70
     1
102
RTVSPropertyOp15
 70
     1
102
RTVSPropertyOp16
 70
     1
102
RTVSPropertyOp17
 70
     1
102
RTVSPropertyOp18
 70
     1
102
RTVSPropertyOp19
 70
     1
102
RTVSPropertyOp20
 70
     1
102
RTVSPropertyOp21
 70
     1
102
RTVSPropertyOp22
 70
     1
102
RTVSPropertyOp23
 70
     1
102
RTVSPropertyOp24
 70
     1
102
RTVSPropertyOp25
 70
     1
102
RTVSPropertyOp26
 70
     1
102
RTVSPropertyOp27
 70
     1
102
RTVSPropertyOp28
 70
     1
102
RTVSPropertyOp29
 70
     1
102
RTVSPropertyOp30
 70
     1
102
RTVSPropertyOp31
 70
     1
102
RTVSPropertyOp32
 70
     1
102
RTVSPropertyOp33
 70
     1
102
RTVSPropertyOp34
 70
     1
102
RTVSPropertyOp35
 70
     1
102
RTVSPropertyOp36
 70
     1
102
RTVSPropertyOp37
 70
     1
102
RTVSPropertyOp38
 70
     1
102
RTVSPropertyOp39
 70
     1
102
RTVSPropertyOp40
 70
     1
102
RTVSPropertyOp41
 70
     1
102
RTVSPropertyOp42
 70
     1
102
RTVSPropertyOp43
 70
     1
102
RTVSPropertyOp44
 70
     1
102
RTVSPropertyOp45
 70
     1
102
RTVSPropertyOp46
 70
     1
102
RTVSPropertyOp47
 70
     1
102
RTVSPropertyOp48
 70
     1
102
RTVSPropertyOp49
 70
     1
102
RTVSPropertyOp50
 70
     1
102
RTVSPropertyOp51
 70
     0
102
RTVSPropertyOp52
 70
     0
102
RTVSPropertyOp53
 70
     1
102
RTVSPropertyOp54
 70
     1
102
RTVSPropertyOp55
 70
     1
102
RTVSPropertyOp56
 70
     1
102
RTVSPropertyOp57
 70
     1
102
RTVSPropertyOp58
 70
     1
102
RTVSPropertyOp59
 70
     1
102
RTVSPropertyOp60
 70
     1
102
RTVSPropertyOp61
 70
     1
102
RTVSPropertyOp62
 70
     1
  0
XRECORD
  5
6D3C
102
{ACAD_REACTORS
330
6D3B
102
}
330
6D3B
100
AcDbXrecord
280
     1
102
RTVSPost2010Prop28
280
     0
102
RTVSPost2010PropOp28
 70
     1
102
RTVSPost2010Prop29
280
     1
102
RTVSPost2010PropOp29
 70
     1
102
RTVSPost2010Prop30
280
     1
102
RTVSPost2010PropOp30
 70
     1
102
RTVSPost2010Prop31
280
     0
102
RTVSPost2010PropOp31
 70
     1
102
RTVSPost2010Prop32
280
     0
102
RTVSPost2010PropOp32
 70
     1
102
RTVSPost2010Prop33
280
     0
102
RTVSPost2010PropOp33
 70
     1
102
RTVSPost2010Prop34
280
     0
102
RTVSPost2010PropOp34
 70
     1
102
RTVSPost2010Prop35
280
     0
102
RTVSPost2010PropOp35
 70
     1
102
RTVSPost2010Prop36
280
     0
102
RTVSPost2010PropOp36
 70
     1
102
RTVSPost2010Prop37
 90
       50
102
RTVSPost2010PropOp37
 70
     1
102
RTVSPost2010Prop38
140
0.0
102
RTVSPost2010PropOp38
 70
     1
102
RTVSPost2010Prop39
140
1.0
102
RTVSPost2010PropOp39
 70
     1
102
RTVSPost2010Prop40
 90
        0
102
RTVSPost2010PropOp40
 70
     1
102
RTVSPost2010Prop41ColorIndex
 90
       18
102
RTVSPost2010Prop41ColorRGB
 90
        0
102
RTVSPost2010PropOp41
 70
     1
102
RTVSPost2010Prop42
 90
       50
102
RTVSPost2010PropOp42
 70
     1
102
RTVSPost2010Prop43
 90
        3
102
RTVSPost2010PropOp43
 70
     1
102
RTVSPost2010Prop44ColorIndex
 90
        5
102
RTVSPost2010Prop44ColorRGB
 90
      255
102
RTVSPost2010PropOp44
 70
     1
102
RTVSPost2010Prop45
280
     0
102
RTVSPost2010PropOp45
 70
     1
102
RTVSPost2010Prop46
 90
       50
102
RTVSPost2010PropOp46
 70
     1
102
RTVSPost2010Prop47
 90
       50
102
RTVSPost2010PropOp47
 70
     1
102
RTVSPost2010Prop48
 90
       50
102
RTVSPost2010PropOp48
 70
     1
102
RTVSPost2010Prop49
280
     0
102
RTVSPost2010PropOp49
 70
     1
102
RTVSPost2010Prop50
 90
       50
102
RTVSPost2010PropOp50
 70
     1
102
RTVSPost2010Prop51ColorIndex
 90
      256
102
RTVSPost2010Prop51ColorRGB
 90
-16777216
102
RTVSPost2010PropOp51
 70
     0
102
RTVSPost2010Prop52
140
1.0
102
RTVSPost2010PropOp52
 70
     0
102
RTVSPost2010Prop53
 90
        2
102
RTVSPost2010PropOp53
 70
     1
102
RTVSPost2010Prop54
  1
strokes_ogs.tif
102
RTVSPost2010PropOp54
 70
     1
102
RTVSPost2010Prop55
280
     0
102
RTVSPost2010PropOp55
 70
     1
102
RTVSPost2010Prop56
140
1.0
102
RTVSPost2010PropOp56
 70
     1
102
RTVSPost2010Prop57
140
1.0
102
RTVSPost2010PropOp57
 70
     1
102
RTVSPropertyOp0
 70
     1
102
RTVSPropertyOp1
 70
     1
102
RTVSPropertyOp2
 70
     1
102
RTVSPropertyOp3
 70
     1
102
RTVSPropertyOp4
 70
     1
102
RTVSPropertyOp5
 70
     1
102
RTVSPropertyOp6
 70
     1
102
RTVSPropertyOp7
 70
     1
102
RTVSPropertyOp8
 70
     1
102
RTVSPropertyOp9
 70
     1
102
RTVSPropertyOp10
 70
     1
102
RTVSPropertyOp11
 70
     1
102
RTVSPropertyOp12
 70
     1
102
RTVSPropertyOp13
 70
     1
102
RTVSPropertyOp14
 70
     1
102
RTVSPropertyOp15
 70
     1
102
RTVSPropertyOp16
 70
     1
102
RTVSPropertyOp17
 70
     1
102
RTVSPropertyOp18
 70
     1
102
RTVSPropertyOp19
 70
     1
102
RTVSPropertyOp20
 70
     1
102
RTVSPropertyOp21
 70
     1
102
RTVSPropertyOp22
 70
     1
102
RTVSPropertyOp23
 70
     1
102
RTVSPropertyOp24
 70
     1
102
RTVSPropertyOp25
 70
     1
102
RTVSPropertyOp26
 70
     1
102
RTVSPropertyOp27
 70
     1
102
RTVSPropertyOp28
 70
     1
102
RTVSPropertyOp29
 70
     1
102
RTVSPropertyOp30
 70
     1
102
RTVSPropertyOp31
 70
     1
102
RTVSPropertyOp32
 70
     1
102
RTVSPropertyOp33
 70
     1
102
RTVSPropertyOp34
 70
     1
102
RTVSPropertyOp35
 70
     1
102
RTVSPropertyOp36
 70
     1
102
RTVSPropertyOp37
 70
     1
102
RTVSPropertyOp38
 70
     1
102
RTVSPropertyOp39
 70
     1
102
RTVSPropertyOp40
 70
     1
102
RTVSPropertyOp41
 70
     1
102
RTVSPropertyOp42
 70
     1
102
RTVSPropertyOp43
 70
     1
102
RTVSPropertyOp44
 70
     1
102
RTVSPropertyOp45
 70
     1
102
RTVSPropertyOp46
 70
     1
102
RTVSPropertyOp47
 70
     1
102
RTVSPropertyOp48
 70
     1
102
RTVSPropertyOp49
 70
     1
102
RTVSPropertyOp50
 70
     1
102
RTVSPropertyOp51
 70
     0
102
RTVSPropertyOp52
 70
     0
102
RTVSPropertyOp53
 70
     1
102
RTVSPropertyOp54
 70
     1
102
RTVSPropertyOp55
 70
     1
102
RTVSPropertyOp56
 70
     1
102
RTVSPropertyOp57
 70
     1
102
RTVSPropertyOp58
 70
     1
102
RTVSPropertyOp59
 70
     1
102
RTVSPropertyOp60
 70
     1
102
RTVSPropertyOp61
 70
     1
102
RTVSPropertyOp62
 70
     1
  0
XRECORD
  5
6D4A
102
{ACAD_REACTORS
330
6D49
102
}
330
6D49
100
AcDbXrecord
280
     1
102
RTVSPost2010Prop28
280
     0
102
RTVSPost2010PropOp28
 70
     1
102
RTVSPost2010Prop29
280
     1
102
RTVSPost2010PropOp29
 70
     1
102
RTVSPost2010Prop30
280
     1
102
RTVSPost2010PropOp30
 70
     1
102
RTVSPost2010Prop31
280
     0
102
RTVSPost2010PropOp31
 70
     1
102
RTVSPost2010Prop32
280
     0
102
RTVSPost2010PropOp32
 70
     1
102
RTVSPost2010Prop33
280
     0
102
RTVSPost2010PropOp33
 70
     1
102
RTVSPost2010Prop34
280
     0
102
RTVSPost2010PropOp34
 70
     1
102
RTVSPost2010Prop35
280
     0
102
RTVSPost2010PropOp35
 70
     1
102
RTVSPost2010Prop36
280
     0
102
RTVSPost2010PropOp36
 70
     1
102
RTVSPost2010Prop37
 90
       50
102
RTVSPost2010PropOp37
 70
     1
102
RTVSPost2010Prop38
140
0.0
102
RTVSPost2010PropOp38
 70
     1
102
RTVSPost2010Prop39
140
1.0
102
RTVSPost2010PropOp39
 70
     1
102
RTVSPost2010Prop40
 90
        0
102
RTVSPost2010PropOp40
 70
     1
102
RTVSPost2010Prop41ColorIndex
 90
       18
102
RTVSPost2010Prop41ColorRGB
 90
        0
102
RTVSPost2010PropOp41
 70
     1
102
RTVSPost2010Prop42
 90
       50
102
RTVSPost2010PropOp42
 70
     1
102
RTVSPost2010Prop43
 90
        3
102
RTVSPost2010PropOp43
 70
     1
102
RTVSPost2010Prop44ColorIndex
 90
        5
102
RTVSPost2010Prop44ColorRGB
 90
      255
102
RTVSPost2010PropOp44
 70
     1
102
RTVSPost2010Prop45
280
     0
102
RTVSPost2010PropOp45
 70
     1
102
RTVSPost2010Prop46
 90
       50
102
RTVSPost2010PropOp46
 70
     1
102
RTVSPost2010Prop47
 90
       50
102
RTVSPost2010PropOp47
 70
     1
102
RTVSPost2010Prop48
 90
       50
102
RTVSPost2010PropOp48
 70
     1
102
RTVSPost2010Prop49
280
     0
102
RTVSPost2010PropOp49
 70
     1
102
RTVSPost2010Prop50
 90
       50
102
RTVSPost2010PropOp50
 70
     1
102
RTVSPost2010Prop51ColorIndex
 90
      256
102
RTVSPost2010Prop51ColorRGB
 90
-16777216
102
RTVSPost2010PropOp51
 70
     0
102
RTVSPost2010Prop52
140
1.0
102
RTVSPost2010PropOp52
 70
     0
102
RTVSPost2010Prop53
 90
        2
102
RTVSPost2010PropOp53
 70
     1
102
RTVSPost2010Prop54
  1
strokes_ogs.tif
102
RTVSPost2010PropOp54
 70
     1
102
RTVSPost2010Prop55
280
     0
102
RTVSPost2010PropOp55
 70
     1
102
RTVSPost2010Prop56
140
1.0
102
RTVSPost2010PropOp56
 70
     1
102
RTVSPost2010Prop57
140
1.0
102
RTVSPost2010PropOp57
 70
     1
102
RTVSPropertyOp0
 70
     1
102
RTVSPropertyOp1
 70
     1
102
RTVSPropertyOp2
 70
     1
102
RTVSPropertyOp3
 70
     1
102
RTVSPropertyOp4
 70
     1
102
RTVSPropertyOp5
 70
     1
102
RTVSPropertyOp6
 70
     1
102
RTVSPropertyOp7
 70
     1
102
RTVSPropertyOp8
 70
     1
102
RTVSPropertyOp9
 70
     1
102
RTVSPropertyOp10
 70
     1
102
RTVSPropertyOp11
 70
     1
102
RTVSPropertyOp12
 70
     1
102
RTVSPropertyOp13
 70
     1
102
RTVSPropertyOp14
 70
     1
102
RTVSPropertyOp15
 70
     1
102
RTVSPropertyOp16
 70
     1
102
RTVSPropertyOp17
 70
     1
102
RTVSPropertyOp18
 70
     1
102
RTVSPropertyOp19
 70
     1
102
RTVSPropertyOp20
 70
     1
102
RTVSPropertyOp21
 70
     1
102
RTVSPropertyOp22
 70
     1
102
RTVSPropertyOp23
 70
     1
102
RTVSPropertyOp24
 70
     1
102
RTVSPropertyOp25
 70
     1
102
RTVSPropertyOp26
 70
     1
102
RTVSPropertyOp27
 70
     1
102
RTVSPropertyOp28
 70
     1
102
RTVSPropertyOp29
 70
     1
102
RTVSPropertyOp30
 70
     1
102
RTVSPropertyOp31
 70
     1
102
RTVSPropertyOp32
 70
     1
102
RTVSPropertyOp33
 70
     1
102
RTVSPropertyOp34
 70
     1
102
RTVSPropertyOp35
 70
     1
102
RTVSPropertyOp36
 70
     1
102
RTVSPropertyOp37
 70
     1
102
RTVSPropertyOp38
 70
     1
102
RTVSPropertyOp39
 70
     1
102
RTVSPropertyOp40
 70
     1
102
RTVSPropertyOp41
 70
     1
102
RTVSPropertyOp42
 70
     1
102
RTVSPropertyOp43
 70
     1
102
RTVSPropertyOp44
 70
     1
102
RTVSPropertyOp45
 70
     1
102
RTVSPropertyOp46
 70
     1
102
RTVSPropertyOp47
 70
     1
102
RTVSPropertyOp48
 70
     1
102
RTVSPropertyOp49
 70
     1
102
RTVSPropertyOp50
 70
     1
102
RTVSPropertyOp51
 70
     0
102
RTVSPropertyOp52
 70
     0
102
RTVSPropertyOp53
 70
     1
102
RTVSPropertyOp54
 70
     1
102
RTVSPropertyOp55
 70
     1
102
RTVSPropertyOp56
 70
     1
102
RTVSPropertyOp57
 70
     1
102
RTVSPropertyOp58
 70
     1
102
RTVSPropertyOp59
 70
     1
102
RTVSPropertyOp60
 70
     1
102
RTVSPropertyOp61
 70
     1
102
RTVSPropertyOp62
 70
     1
  0
XRECORD
  5
6D52
102
{ACAD_REACTORS
330
6D51
102
}
330
6D51
100
AcDbXrecord
280
     1
102
RTVSPost2010Prop28
280
     0
102
RTVSPost2010PropOp28
 70
     1
102
RTVSPost2010Prop29
280
     1
102
RTVSPost2010PropOp29
 70
     1
102
RTVSPost2010Prop30
280
     1
102
RTVSPost2010PropOp30
 70
     1
102
RTVSPost2010Prop31
280
     0
102
RTVSPost2010PropOp31
 70
     1
102
RTVSPost2010Prop32
280
     0
102
RTVSPost2010PropOp32
 70
     1
102
RTVSPost2010Prop33
280
     0
102
RTVSPost2010PropOp33
 70
     1
102
RTVSPost2010Prop34
280
     0
102
RTVSPost2010PropOp34
 70
     1
102
RTVSPost2010Prop35
280
     0
102
RTVSPost2010PropOp35
 70
     1
102
RTVSPost2010Prop36
280
     0
102
RTVSPost2010PropOp36
 70
     1
102
RTVSPost2010Prop37
 90
       50
102
RTVSPost2010PropOp37
 70
     1
102
RTVSPost2010Prop38
140
0.0
102
RTVSPost2010PropOp38
 70
     1
102
RTVSPost2010Prop39
140
1.0
102
RTVSPost2010PropOp39
 70
     1
102
RTVSPost2010Prop40
 90
        0
102
RTVSPost2010PropOp40
 70
     1
102
RTVSPost2010Prop41ColorIndex
 90
       18
102
RTVSPost2010Prop41ColorRGB
 90
        0
102
RTVSPost2010PropOp41
 70
     1
102
RTVSPost2010Prop42
 90
       50
102
RTVSPost2010PropOp42
 70
     1
102
RTVSPost2010Prop43
 90
        3
102
RTVSPost2010PropOp43
 70
     1
102
RTVSPost2010Prop44ColorIndex
 90
        5
102
RTVSPost2010Prop44ColorRGB
 90
      255
102
RTVSPost2010PropOp44
 70
     1
102
RTVSPost2010Prop45
280
     0
102
RTVSPost2010PropOp45
 70
     1
102
RTVSPost2010Prop46
 90
       50
102
RTVSPost2010PropOp46
 70
     1
102
RTVSPost2010Prop47
 90
       50
102
RTVSPost2010PropOp47
 70
     1
102
RTVSPost2010Prop48
 90
       50
102
RTVSPost2010PropOp48
 70
     1
102
RTVSPost2010Prop49
280
     0
102
RTVSPost2010PropOp49
 70
     1
102
RTVSPost2010Prop50
 90
       50
102
RTVSPost2010PropOp50
 70
     1
102
RTVSPost2010Prop51ColorIndex
 90
      256
102
RTVSPost2010Prop51ColorRGB
 90
-16777216
102
RTVSPost2010PropOp51
 70
     0
102
RTVSPost2010Prop52
140
1.0
102
RTVSPost2010PropOp52
 70
     0
102
RTVSPost2010Prop53
 90
        2
102
RTVSPost2010PropOp53
 70
     1
102
RTVSPost2010Prop54
  1
strokes_ogs.tif
102
RTVSPost2010PropOp54
 70
     1
102
RTVSPost2010Prop55
280
     0
102
RTVSPost2010PropOp55
 70
     1
102
RTVSPost2010Prop56
140
1.0
102
RTVSPost2010PropOp56
 70
     1
102
RTVSPost2010Prop57
140
1.0
102
RTVSPost2010PropOp57
 70
     1
102
RTVSPropertyOp0
 70
     1
102
RTVSPropertyOp1
 70
     1
102
RTVSPropertyOp2
 70
     1
102
RTVSPropertyOp3
 70
     1
102
RTVSPropertyOp4
 70
     1
102
RTVSPropertyOp5
 70
     1
102
RTVSPropertyOp6
 70
     1
102
RTVSPropertyOp7
 70
     1
102
RTVSPropertyOp8
 70
     1
102
RTVSPropertyOp9
 70
     1
102
RTVSPropertyOp10
 70
     1
102
RTVSPropertyOp11
 70
     1
102
RTVSPropertyOp12
 70
     1
102
RTVSPropertyOp13
 70
     1
102
RTVSPropertyOp14
 70
     1
102
RTVSPropertyOp15
 70
     1
102
RTVSPropertyOp16
 70
     1
102
RTVSPropertyOp17
 70
     1
102
RTVSPropertyOp18
 70
     1
102
RTVSPropertyOp19
 70
     1
102
RTVSPropertyOp20
 70
     1
102
RTVSPropertyOp21
 70
     1
102
RTVSPropertyOp22
 70
     1
102
RTVSPropertyOp23
 70
     1
102
RTVSPropertyOp24
 70
     1
102
RTVSPropertyOp25
 70
     1
102
RTVSPropertyOp26
 70
     1
102
RTVSPropertyOp27
 70
     1
102
RTVSPropertyOp28
 70
     1
102
RTVSPropertyOp29
 70
     1
102
RTVSPropertyOp30
 70
     1
102
RTVSPropertyOp31
 70
     1
102
RTVSPropertyOp32
 70
     1
102
RTVSPropertyOp33
 70
     1
102
RTVSPropertyOp34
 70
     1
102
RTVSPropertyOp35
 70
     1
102
RTVSPropertyOp36
 70
     1
102
RTVSPropertyOp37
 70
     1
102
RTVSPropertyOp38
 70
     1
102
RTVSPropertyOp39
 70
     1
102
RTVSPropertyOp40
 70
     1
102
RTVSPropertyOp41
 70
     1
102
RTVSPropertyOp42
 70
     1
102
RTVSPropertyOp43
 70
     1
102
RTVSPropertyOp44
 70
     1
102
RTVSPropertyOp45
 70
     1
102
RTVSPropertyOp46
 70
     1
102
RTVSPropertyOp47
 70
     1
102
RTVSPropertyOp48
 70
     1
102
RTVSPropertyOp49
 70
     1
102
RTVSPropertyOp50
 70
     1
102
RTVSPropertyOp51
 70
     0
102
RTVSPropertyOp52
 70
     0
102
RTVSPropertyOp53
 70
     1
102
RTVSPropertyOp54
 70
     1
102
RTVSPropertyOp55
 70
     1
102
RTVSPropertyOp56
 70
     1
102
RTVSPropertyOp57
 70
     1
102
RTVSPropertyOp58
 70
     1
102
RTVSPropertyOp59
 70
     1
102
RTVSPropertyOp60
 70
     1
102
RTVSPropertyOp61
 70
     1
102
RTVSPropertyOp62
 70
     1
  0
XRECORD
  5
6D44
102
{ACAD_REACTORS
330
6D43
102
}
330
6D43
100
AcDbXrecord
280
     1
102
RTVSPost2010Prop28
280
     0
102
RTVSPost2010PropOp28
 70
     1
102
RTVSPost2010Prop29
280
     1
102
RTVSPost2010PropOp29
 70
     1
102
RTVSPost2010Prop30
280
     1
102
RTVSPost2010PropOp30
 70
     1
102
RTVSPost2010Prop31
280
     0
102
RTVSPost2010PropOp31
 70
     1
102
RTVSPost2010Prop32
280
     0
102
RTVSPost2010PropOp32
 70
     1
102
RTVSPost2010Prop33
280
     0
102
RTVSPost2010PropOp33
 70
     1
102
RTVSPost2010Prop34
280
     0
102
RTVSPost2010PropOp34
 70
     1
102
RTVSPost2010Prop35
280
     0
102
RTVSPost2010PropOp35
 70
     1
102
RTVSPost2010Prop36
280
     0
102
RTVSPost2010PropOp36
 70
     1
102
RTVSPost2010Prop37
 90
       50
102
RTVSPost2010PropOp37
 70
     1
102
RTVSPost2010Prop38
140
0.0
102
RTVSPost2010PropOp38
 70
     1
102
RTVSPost2010Prop39
140
1.0
102
RTVSPost2010PropOp39
 70
     1
102
RTVSPost2010Prop40
 90
        0
102
RTVSPost2010PropOp40
 70
     1
102
RTVSPost2010Prop41ColorIndex
 90
       18
102
RTVSPost2010Prop41ColorRGB
 90
        0
102
RTVSPost2010PropOp41
 70
     1
102
RTVSPost2010Prop42
 90
       50
102
RTVSPost2010PropOp42
 70
     1
102
RTVSPost2010Prop43
 90
        3
102
RTVSPost2010PropOp43
 70
     1
102
RTVSPost2010Prop44ColorIndex
 90
        5
102
RTVSPost2010Prop44ColorRGB
 90
      255
102
RTVSPost2010PropOp44
 70
     1
102
RTVSPost2010Prop45
280
     0
102
RTVSPost2010PropOp45
 70
     1
102
RTVSPost2010Prop46
 90
       50
102
RTVSPost2010PropOp46
 70
     1
102
RTVSPost2010Prop47
 90
       50
102
RTVSPost2010PropOp47
 70
     1
102
RTVSPost2010Prop48
 90
       50
102
RTVSPost2010PropOp48
 70
     1
102
RTVSPost2010Prop49
280
     0
102
RTVSPost2010PropOp49
 70
     1
102
RTVSPost2010Prop50
 90
       50
102
RTVSPost2010PropOp50
 70
     1
102
RTVSPost2010Prop51ColorIndex
 90
      256
102
RTVSPost2010Prop51ColorRGB
 90
-16777216
102
RTVSPost2010PropOp51
 70
     0
102
RTVSPost2010Prop52
140
1.0
102
RTVSPost2010PropOp52
 70
     0
102
RTVSPost2010Prop53
 90
        2
102
RTVSPost2010PropOp53
 70
     1
102
RTVSPost2010Prop54
  1
strokes_ogs.tif
102
RTVSPost2010PropOp54
 70
     1
102
RTVSPost2010Prop55
280
     0
102
RTVSPost2010PropOp55
 70
     1
102
RTVSPost2010Prop56
140
1.0
102
RTVSPost2010PropOp56
 70
     1
102
RTVSPost2010Prop57
140
1.0
102
RTVSPost2010PropOp57
 70
     1
102
RTVSPropertyOp0
 70
     1
102
RTVSPropertyOp1
 70
     1
102
RTVSPropertyOp2
 70
     1
102
RTVSPropertyOp3
 70
     1
102
RTVSPropertyOp4
 70
     1
102
RTVSPropertyOp5
 70
     1
102
RTVSPropertyOp6
 70
     1
102
RTVSPropertyOp7
 70
     1
102
RTVSPropertyOp8
 70
     1
102
RTVSPropertyOp9
 70
     1
102
RTVSPropertyOp10
 70
     1
102
RTVSPropertyOp11
 70
     1
102
RTVSPropertyOp12
 70
     1
102
RTVSPropertyOp13
 70
     1
102
RTVSPropertyOp14
 70
     1
102
RTVSPropertyOp15
 70
     1
102
RTVSPropertyOp16
 70
     1
102
RTVSPropertyOp17
 70
     1
102
RTVSPropertyOp18
 70
     1
102
RTVSPropertyOp19
 70
     1
102
RTVSPropertyOp20
 70
     1
102
RTVSPropertyOp21
 70
     1
102
RTVSPropertyOp22
 70
     1
102
RTVSPropertyOp23
 70
     1
102
RTVSPropertyOp24
 70
     1
102
RTVSPropertyOp25
 70
     1
102
RTVSPropertyOp26
 70
     1
102
RTVSPropertyOp27
 70
     1
102
RTVSPropertyOp28
 70
     1
102
RTVSPropertyOp29
 70
     1
102
RTVSPropertyOp30
 70
     1
102
RTVSPropertyOp31
 70
     1
102
RTVSPropertyOp32
 70
     1
102
RTVSPropertyOp33
 70
     1
102
RTVSPropertyOp34
 70
     1
102
RTVSPropertyOp35
 70
     1
102
RTVSPropertyOp36
 70
     1
102
RTVSPropertyOp37
 70
     1
102
RTVSPropertyOp38
 70
     1
102
RTVSPropertyOp39
 70
     1
102
RTVSPropertyOp40
 70
     1
102
RTVSPropertyOp41
 70
     1
102
RTVSPropertyOp42
 70
     1
102
RTVSPropertyOp43
 70
     1
102
RTVSPropertyOp44
 70
     1
102
RTVSPropertyOp45
 70
     1
102
RTVSPropertyOp46
 70
     1
102
RTVSPropertyOp47
 70
     1
102
RTVSPropertyOp48
 70
     1
102
RTVSPropertyOp49
 70
     1
102
RTVSPropertyOp50
 70
     1
102
RTVSPropertyOp51
 70
     0
102
RTVSPropertyOp52
 70
     0
102
RTVSPropertyOp53
 70
     1
102
RTVSPropertyOp54
 70
     1
102
RTVSPropertyOp55
 70
     1
102
RTVSPropertyOp56
 70
     1
102
RTVSPropertyOp57
 70
     1
102
RTVSPropertyOp58
 70
     1
102
RTVSPropertyOp59
 70
     1
102
RTVSPropertyOp60
 70
     1
102
RTVSPropertyOp61
 70
     1
102
RTVSPropertyOp62
 70
     1
  0
XRECORD
  5
6D48
102
{ACAD_REACTORS
330
6D47
102
}
330
6D47
100
AcDbXrecord
280
     1
102
RTVSPost2010Prop28
280
     0
102
RTVSPost2010PropOp28
 70
     1
102
RTVSPost2010Prop29
280
     1
102
RTVSPost2010PropOp29
 70
     1
102
RTVSPost2010Prop30
280
     1
102
RTVSPost2010PropOp30
 70
     1
102
RTVSPost2010Prop31
280
     0
102
RTVSPost2010PropOp31
 70
     1
102
RTVSPost2010Prop32
280
     0
102
RTVSPost2010PropOp32
 70
     1
102
RTVSPost2010Prop33
280
     0
102
RTVSPost2010PropOp33
 70
     1
102
RTVSPost2010Prop34
280
     0
102
RTVSPost2010PropOp34
 70
     1
102
RTVSPost2010Prop35
280
     0
102
RTVSPost2010PropOp35
 70
     1
102
RTVSPost2010Prop36
280
     0
102
RTVSPost2010PropOp36
 70
     1
102
RTVSPost2010Prop37
 90
       50
102
RTVSPost2010PropOp37
 70
     1
102
RTVSPost2010Prop38
140
0.0
102
RTVSPost2010PropOp38
 70
     1
102
RTVSPost2010Prop39
140
1.0
102
RTVSPost2010PropOp39
 70
     1
102
RTVSPost2010Prop40
 90
        0
102
RTVSPost2010PropOp40
 70
     1
102
RTVSPost2010Prop41ColorIndex
 90
       18
102
RTVSPost2010Prop41ColorRGB
 90
        0
102
RTVSPost2010PropOp41
 70
     1
102
RTVSPost2010Prop42
 90
       50
102
RTVSPost2010PropOp42
 70
     1
102
RTVSPost2010Prop43
 90
        3
102
RTVSPost2010PropOp43
 70
     1
102
RTVSPost2010Prop44ColorIndex
 90
        5
102
RTVSPost2010Prop44ColorRGB
 90
      255
102
RTVSPost2010PropOp44
 70
     1
102
RTVSPost2010Prop45
280
     0
102
RTVSPost2010PropOp45
 70
     1
102
RTVSPost2010Prop46
 90
       50
102
RTVSPost2010PropOp46
 70
     1
102
RTVSPost2010Prop47
 90
       50
102
RTVSPost2010PropOp47
 70
     1
102
RTVSPost2010Prop48
 90
       50
102
RTVSPost2010PropOp48
 70
     1
102
RTVSPost2010Prop49
280
     0
102
RTVSPost2010PropOp49
 70
     1
102
RTVSPost2010Prop50
 90
       50
102
RTVSPost2010PropOp50
 70
     1
102
RTVSPost2010Prop51ColorIndex
 90
      256
102
RTVSPost2010Prop51ColorRGB
 90
-16777216
102
RTVSPost2010PropOp51
 70
     0
102
RTVSPost2010Prop52
140
1.0
102
RTVSPost2010PropOp52
 70
     0
102
RTVSPost2010Prop53
 90
        2
102
RTVSPost2010PropOp53
 70
     1
102
RTVSPost2010Prop54
  1
strokes_ogs.tif
102
RTVSPost2010PropOp54
 70
     1
102
RTVSPost2010Prop55
280
     0
102
RTVSPost2010PropOp55
 70
     1
102
RTVSPost2010Prop56
140
1.0
102
RTVSPost2010PropOp56
 70
     1
102
RTVSPost2010Prop57
140
1.0
102
RTVSPost2010PropOp57
 70
     1
102
RTVSPropertyOp0
 70
     1
102
RTVSPropertyOp1
 70
     1
102
RTVSPropertyOp2
 70
     1
102
RTVSPropertyOp3
 70
     1
102
RTVSPropertyOp4
 70
     1
102
RTVSPropertyOp5
 70
     1
102
RTVSPropertyOp6
 70
     1
102
RTVSPropertyOp7
 70
     1
102
RTVSPropertyOp8
 70
     1
102
RTVSPropertyOp9
 70
     1
102
RTVSPropertyOp10
 70
     1
102
RTVSPropertyOp11
 70
     1
102
RTVSPropertyOp12
 70
     1
102
RTVSPropertyOp13
 70
     1
102
RTVSPropertyOp14
 70
     1
102
RTVSPropertyOp15
 70
     1
102
RTVSPropertyOp16
 70
     1
102
RTVSPropertyOp17
 70
     1
102
RTVSPropertyOp18
 70
     1
102
RTVSPropertyOp19
 70
     1
102
RTVSPropertyOp20
 70
     1
102
RTVSPropertyOp21
 70
     1
102
RTVSPropertyOp22
 70
     1
102
RTVSPropertyOp23
 70
     1
102
RTVSPropertyOp24
 70
     1
102
RTVSPropertyOp25
 70
     1
102
RTVSPropertyOp26
 70
     1
102
RTVSPropertyOp27
 70
     1
102
RTVSPropertyOp28
 70
     1
102
RTVSPropertyOp29
 70
     1
102
RTVSPropertyOp30
 70
     1
102
RTVSPropertyOp31
 70
     1
102
RTVSPropertyOp32
 70
     1
102
RTVSPropertyOp33
 70
     1
102
RTVSPropertyOp34
 70
     1
102
RTVSPropertyOp35
 70
     1
102
RTVSPropertyOp36
 70
     1
102
RTVSPropertyOp37
 70
     1
102
RTVSPropertyOp38
 70
     1
102
RTVSPropertyOp39
 70
     1
102
RTVSPropertyOp40
 70
     1
102
RTVSPropertyOp41
 70
     1
102
RTVSPropertyOp42
 70
     1
102
RTVSPropertyOp43
 70
     1
102
RTVSPropertyOp44
 70
     1
102
RTVSPropertyOp45
 70
     1
102
RTVSPropertyOp46
 70
     1
102
RTVSPropertyOp47
 70
     1
102
RTVSPropertyOp48
 70
     1
102
RTVSPropertyOp49
 70
     1
102
RTVSPropertyOp50
 70
     1
102
RTVSPropertyOp51
 70
     0
102
RTVSPropertyOp52
 70
     0
102
RTVSPropertyOp53
 70
     1
102
RTVSPropertyOp54
 70
     1
102
RTVSPropertyOp55
 70
     1
102
RTVSPropertyOp56
 70
     1
102
RTVSPropertyOp57
 70
     1
102
RTVSPropertyOp58
 70
     1
102
RTVSPropertyOp59
 70
     1
102
RTVSPropertyOp60
 70
     1
102
RTVSPropertyOp61
 70
     1
102
RTVSPropertyOp62
 70
     1
  0
XRECORD
  5
6D62
102
{ACAD_REACTORS
330
6D61
102
}
330
6D61
100
AcDbXrecord
280
     1
102
RTVSPost2010Prop28
280
     0
102
RTVSPost2010PropOp28
 70
     1
102
RTVSPost2010Prop29
280
     1
102
RTVSPost2010PropOp29
 70
     1
102
RTVSPost2010Prop30
280
     1
102
RTVSPost2010PropOp30
 70
     1
102
RTVSPost2010Prop31
280
     0
102
RTVSPost2010PropOp31
 70
     1
102
RTVSPost2010Prop32
280
     0
102
RTVSPost2010PropOp32
 70
     1
102
RTVSPost2010Prop33
280
     0
102
RTVSPost2010PropOp33
 70
     1
102
RTVSPost2010Prop34
280
     0
102
RTVSPost2010PropOp34
 70
     1
102
RTVSPost2010Prop35
280
     0
102
RTVSPost2010PropOp35
 70
     1
102
RTVSPost2010Prop36
280
     0
102
RTVSPost2010PropOp36
 70
     1
102
RTVSPost2010Prop37
 90
       50
102
RTVSPost2010PropOp37
 70
     0
102
RTVSPost2010Prop38
140
0.0
102
RTVSPost2010PropOp38
 70
     0
102
RTVSPost2010Prop39
140
1.0
102
RTVSPost2010PropOp39
 70
     0
102
RTVSPost2010Prop40
 90
        0
102
RTVSPost2010PropOp40
 70
     0
102
RTVSPost2010Prop41ColorIndex
 90
       18
102
RTVSPost2010Prop41ColorRGB
 90
        0
102
RTVSPost2010PropOp41
 70
     0
102
RTVSPost2010Prop42
 90
       50
102
RTVSPost2010PropOp42
 70
     0
102
RTVSPost2010Prop43
 90
        3
102
RTVSPost2010PropOp43
 70
     0
102
RTVSPost2010Prop44ColorIndex
 90
        5
102
RTVSPost2010Prop44ColorRGB
 90
      255
102
RTVSPost2010PropOp44
 70
     0
102
RTVSPost2010Prop45
280
     0
102
RTVSPost2010PropOp45
 70
     1
102
RTVSPost2010Prop46
 90
       50
102
RTVSPost2010PropOp46
 70
     0
102
RTVSPost2010Prop47
 90
       50
102
RTVSPost2010PropOp47
 70
     0
102
RTVSPost2010Prop48
 90
       50
102
RTVSPost2010PropOp48
 70
     0
102
RTVSPost2010Prop49
280
     0
102
RTVSPost2010PropOp49
 70
     1
102
RTVSPost2010Prop50
 90
       50
102
RTVSPost2010PropOp50
 70
     0
102
RTVSPost2010Prop51ColorIndex
 90
      256
102
RTVSPost2010Prop51ColorRGB
 90
-16777216
102
RTVSPost2010PropOp51
 70
     0
102
RTVSPost2010Prop52
140
1.0
102
RTVSPost2010PropOp52
 70
     0
102
RTVSPost2010Prop53
 90
        2
102
RTVSPost2010PropOp53
 70
     0
102
RTVSPost2010Prop54
  1
strokes_ogs.tif
102
RTVSPost2010PropOp54
 70
     0
102
RTVSPost2010Prop55
280
     0
102
RTVSPost2010PropOp55
 70
     1
102
RTVSPost2010Prop56
140
1.0
102
RTVSPost2010PropOp56
 70
     0
102
RTVSPost2010Prop57
140
1.0
102
RTVSPost2010PropOp57
 70
     0
102
RTVSPropertyOp0
 70
     0
102
RTVSPropertyOp1
 70
     0
102
RTVSPropertyOp2
 70
     0
102
RTVSPropertyOp3
 70
     0
102
RTVSPropertyOp4
 70
     0
102
RTVSPropertyOp5
 70
     0
102
RTVSPropertyOp6
 70
     0
102
RTVSPropertyOp7
 70
     0
102
RTVSPropertyOp8
 70
     0
102
RTVSPropertyOp9
 70
     0
102
RTVSPropertyOp10
 70
     0
102
RTVSPropertyOp11
 70
     0
102
RTVSPropertyOp12
 70
     0
102
RTVSPropertyOp13
 70
     0
102
RTVSPropertyOp14
 70
     2
102
RTVSPropertyOp15
 70
     0
102
RTVSPropertyOp16
 70
     0
102
RTVSPropertyOp17
 70
     0
102
RTVSPropertyOp18
 70
     0
102
RTVSPropertyOp19
 70
     0
102
RTVSPropertyOp20
 70
     0
102
RTVSPropertyOp21
 70
     0
102
RTVSPropertyOp22
 70
     0
102
RTVSPropertyOp23
 70
     0
102
RTVSPropertyOp24
 70
     0
102
RTVSPropertyOp25
 70
     0
102
RTVSPropertyOp26
 70
     0
102
RTVSPropertyOp27
 70
     0
102
RTVSPropertyOp28
 70
     1
102
RTVSPropertyOp29
 70
     1
102
RTVSPropertyOp30
 70
     1
102
RTVSPropertyOp31
 70
     1
102
RTVSPropertyOp32
 70
     1
102
RTVSPropertyOp33
 70
     1
102
RTVSPropertyOp34
 70
     1
102
RTVSPropertyOp35
 70
     1
102
RTVSPropertyOp36
 70
     1
102
RTVSPropertyOp37
 70
     0
102
RTVSPropertyOp38
 70
     0
102
RTVSPropertyOp39
 70
     0
102
RTVSPropertyOp40
 70
     0
102
RTVSPropertyOp41
 70
     0
102
RTVSPropertyOp42
 70
     0
102
RTVSPropertyOp43
 70
     0
102
RTVSPropertyOp44
 70
     0
102
RTVSPropertyOp45
 70
     1
102
RTVSPropertyOp46
 70
     0
102
RTVSPropertyOp47
 70
     0
102
RTVSPropertyOp48
 70
     0
102
RTVSPropertyOp49
 70
     1
102
RTVSPropertyOp50
 70
     0
102
RTVSPropertyOp51
 70
     0
102
RTVSPropertyOp52
 70
     0
102
RTVSPropertyOp53
 70
     0
102
RTVSPropertyOp54
 70
     0
102
RTVSPropertyOp55
 70
     1
102
RTVSPropertyOp56
 70
     0
102
RTVSPropertyOp57
 70
     0
102
RTVSPropertyOp58
 70
     0
102
RTVSPropertyOp59
 70
     0
102
RTVSPropertyOp60
 70
     0
102
RTVSPropertyOp61
 70
     0
102
RTVSPropertyOp62
 70
     0
  0
XRECORD
  5
6D50
102
{ACAD_REACTORS
330
6D4F
102
}
330
6D4F
100
AcDbXrecord
280
     1
102
RTVSPost2010Prop28
280
     0
102
RTVSPost2010PropOp28
 70
     1
102
RTVSPost2010Prop29
280
     1
102
RTVSPost2010PropOp29
 70
     1
102
RTVSPost2010Prop30
280
     1
102
RTVSPost2010PropOp30
 70
     1
102
RTVSPost2010Prop31
280
     0
102
RTVSPost2010PropOp31
 70
     1
102
RTVSPost2010Prop32
280
     0
102
RTVSPost2010PropOp32
 70
     1
102
RTVSPost2010Prop33
280
     0
102
RTVSPost2010PropOp33
 70
     1
102
RTVSPost2010Prop34
280
     0
102
RTVSPost2010PropOp34
 70
     1
102
RTVSPost2010Prop35
280
     0
102
RTVSPost2010PropOp35
 70
     1
102
RTVSPost2010Prop36
280
     0
102
RTVSPost2010PropOp36
 70
     1
102
RTVSPost2010Prop37
 90
       50
102
RTVSPost2010PropOp37
 70
     1
102
RTVSPost2010Prop38
140
0.0
102
RTVSPost2010PropOp38
 70
     1
102
RTVSPost2010Prop39
140
1.0
102
RTVSPost2010PropOp39
 70
     1
102
RTVSPost2010Prop40
 90
        0
102
RTVSPost2010PropOp40
 70
     1
102
RTVSPost2010Prop41ColorIndex
 90
       18
102
RTVSPost2010Prop41ColorRGB
 90
        0
102
RTVSPost2010PropOp41
 70
     1
102
RTVSPost2010Prop42
 90
       50
102
RTVSPost2010PropOp42
 70
     1
102
RTVSPost2010Prop43
 90
        3
102
RTVSPost2010PropOp43
 70
     1
102
RTVSPost2010Prop44ColorIndex
 90
        5
102
RTVSPost2010Prop44ColorRGB
 90
      255
102
RTVSPost2010PropOp44
 70
     1
102
RTVSPost2010Prop45
280
     0
102
RTVSPost2010PropOp45
 70
     1
102
RTVSPost2010Prop46
 90
       50
102
RTVSPost2010PropOp46
 70
     1
102
RTVSPost2010Prop47
 90
       50
102
RTVSPost2010PropOp47
 70
     1
102
RTVSPost2010Prop48
 90
       50
102
RTVSPost2010PropOp48
 70
     1
102
RTVSPost2010Prop49
280
     0
102
RTVSPost2010PropOp49
 70
     1
102
RTVSPost2010Prop50
 90
       50
102
RTVSPost2010PropOp50
 70
     1
102
RTVSPost2010Prop51ColorIndex
 90
      256
102
RTVSPost2010Prop51ColorRGB
 90
-16777216
102
RTVSPost2010PropOp51
 70
     0
102
RTVSPost2010Prop52
140
1.0
102
RTVSPost2010PropOp52
 70
     0
102
RTVSPost2010Prop53
 90
        2
102
RTVSPost2010PropOp53
 70
     1
102
RTVSPost2010Prop54
  1
strokes_ogs.tif
102
RTVSPost2010PropOp54
 70
     1
102
RTVSPost2010Prop55
280
     0
102
RTVSPost2010PropOp55
 70
     1
102
RTVSPost2010Prop56
140
1.0
102
RTVSPost2010PropOp56
 70
     1
102
RTVSPost2010Prop57
140
1.0
102
RTVSPost2010PropOp57
 70
     1
102
RTVSPropertyOp0
 70
     1
102
RTVSPropertyOp1
 70
     1
102
RTVSPropertyOp2
 70
     1
102
RTVSPropertyOp3
 70
     1
102
RTVSPropertyOp4
 70
     1
102
RTVSPropertyOp5
 70
     1
102
RTVSPropertyOp6
 70
     1
102
RTVSPropertyOp7
 70
     1
102
RTVSPropertyOp8
 70
     1
102
RTVSPropertyOp9
 70
     1
102
RTVSPropertyOp10
 70
     1
102
RTVSPropertyOp11
 70
     1
102
RTVSPropertyOp12
 70
     1
102
RTVSPropertyOp13
 70
     1
102
RTVSPropertyOp14
 70
     1
102
RTVSPropertyOp15
 70
     1
102
RTVSPropertyOp16
 70
     1
102
RTVSPropertyOp17
 70
     1
102
RTVSPropertyOp18
 70
     1
102
RTVSPropertyOp19
 70
     1
102
RTVSPropertyOp20
 70
     1
102
RTVSPropertyOp21
 70
     1
102
RTVSPropertyOp22
 70
     1
102
RTVSPropertyOp23
 70
     1
102
RTVSPropertyOp24
 70
     1
102
RTVSPropertyOp25
 70
     1
102
RTVSPropertyOp26
 70
     1
102
RTVSPropertyOp27
 70
     1
102
RTVSPropertyOp28
 70
     1
102
RTVSPropertyOp29
 70
     1
102
RTVSPropertyOp30
 70
     1
102
RTVSPropertyOp31
 70
     1
102
RTVSPropertyOp32
 70
     1
102
RTVSPropertyOp33
 70
     1
102
RTVSPropertyOp34
 70
     1
102
RTVSPropertyOp35
 70
     1
102
RTVSPropertyOp36
 70
     1
102
RTVSPropertyOp37
 70
     1
102
RTVSPropertyOp38
 70
     1
102
RTVSPropertyOp39
 70
     1
102
RTVSPropertyOp40
 70
     1
102
RTVSPropertyOp41
 70
     1
102
RTVSPropertyOp42
 70
     1
102
RTVSPropertyOp43
 70
     1
102
RTVSPropertyOp44
 70
     1
102
RTVSPropertyOp45
 70
     1
102
RTVSPropertyOp46
 70
     1
102
RTVSPropertyOp47
 70
     1
102
RTVSPropertyOp48
 70
     1
102
RTVSPropertyOp49
 70
     1
102
RTVSPropertyOp50
 70
     1
102
RTVSPropertyOp51
 70
     0
102
RTVSPropertyOp52
 70
     0
102
RTVSPropertyOp53
 70
     1
102
RTVSPropertyOp54
 70
     1
102
RTVSPropertyOp55
 70
     1
102
RTVSPropertyOp56
 70
     1
102
RTVSPropertyOp57
 70
     1
102
RTVSPropertyOp58
 70
     1
102
RTVSPropertyOp59
 70
     1
102
RTVSPropertyOp60
 70
     1
102
RTVSPropertyOp61
 70
     1
102
RTVSPropertyOp62
 70
     1
  0
XRECORD
  5
6D34
102
{ACAD_REACTORS
330
6D33
102
}
330
6D33
100
AcDbXrecord
280
     1
102
RTVSPost2010Prop28
280
     0
102
RTVSPost2010PropOp28
 70
     1
102
RTVSPost2010Prop29
280
     1
102
RTVSPost2010PropOp29
 70
     1
102
RTVSPost2010Prop30
280
     1
102
RTVSPost2010PropOp30
 70
     1
102
RTVSPost2010Prop31
280
     0
102
RTVSPost2010PropOp31
 70
     1
102
RTVSPost2010Prop32
280
     0
102
RTVSPost2010PropOp32
 70
     1
102
RTVSPost2010Prop33
280
     0
102
RTVSPost2010PropOp33
 70
     1
102
RTVSPost2010Prop34
280
     0
102
RTVSPost2010PropOp34
 70
     1
102
RTVSPost2010Prop35
280
     0
102
RTVSPost2010PropOp35
 70
     1
102
RTVSPost2010Prop36
280
     0
102
RTVSPost2010PropOp36
 70
     1
102
RTVSPost2010Prop37
 90
       50
102
RTVSPost2010PropOp37
 70
     1
102
RTVSPost2010Prop38
140
0.0
102
RTVSPost2010PropOp38
 70
     1
102
RTVSPost2010Prop39
140
1.0
102
RTVSPost2010PropOp39
 70
     1
102
RTVSPost2010Prop40
 90
        0
102
RTVSPost2010PropOp40
 70
     1
102
RTVSPost2010Prop41ColorIndex
 90
       18
102
RTVSPost2010Prop41ColorRGB
 90
        0
102
RTVSPost2010PropOp41
 70
     1
102
RTVSPost2010Prop42
 90
       50
102
RTVSPost2010PropOp42
 70
     1
102
RTVSPost2010Prop43
 90
        3
102
RTVSPost2010PropOp43
 70
     1
102
RTVSPost2010Prop44ColorIndex
 90
        5
102
RTVSPost2010Prop44ColorRGB
 90
      255
102
RTVSPost2010PropOp44
 70
     1
102
RTVSPost2010Prop45
280
     0
102
RTVSPost2010PropOp45
 70
     1
102
RTVSPost2010Prop46
 90
       50
102
RTVSPost2010PropOp46
 70
     1
102
RTVSPost2010Prop47
 90
       50
102
RTVSPost2010PropOp47
 70
     1
102
RTVSPost2010Prop48
 90
       50
102
RTVSPost2010PropOp48
 70
     1
102
RTVSPost2010Prop49
280
     0
102
RTVSPost2010PropOp49
 70
     1
102
RTVSPost2010Prop50
 90
       50
102
RTVSPost2010PropOp50
 70
     1
102
RTVSPost2010Prop51ColorIndex
 90
      256
102
RTVSPost2010Prop51ColorRGB
 90
-16777216
102
RTVSPost2010PropOp51
 70
     0
102
RTVSPost2010Prop52
140
1.0
102
RTVSPost2010PropOp52
 70
     0
102
RTVSPost2010Prop53
 90
        2
102
RTVSPost2010PropOp53
 70
     1
102
RTVSPost2010Prop54
  1
strokes_ogs.tif
102
RTVSPost2010PropOp54
 70
     1
102
RTVSPost2010Prop55
280
     0
102
RTVSPost2010PropOp55
 70
     1
102
RTVSPost2010Prop56
140
1.0
102
RTVSPost2010PropOp56
 70
     1
102
RTVSPost2010Prop57
140
1.0
102
RTVSPost2010PropOp57
 70
     1
102
RTVSPropertyOp0
 70
     1
102
RTVSPropertyOp1
 70
     1
102
RTVSPropertyOp2
 70
     1
102
RTVSPropertyOp3
 70
     1
102
RTVSPropertyOp4
 70
     1
102
RTVSPropertyOp5
 70
     1
102
RTVSPropertyOp6
 70
     1
102
RTVSPropertyOp7
 70
     1
102
RTVSPropertyOp8
 70
     1
102
RTVSPropertyOp9
 70
     1
102
RTVSPropertyOp10
 70
     1
102
RTVSPropertyOp11
 70
     1
102
RTVSPropertyOp12
 70
     1
102
RTVSPropertyOp13
 70
     1
102
RTVSPropertyOp14
 70
     1
102
RTVSPropertyOp15
 70
     1
102
RTVSPropertyOp16
 70
     1
102
RTVSPropertyOp17
 70
     1
102
RTVSPropertyOp18
 70
     1
102
RTVSPropertyOp19
 70
     1
102
RTVSPropertyOp20
 70
     1
102
RTVSPropertyOp21
 70
     1
102
RTVSPropertyOp22
 70
     1
102
RTVSPropertyOp23
 70
     1
102
RTVSPropertyOp24
 70
     1
102
RTVSPropertyOp25
 70
     1
102
RTVSPropertyOp26
 70
     1
102
RTVSPropertyOp27
 70
     1
102
RTVSPropertyOp28
 70
     1
102
RTVSPropertyOp29
 70
     1
102
RTVSPropertyOp30
 70
     1
102
RTVSPropertyOp31
 70
     1
102
RTVSPropertyOp32
 70
     1
102
RTVSPropertyOp33
 70
     1
102
RTVSPropertyOp34
 70
     1
102
RTVSPropertyOp35
 70
     1
102
RTVSPropertyOp36
 70
     1
102
RTVSPropertyOp37
 70
     1
102
RTVSPropertyOp38
 70
     1
102
RTVSPropertyOp39
 70
     1
102
RTVSPropertyOp40
 70
     1
102
RTVSPropertyOp41
 70
     1
102
RTVSPropertyOp42
 70
     1
102
RTVSPropertyOp43
 70
     1
102
RTVSPropertyOp44
 70
     1
102
RTVSPropertyOp45
 70
     1
102
RTVSPropertyOp46
 70
     1
102
RTVSPropertyOp47
 70
     1
102
RTVSPropertyOp48
 70
     1
102
RTVSPropertyOp49
 70
     1
102
RTVSPropertyOp50
 70
     1
102
RTVSPropertyOp51
 70
     0
102
RTVSPropertyOp52
 70
     0
102
RTVSPropertyOp53
 70
     1
102
RTVSPropertyOp54
 70
     1
102
RTVSPropertyOp55
 70
     1
102
RTVSPropertyOp56
 70
     1
102
RTVSPropertyOp57
 70
     1
102
RTVSPropertyOp58
 70
     1
102
RTVSPropertyOp59
 70
     1
102
RTVSPropertyOp60
 70
     1
102
RTVSPropertyOp61
 70
     1
102
RTVSPropertyOp62
 70
     1
  0
XRECORD
  5
6D36
102
{ACAD_REACTORS
330
6D35
102
}
330
6D35
100
AcDbXrecord
280
     1
102
RTVSPost2010Prop28
280
     0
102
RTVSPost2010PropOp28
 70
     1
102
RTVSPost2010Prop29
280
     1
102
RTVSPost2010PropOp29
 70
     1
102
RTVSPost2010Prop30
280
     1
102
RTVSPost2010PropOp30
 70
     1
102
RTVSPost2010Prop31
280
     0
102
RTVSPost2010PropOp31
 70
     1
102
RTVSPost2010Prop32
280
     0
102
RTVSPost2010PropOp32
 70
     1
102
RTVSPost2010Prop33
280
     0
102
RTVSPost2010PropOp33
 70
     1
102
RTVSPost2010Prop34
280
     0
102
RTVSPost2010PropOp34
 70
     1
102
RTVSPost2010Prop35
280
     0
102
RTVSPost2010PropOp35
 70
     1
102
RTVSPost2010Prop36
280
     0
102
RTVSPost2010PropOp36
 70
     1
102
RTVSPost2010Prop37
 90
       50
102
RTVSPost2010PropOp37
 70
     1
102
RTVSPost2010Prop38
140
0.0
102
RTVSPost2010PropOp38
 70
     1
102
RTVSPost2010Prop39
140
1.0
102
RTVSPost2010PropOp39
 70
     1
102
RTVSPost2010Prop40
 90
        0
102
RTVSPost2010PropOp40
 70
     1
102
RTVSPost2010Prop41ColorIndex
 90
       18
102
RTVSPost2010Prop41ColorRGB
 90
        0
102
RTVSPost2010PropOp41
 70
     1
102
RTVSPost2010Prop42
 90
       50
102
RTVSPost2010PropOp42
 70
     1
102
RTVSPost2010Prop43
 90
        3
102
RTVSPost2010PropOp43
 70
     1
102
RTVSPost2010Prop44ColorIndex
 90
        5
102
RTVSPost2010Prop44ColorRGB
 90
      255
102
RTVSPost2010PropOp44
 70
     1
102
RTVSPost2010Prop45
280
     0
102
RTVSPost2010PropOp45
 70
     1
102
RTVSPost2010Prop46
 90
       50
102
RTVSPost2010PropOp46
 70
     1
102
RTVSPost2010Prop47
 90
       50
102
RTVSPost2010PropOp47
 70
     1
102
RTVSPost2010Prop48
 90
       50
102
RTVSPost2010PropOp48
 70
     1
102
RTVSPost2010Prop49
280
     0
102
RTVSPost2010PropOp49
 70
     1
102
RTVSPost2010Prop50
 90
       50
102
RTVSPost2010PropOp50
 70
     1
102
RTVSPost2010Prop51ColorIndex
 90
      256
102
RTVSPost2010Prop51ColorRGB
 90
-16777216
102
RTVSPost2010PropOp51
 70
     0
102
RTVSPost2010Prop52
140
1.0
102
RTVSPost2010PropOp52
 70
     0
102
RTVSPost2010Prop53
 90
        2
102
RTVSPost2010PropOp53
 70
     1
102
RTVSPost2010Prop54
  1
strokes_ogs.tif
102
RTVSPost2010PropOp54
 70
     1
102
RTVSPost2010Prop55
280
     0
102
RTVSPost2010PropOp55
 70
     1
102
RTVSPost2010Prop56
140
1.0
102
RTVSPost2010PropOp56
 70
     1
102
RTVSPost2010Prop57
140
1.0
102
RTVSPost2010PropOp57
 70
     1
102
RTVSPropertyOp0
 70
     1
102
RTVSPropertyOp1
 70
     1
102
RTVSPropertyOp2
 70
     1
102
RTVSPropertyOp3
 70
     1
102
RTVSPropertyOp4
 70
     1
102
RTVSPropertyOp5
 70
     1
102
RTVSPropertyOp6
 70
     1
102
RTVSPropertyOp7
 70
     1
102
RTVSPropertyOp8
 70
     1
102
RTVSPropertyOp9
 70
     1
102
RTVSPropertyOp10
 70
     1
102
RTVSPropertyOp11
 70
     1
102
RTVSPropertyOp12
 70
     1
102
RTVSPropertyOp13
 70
     1
102
RTVSPropertyOp14
 70
     1
102
RTVSPropertyOp15
 70
     1
102
RTVSPropertyOp16
 70
     1
102
RTVSPropertyOp17
 70
     1
102
RTVSPropertyOp18
 70
     1
102
RTVSPropertyOp19
 70
     1
102
RTVSPropertyOp20
 70
     1
102
RTVSPropertyOp21
 70
     1
102
RTVSPropertyOp22
 70
     1
102
RTVSPropertyOp23
 70
     1
102
RTVSPropertyOp24
 70
     1
102
RTVSPropertyOp25
 70
     1
102
RTVSPropertyOp26
 70
     1
102
RTVSPropertyOp27
 70
     1
102
RTVSPropertyOp28
 70
     1
102
RTVSPropertyOp29
 70
     1
102
RTVSPropertyOp30
 70
     1
102
RTVSPropertyOp31
 70
     1
102
RTVSPropertyOp32
 70
     1
102
RTVSPropertyOp33
 70
     1
102
RTVSPropertyOp34
 70
     1
102
RTVSPropertyOp35
 70
     1
102
RTVSPropertyOp36
 70
     1
102
RTVSPropertyOp37
 70
     1
102
RTVSPropertyOp38
 70
     1
102
RTVSPropertyOp39
 70
     1
102
RTVSPropertyOp40
 70
     1
102
RTVSPropertyOp41
 70
     1
102
RTVSPropertyOp42
 70
     1
102
RTVSPropertyOp43
 70
     1
102
RTVSPropertyOp44
 70
     1
102
RTVSPropertyOp45
 70
     1
102
RTVSPropertyOp46
 70
     1
102
RTVSPropertyOp47
 70
     1
102
RTVSPropertyOp48
 70
     1
102
RTVSPropertyOp49
 70
     1
102
RTVSPropertyOp50
 70
     1
102
RTVSPropertyOp51
 70
     0
102
RTVSPropertyOp52
 70
     0
102
RTVSPropertyOp53
 70
     1
102
RTVSPropertyOp54
 70
     1
102
RTVSPropertyOp55
 70
     1
102
RTVSPropertyOp56
 70
     1
102
RTVSPropertyOp57
 70
     1
102
RTVSPropertyOp58
 70
     1
102
RTVSPropertyOp59
 70
     1
102
RTVSPropertyOp60
 70
     1
102
RTVSPropertyOp61
 70
     1
102
RTVSPropertyOp62
 70
     1
  0
XRECORD
  5
6D38
102
{ACAD_REACTORS
330
6D37
102
}
330
6D37
100
AcDbXrecord
280
     1
102
RTVSPost2010Prop28
280
     0
102
RTVSPost2010PropOp28
 70
     1
102
RTVSPost2010Prop29
280
     1
102
RTVSPost2010PropOp29
 70
     1
102
RTVSPost2010Prop30
280
     1
102
RTVSPost2010PropOp30
 70
     1
102
RTVSPost2010Prop31
280
     0
102
RTVSPost2010PropOp31
 70
     1
102
RTVSPost2010Prop32
280
     0
102
RTVSPost2010PropOp32
 70
     1
102
RTVSPost2010Prop33
280
     0
102
RTVSPost2010PropOp33
 70
     1
102
RTVSPost2010Prop34
280
     0
102
RTVSPost2010PropOp34
 70
     1
102
RTVSPost2010Prop35
280
     0
102
RTVSPost2010PropOp35
 70
     1
102
RTVSPost2010Prop36
280
     0
102
RTVSPost2010PropOp36
 70
     1
102
RTVSPost2010Prop37
 90
       50
102
RTVSPost2010PropOp37
 70
     1
102
RTVSPost2010Prop38
140
0.0
102
RTVSPost2010PropOp38
 70
     1
102
RTVSPost2010Prop39
140
1.0
102
RTVSPost2010PropOp39
 70
     1
102
RTVSPost2010Prop40
 90
        0
102
RTVSPost2010PropOp40
 70
     1
102
RTVSPost2010Prop41ColorIndex
 90
       18
102
RTVSPost2010Prop41ColorRGB
 90
        0
102
RTVSPost2010PropOp41
 70
     1
102
RTVSPost2010Prop42
 90
       50
102
RTVSPost2010PropOp42
 70
     1
102
RTVSPost2010Prop43
 90
        3
102
RTVSPost2010PropOp43
 70
     1
102
RTVSPost2010Prop44ColorIndex
 90
        5
102
RTVSPost2010Prop44ColorRGB
 90
      255
102
RTVSPost2010PropOp44
 70
     1
102
RTVSPost2010Prop45
280
     0
102
RTVSPost2010PropOp45
 70
     1
102
RTVSPost2010Prop46
 90
       50
102
RTVSPost2010PropOp46
 70
     1
102
RTVSPost2010Prop47
 90
       50
102
RTVSPost2010PropOp47
 70
     1
102
RTVSPost2010Prop48
 90
       50
102
RTVSPost2010PropOp48
 70
     1
102
RTVSPost2010Prop49
280
     0
102
RTVSPost2010PropOp49
 70
     1
102
RTVSPost2010Prop50
 90
       50
102
RTVSPost2010PropOp50
 70
     1
102
RTVSPost2010Prop51ColorIndex
 90
      256
102
RTVSPost2010Prop51ColorRGB
 90
-16777216
102
RTVSPost2010PropOp51
 70
     0
102
RTVSPost2010Prop52
140
1.0
102
RTVSPost2010PropOp52
 70
     0
102
RTVSPost2010Prop53
 90
        2
102
RTVSPost2010PropOp53
 70
     1
102
RTVSPost2010Prop54
  1
strokes_ogs.tif
102
RTVSPost2010PropOp54
 70
     1
102
RTVSPost2010Prop55
280
     0
102
RTVSPost2010PropOp55
 70
     1
102
RTVSPost2010Prop56
140
1.0
102
RTVSPost2010PropOp56
 70
     1
102
RTVSPost2010Prop57
140
1.0
102
RTVSPost2010PropOp57
 70
     1
102
RTVSPropertyOp0
 70
     1
102
RTVSPropertyOp1
 70
     1
102
RTVSPropertyOp2
 70
     1
102
RTVSPropertyOp3
 70
     1
102
RTVSPropertyOp4
 70
     1
102
RTVSPropertyOp5
 70
     1
102
RTVSPropertyOp6
 70
     1
102
RTVSPropertyOp7
 70
     1
102
RTVSPropertyOp8
 70
     1
102
RTVSPropertyOp9
 70
     1
102
RTVSPropertyOp10
 70
     1
102
RTVSPropertyOp11
 70
     1
102
RTVSPropertyOp12
 70
     1
102
RTVSPropertyOp13
 70
     1
102
RTVSPropertyOp14
 70
     1
102
RTVSPropertyOp15
 70
     1
102
RTVSPropertyOp16
 70
     1
102
RTVSPropertyOp17
 70
     1
102
RTVSPropertyOp18
 70
     1
102
RTVSPropertyOp19
 70
     1
102
RTVSPropertyOp20
 70
     1
102
RTVSPropertyOp21
 70
     1
102
RTVSPropertyOp22
 70
     1
102
RTVSPropertyOp23
 70
     1
102
RTVSPropertyOp24
 70
     1
102
RTVSPropertyOp25
 70
     1
102
RTVSPropertyOp26
 70
     1
102
RTVSPropertyOp27
 70
     1
102
RTVSPropertyOp28
 70
     1
102
RTVSPropertyOp29
 70
     1
102
RTVSPropertyOp30
 70
     1
102
RTVSPropertyOp31
 70
     1
102
RTVSPropertyOp32
 70
     1
102
RTVSPropertyOp33
 70
     1
102
RTVSPropertyOp34
 70
     1
102
RTVSPropertyOp35
 70
     1
102
RTVSPropertyOp36
 70
     1
102
RTVSPropertyOp37
 70
     1
102
RTVSPropertyOp38
 70
     1
102
RTVSPropertyOp39
 70
     1
102
RTVSPropertyOp40
 70
     1
102
RTVSPropertyOp41
 70
     1
102
RTVSPropertyOp42
 70
     1
102
RTVSPropertyOp43
 70
     1
102
RTVSPropertyOp44
 70
     1
102
RTVSPropertyOp45
 70
     1
102
RTVSPropertyOp46
 70
     1
102
RTVSPropertyOp47
 70
     1
102
RTVSPropertyOp48
 70
     1
102
RTVSPropertyOp49
 70
     1
102
RTVSPropertyOp50
 70
     1
102
RTVSPropertyOp51
 70
     0
102
RTVSPropertyOp52
 70
     0
102
RTVSPropertyOp53
 70
     1
102
RTVSPropertyOp54
 70
     1
102
RTVSPropertyOp55
 70
     1
102
RTVSPropertyOp56
 70
     1
102
RTVSPropertyOp57
 70
     1
102
RTVSPropertyOp58
 70
     1
102
RTVSPropertyOp59
 70
     1
102
RTVSPropertyOp60
 70
     1
102
RTVSPropertyOp61
 70
     1
102
RTVSPropertyOp62
 70
     1
  0
XRECORD
  5
6D3A
102
{ACAD_REACTORS
330
6D39
102
}
330
6D39
100
AcDbXrecord
280
     1
102
RTVSPost2010Prop28
280
     0
102
RTVSPost2010PropOp28
 70
     1
102
RTVSPost2010Prop29
280
     1
102
RTVSPost2010PropOp29
 70
     1
102
RTVSPost2010Prop30
280
     1
102
RTVSPost2010PropOp30
 70
     1
102
RTVSPost2010Prop31
280
     0
102
RTVSPost2010PropOp31
 70
     1
102
RTVSPost2010Prop32
280
     0
102
RTVSPost2010PropOp32
 70
     1
102
RTVSPost2010Prop33
280
     0
102
RTVSPost2010PropOp33
 70
     1
102
RTVSPost2010Prop34
280
     0
102
RTVSPost2010PropOp34
 70
     1
102
RTVSPost2010Prop35
280
     0
102
RTVSPost2010PropOp35
 70
     1
102
RTVSPost2010Prop36
280
     0
102
RTVSPost2010PropOp36
 70
     1
102
RTVSPost2010Prop37
 90
       50
102
RTVSPost2010PropOp37
 70
     1
102
RTVSPost2010Prop38
140
0.0
102
RTVSPost2010PropOp38
 70
     1
102
RTVSPost2010Prop39
140
1.0
102
RTVSPost2010PropOp39
 70
     1
102
RTVSPost2010Prop40
 90
        0
102
RTVSPost2010PropOp40
 70
     1
102
RTVSPost2010Prop41ColorIndex
 90
       18
102
RTVSPost2010Prop41ColorRGB
 90
        0
102
RTVSPost2010PropOp41
 70
     1
102
RTVSPost2010Prop42
 90
       50
102
RTVSPost2010PropOp42
 70
     1
102
RTVSPost2010Prop43
 90
        3
102
RTVSPost2010PropOp43
 70
     1
102
RTVSPost2010Prop44ColorIndex
 90
        5
102
RTVSPost2010Prop44ColorRGB
 90
      255
102
RTVSPost2010PropOp44
 70
     1
102
RTVSPost2010Prop45
280
     0
102
RTVSPost2010PropOp45
 70
     1
102
RTVSPost2010Prop46
 90
       50
102
RTVSPost2010PropOp46
 70
     1
102
RTVSPost2010Prop47
 90
       50
102
RTVSPost2010PropOp47
 70
     1
102
RTVSPost2010Prop48
 90
       50
102
RTVSPost2010PropOp48
 70
     1
102
RTVSPost2010Prop49
280
     0
102
RTVSPost2010PropOp49
 70
     1
102
RTVSPost2010Prop50
 90
       50
102
RTVSPost2010PropOp50
 70
     1
102
RTVSPost2010Prop51ColorIndex
 90
      256
102
RTVSPost2010Prop51ColorRGB
 90
-16777216
102
RTVSPost2010PropOp51
 70
     0
102
RTVSPost2010Prop52
140
1.0
102
RTVSPost2010PropOp52
 70
     0
102
RTVSPost2010Prop53
 90
        2
102
RTVSPost2010PropOp53
 70
     1
102
RTVSPost2010Prop54
  1
strokes_ogs.tif
102
RTVSPost2010PropOp54
 70
     1
102
RTVSPost2010Prop55
280
     0
102
RTVSPost2010PropOp55
 70
     1
102
RTVSPost2010Prop56
140
1.0
102
RTVSPost2010PropOp56
 70
     1
102
RTVSPost2010Prop57
140
1.0
102
RTVSPost2010PropOp57
 70
     1
102
RTVSPropertyOp0
 70
     1
102
RTVSPropertyOp1
 70
     1
102
RTVSPropertyOp2
 70
     1
102
RTVSPropertyOp3
 70
     1
102
RTVSPropertyOp4
 70
     1
102
RTVSPropertyOp5
 70
     1
102
RTVSPropertyOp6
 70
     1
102
RTVSPropertyOp7
 70
     1
102
RTVSPropertyOp8
 70
     1
102
RTVSPropertyOp9
 70
     1
102
RTVSPropertyOp10
 70
     1
102
RTVSPropertyOp11
 70
     1
102
RTVSPropertyOp12
 70
     1
102
RTVSPropertyOp13
 70
     1
102
RTVSPropertyOp14
 70
     1
102
RTVSPropertyOp15
 70
     1
102
RTVSPropertyOp16
 70
     1
102
RTVSPropertyOp17
 70
     1
102
RTVSPropertyOp18
 70
     1
102
RTVSPropertyOp19
 70
     1
102
RTVSPropertyOp20
 70
     1
102
RTVSPropertyOp21
 70
     1
102
RTVSPropertyOp22
 70
     1
102
RTVSPropertyOp23
 70
     1
102
RTVSPropertyOp24
 70
     1
102
RTVSPropertyOp25
 70
     1
102
RTVSPropertyOp26
 70
     1
102
RTVSPropertyOp27
 70
     1
102
RTVSPropertyOp28
 70
     1
102
RTVSPropertyOp29
 70
     1
102
RTVSPropertyOp30
 70
     1
102
RTVSPropertyOp31
 70
     1
102
RTVSPropertyOp32
 70
     1
102
RTVSPropertyOp33
 70
     1
102
RTVSPropertyOp34
 70
     1
102
RTVSPropertyOp35
 70
     1
102
RTVSPropertyOp36
 70
     1
102
RTVSPropertyOp37
 70
     1
102
RTVSPropertyOp38
 70
     1
102
RTVSPropertyOp39
 70
     1
102
RTVSPropertyOp40
 70
     1
102
RTVSPropertyOp41
 70
     1
102
RTVSPropertyOp42
 70
     1
102
RTVSPropertyOp43
 70
     1
102
RTVSPropertyOp44
 70
     1
102
RTVSPropertyOp45
 70
     1
102
RTVSPropertyOp46
 70
     1
102
RTVSPropertyOp47
 70
     1
102
RTVSPropertyOp48
 70
     1
102
RTVSPropertyOp49
 70
     1
102
RTVSPropertyOp50
 70
     1
102
RTVSPropertyOp51
 70
     0
102
RTVSPropertyOp52
 70
     0
102
RTVSPropertyOp53
 70
     1
102
RTVSPropertyOp54
 70
     1
102
RTVSPropertyOp55
 70
     1
102
RTVSPropertyOp56
 70
     1
102
RTVSPropertyOp57
 70
     1
102
RTVSPropertyOp58
 70
     1
102
RTVSPropertyOp59
 70
     1
102
RTVSPropertyOp60
 70
     1
102
RTVSPropertyOp61
 70
     1
102
RTVSPropertyOp62
 70
     1
  0
XRECORD
  5
6D42
102
{ACAD_REACTORS
330
6D41
102
}
330
6D41
100
AcDbXrecord
280
     1
102
RTVSPost2010Prop28
280
     0
102
RTVSPost2010PropOp28
 70
     1
102
RTVSPost2010Prop29
280
     1
102
RTVSPost2010PropOp29
 70
     1
102
RTVSPost2010Prop30
280
     1
102
RTVSPost2010PropOp30
 70
     1
102
RTVSPost2010Prop31
280
     0
102
RTVSPost2010PropOp31
 70
     1
102
RTVSPost2010Prop32
280
     0
102
RTVSPost2010PropOp32
 70
     1
102
RTVSPost2010Prop33
280
     0
102
RTVSPost2010PropOp33
 70
     1
102
RTVSPost2010Prop34
280
     0
102
RTVSPost2010PropOp34
 70
     1
102
RTVSPost2010Prop35
280
     0
102
RTVSPost2010PropOp35
 70
     1
102
RTVSPost2010Prop36
280
     0
102
RTVSPost2010PropOp36
 70
     1
102
RTVSPost2010Prop37
 90
       50
102
RTVSPost2010PropOp37
 70
     1
102
RTVSPost2010Prop38
140
0.0
102
RTVSPost2010PropOp38
 70
     1
102
RTVSPost2010Prop39
140
1.0
102
RTVSPost2010PropOp39
 70
     1
102
RTVSPost2010Prop40
 90
        0
102
RTVSPost2010PropOp40
 70
     1
102
RTVSPost2010Prop41ColorIndex
 90
       18
102
RTVSPost2010Prop41ColorRGB
 90
        0
102
RTVSPost2010PropOp41
 70
     1
102
RTVSPost2010Prop42
 90
       50
102
RTVSPost2010PropOp42
 70
     1
102
RTVSPost2010Prop43
 90
        3
102
RTVSPost2010PropOp43
 70
     1
102
RTVSPost2010Prop44ColorIndex
 90
        5
102
RTVSPost2010Prop44ColorRGB
 90
      255
102
RTVSPost2010PropOp44
 70
     1
102
RTVSPost2010Prop45
280
     0
102
RTVSPost2010PropOp45
 70
     1
102
RTVSPost2010Prop46
 90
       50
102
RTVSPost2010PropOp46
 70
     1
102
RTVSPost2010Prop47
 90
       50
102
RTVSPost2010PropOp47
 70
     1
102
RTVSPost2010Prop48
 90
       50
102
RTVSPost2010PropOp48
 70
     1
102
RTVSPost2010Prop49
280
     0
102
RTVSPost2010PropOp49
 70
     1
102
RTVSPost2010Prop50
 90
       50
102
RTVSPost2010PropOp50
 70
     1
102
RTVSPost2010Prop51ColorIndex
 90
      256
102
RTVSPost2010Prop51ColorRGB
 90
-16777216
102
RTVSPost2010PropOp51
 70
     0
102
RTVSPost2010Prop52
140
1.0
102
RTVSPost2010PropOp52
 70
     0
102
RTVSPost2010Prop53
 90
        2
102
RTVSPost2010PropOp53
 70
     1
102
RTVSPost2010Prop54
  1
strokes_ogs.tif
102
RTVSPost2010PropOp54
 70
     1
102
RTVSPost2010Prop55
280
     0
102
RTVSPost2010PropOp55
 70
     1
102
RTVSPost2010Prop56
140
1.0
102
RTVSPost2010PropOp56
 70
     1
102
RTVSPost2010Prop57
140
1.0
102
RTVSPost2010PropOp57
 70
     1
102
RTVSPropertyOp0
 70
     1
102
RTVSPropertyOp1
 70
     1
102
RTVSPropertyOp2
 70
     1
102
RTVSPropertyOp3
 70
     1
102
RTVSPropertyOp4
 70
     1
102
RTVSPropertyOp5
 70
     1
102
RTVSPropertyOp6
 70
     1
102
RTVSPropertyOp7
 70
     1
102
RTVSPropertyOp8
 70
     1
102
RTVSPropertyOp9
 70
     1
102
RTVSPropertyOp10
 70
     1
102
RTVSPropertyOp11
 70
     1
102
RTVSPropertyOp12
 70
     1
102
RTVSPropertyOp13
 70
     1
102
RTVSPropertyOp14
 70
     1
102
RTVSPropertyOp15
 70
     1
102
RTVSPropertyOp16
 70
     1
102
RTVSPropertyOp17
 70
     1
102
RTVSPropertyOp18
 70
     1
102
RTVSPropertyOp19
 70
     1
102
RTVSPropertyOp20
 70
     1
102
RTVSPropertyOp21
 70
     1
102
RTVSPropertyOp22
 70
     1
102
RTVSPropertyOp23
 70
     1
102
RTVSPropertyOp24
 70
     1
102
RTVSPropertyOp25
 70
     1
102
RTVSPropertyOp26
 70
     1
102
RTVSPropertyOp27
 70
     1
102
RTVSPropertyOp28
 70
     1
102
RTVSPropertyOp29
 70
     1
102
RTVSPropertyOp30
 70
     1
102
RTVSPropertyOp31
 70
     1
102
RTVSPropertyOp32
 70
     1
102
RTVSPropertyOp33
 70
     1
102
RTVSPropertyOp34
 70
     1
102
RTVSPropertyOp35
 70
     1
102
RTVSPropertyOp36
 70
     1
102
RTVSPropertyOp37
 70
     1
102
RTVSPropertyOp38
 70
     1
102
RTVSPropertyOp39
 70
     1
102
RTVSPropertyOp40
 70
     1
102
RTVSPropertyOp41
 70
     1
102
RTVSPropertyOp42
 70
     1
102
RTVSPropertyOp43
 70
     1
102
RTVSPropertyOp44
 70
     1
102
RTVSPropertyOp45
 70
     1
102
RTVSPropertyOp46
 70
     1
102
RTVSPropertyOp47
 70
     1
102
RTVSPropertyOp48
 70
     1
102
RTVSPropertyOp49
 70
     1
102
RTVSPropertyOp50
 70
     1
102
RTVSPropertyOp51
 70
     0
102
RTVSPropertyOp52
 70
     0
102
RTVSPropertyOp53
 70
     1
102
RTVSPropertyOp54
 70
     1
102
RTVSPropertyOp55
 70
     1
102
RTVSPropertyOp56
 70
     1
102
RTVSPropertyOp57
 70
     1
102
RTVSPropertyOp58
 70
     1
102
RTVSPropertyOp59
 70
     1
102
RTVSPropertyOp60
 70
     1
102
RTVSPropertyOp61
 70
     1
102
RTVSPropertyOp62
 70
     1
  0
XRECORD
  5
6D5E
102
{ACAD_REACTORS
330
6D5D
102
}
330
6D5D
100
AcDbXrecord
280
     1
102
RTVSPost2010Prop28
280
     0
102
RTVSPost2010PropOp28
 70
     1
102
RTVSPost2010Prop29
280
     1
102
RTVSPost2010PropOp29
 70
     1
102
RTVSPost2010Prop30
280
     1
102
RTVSPost2010PropOp30
 70
     1
102
RTVSPost2010Prop31
280
     0
102
RTVSPost2010PropOp31
 70
     1
102
RTVSPost2010Prop32
280
     0
102
RTVSPost2010PropOp32
 70
     1
102
RTVSPost2010Prop33
280
     0
102
RTVSPost2010PropOp33
 70
     1
102
RTVSPost2010Prop34
280
     0
102
RTVSPost2010PropOp34
 70
     1
102
RTVSPost2010Prop35
280
     0
102
RTVSPost2010PropOp35
 70
     1
102
RTVSPost2010Prop36
280
     0
102
RTVSPost2010PropOp36
 70
     1
102
RTVSPost2010Prop37
 90
       50
102
RTVSPost2010PropOp37
 70
     0
102
RTVSPost2010Prop38
140
0.0
102
RTVSPost2010PropOp38
 70
     0
102
RTVSPost2010Prop39
140
1.0
102
RTVSPost2010PropOp39
 70
     0
102
RTVSPost2010Prop40
 90
        0
102
RTVSPost2010PropOp40
 70
     0
102
RTVSPost2010Prop41ColorIndex
 90
       18
102
RTVSPost2010Prop41ColorRGB
 90
        0
102
RTVSPost2010PropOp41
 70
     0
102
RTVSPost2010Prop42
 90
       50
102
RTVSPost2010PropOp42
 70
     0
102
RTVSPost2010Prop43
 90
        3
102
RTVSPost2010PropOp43
 70
     0
102
RTVSPost2010Prop44ColorIndex
 90
        5
102
RTVSPost2010Prop44ColorRGB
 90
      255
102
RTVSPost2010PropOp44
 70
     0
102
RTVSPost2010Prop45
280
     0
102
RTVSPost2010PropOp45
 70
     1
102
RTVSPost2010Prop46
 90
       50
102
RTVSPost2010PropOp46
 70
     0
102
RTVSPost2010Prop47
 90
       50
102
RTVSPost2010PropOp47
 70
     0
102
RTVSPost2010Prop48
 90
       50
102
RTVSPost2010PropOp48
 70
     0
102
RTVSPost2010Prop49
280
     0
102
RTVSPost2010PropOp49
 70
     1
102
RTVSPost2010Prop50
 90
       50
102
RTVSPost2010PropOp50
 70
     0
102
RTVSPost2010Prop51ColorIndex
 90
      256
102
RTVSPost2010Prop51ColorRGB
 90
-16777216
102
RTVSPost2010PropOp51
 70
     0
102
RTVSPost2010Prop52
140
1.0
102
RTVSPost2010PropOp52
 70
     0
102
RTVSPost2010Prop53
 90
        2
102
RTVSPost2010PropOp53
 70
     0
102
RTVSPost2010Prop54
  1
strokes_ogs.tif
102
RTVSPost2010PropOp54
 70
     0
102
RTVSPost2010Prop55
280
     0
102
RTVSPost2010PropOp55
 70
     1
102
RTVSPost2010Prop56
140
1.0
102
RTVSPost2010PropOp56
 70
     0
102
RTVSPost2010Prop57
140
1.0
102
RTVSPost2010PropOp57
 70
     0
102
RTVSPropertyOp0
 70
     0
102
RTVSPropertyOp1
 70
     0
102
RTVSPropertyOp2
 70
     0
102
RTVSPropertyOp3
 70
     0
102
RTVSPropertyOp4
 70
     0
102
RTVSPropertyOp5
 70
     0
102
RTVSPropertyOp6
 70
     0
102
RTVSPropertyOp7
 70
     0
102
RTVSPropertyOp8
 70
     0
102
RTVSPropertyOp9
 70
     0
102
RTVSPropertyOp10
 70
     0
102
RTVSPropertyOp11
 70
     0
102
RTVSPropertyOp12
 70
     0
102
RTVSPropertyOp13
 70
     0
102
RTVSPropertyOp14
 70
     2
102
RTVSPropertyOp15
 70
     0
102
RTVSPropertyOp16
 70
     0
102
RTVSPropertyOp17
 70
     0
102
RTVSPropertyOp18
 70
     0
102
RTVSPropertyOp19
 70
     0
102
RTVSPropertyOp20
 70
     0
102
RTVSPropertyOp21
 70
     0
102
RTVSPropertyOp22
 70
     0
102
RTVSPropertyOp23
 70
     0
102
RTVSPropertyOp24
 70
     0
102
RTVSPropertyOp25
 70
     0
102
RTVSPropertyOp26
 70
     0
102
RTVSPropertyOp27
 70
     0
102
RTVSPropertyOp28
 70
     1
102
RTVSPropertyOp29
 70
     1
102
RTVSPropertyOp30
 70
     1
102
RTVSPropertyOp31
 70
     1
102
RTVSPropertyOp32
 70
     1
102
RTVSPropertyOp33
 70
     1
102
RTVSPropertyOp34
 70
     1
102
RTVSPropertyOp35
 70
     1
102
RTVSPropertyOp36
 70
     1
102
RTVSPropertyOp37
 70
     0
102
RTVSPropertyOp38
 70
     0
102
RTVSPropertyOp39
 70
     0
102
RTVSPropertyOp40
 70
     0
102
RTVSPropertyOp41
 70
     0
102
RTVSPropertyOp42
 70
     0
102
RTVSPropertyOp43
 70
     0
102
RTVSPropertyOp44
 70
     0
102
RTVSPropertyOp45
 70
     1
102
RTVSPropertyOp46
 70
     0
102
RTVSPropertyOp47
 70
     0
102
RTVSPropertyOp48
 70
     0
102
RTVSPropertyOp49
 70
     1
102
RTVSPropertyOp50
 70
     0
102
RTVSPropertyOp51
 70
     0
102
RTVSPropertyOp52
 70
     0
102
RTVSPropertyOp53
 70
     0
102
RTVSPropertyOp54
 70
     0
102
RTVSPropertyOp55
 70
     1
102
RTVSPropertyOp56
 70
     0
102
RTVSPropertyOp57
 70
     0
102
RTVSPropertyOp58
 70
     0
102
RTVSPropertyOp59
 70
     0
102
RTVSPropertyOp60
 70
     0
102
RTVSPropertyOp61
 70
     0
102
RTVSPropertyOp62
 70
     0
  0
XRECORD
  5
6D4E
102
{ACAD_REACTORS
330
6D4D
102
}
330
6D4D
100
AcDbXrecord
280
     1
102
RTVSPost2010Prop28
280
     0
102
RTVSPost2010PropOp28
 70
     1
102
RTVSPost2010Prop29
280
     1
102
RTVSPost2010PropOp29
 70
     1
102
RTVSPost2010Prop30
280
     1
102
RTVSPost2010PropOp30
 70
     1
102
RTVSPost2010Prop31
280
     0
102
RTVSPost2010PropOp31
 70
     1
102
RTVSPost2010Prop32
280
     0
102
RTVSPost2010PropOp32
 70
     1
102
RTVSPost2010Prop33
280
     0
102
RTVSPost2010PropOp33
 70
     1
102
RTVSPost2010Prop34
280
     0
102
RTVSPost2010PropOp34
 70
     1
102
RTVSPost2010Prop35
280
     0
102
RTVSPost2010PropOp35
 70
     1
102
RTVSPost2010Prop36
280
     0
102
RTVSPost2010PropOp36
 70
     1
102
RTVSPost2010Prop37
 90
       50
102
RTVSPost2010PropOp37
 70
     1
102
RTVSPost2010Prop38
140
0.0
102
RTVSPost2010PropOp38
 70
     1
102
RTVSPost2010Prop39
140
1.0
102
RTVSPost2010PropOp39
 70
     1
102
RTVSPost2010Prop40
 90
        0
102
RTVSPost2010PropOp40
 70
     1
102
RTVSPost2010Prop41ColorIndex
 90
       18
102
RTVSPost2010Prop41ColorRGB
 90
        0
102
RTVSPost2010PropOp41
 70
     1
102
RTVSPost2010Prop42
 90
       50
102
RTVSPost2010PropOp42
 70
     1
102
RTVSPost2010Prop43
 90
        3
102
RTVSPost2010PropOp43
 70
     1
102
RTVSPost2010Prop44ColorIndex
 90
        5
102
RTVSPost2010Prop44ColorRGB
 90
      255
102
RTVSPost2010PropOp44
 70
     1
102
RTVSPost2010Prop45
280
     0
102
RTVSPost2010PropOp45
 70
     1
102
RTVSPost2010Prop46
 90
       50
102
RTVSPost2010PropOp46
 70
     1
102
RTVSPost2010Prop47
 90
       50
102
RTVSPost2010PropOp47
 70
     1
102
RTVSPost2010Prop48
 90
       50
102
RTVSPost2010PropOp48
 70
     1
102
RTVSPost2010Prop49
280
     0
102
RTVSPost2010PropOp49
 70
     1
102
RTVSPost2010Prop50
 90
       50
102
RTVSPost2010PropOp50
 70
     1
102
RTVSPost2010Prop51ColorIndex
 90
      256
102
RTVSPost2010Prop51ColorRGB
 90
-16777216
102
RTVSPost2010PropOp51
 70
     0
102
RTVSPost2010Prop52
140
1.0
102
RTVSPost2010PropOp52
 70
     0
102
RTVSPost2010Prop53
 90
        2
102
RTVSPost2010PropOp53
 70
     1
102
RTVSPost2010Prop54
  1
strokes_ogs.tif
102
RTVSPost2010PropOp54
 70
     1
102
RTVSPost2010Prop55
280
     0
102
RTVSPost2010PropOp55
 70
     1
102
RTVSPost2010Prop56
140
1.0
102
RTVSPost2010PropOp56
 70
     1
102
RTVSPost2010Prop57
140
1.0
102
RTVSPost2010PropOp57
 70
     1
102
RTVSPropertyOp0
 70
     1
102
RTVSPropertyOp1
 70
     1
102
RTVSPropertyOp2
 70
     1
102
RTVSPropertyOp3
 70
     1
102
RTVSPropertyOp4
 70
     1
102
RTVSPropertyOp5
 70
     1
102
RTVSPropertyOp6
 70
     1
102
RTVSPropertyOp7
 70
     1
102
RTVSPropertyOp8
 70
     1
102
RTVSPropertyOp9
 70
     1
102
RTVSPropertyOp10
 70
     1
102
RTVSPropertyOp11
 70
     1
102
RTVSPropertyOp12
 70
     1
102
RTVSPropertyOp13
 70
     1
102
RTVSPropertyOp14
 70
     1
102
RTVSPropertyOp15
 70
     1
102
RTVSPropertyOp16
 70
     1
102
RTVSPropertyOp17
 70
     1
102
RTVSPropertyOp18
 70
     1
102
RTVSPropertyOp19
 70
     1
102
RTVSPropertyOp20
 70
     1
102
RTVSPropertyOp21
 70
     1
102
RTVSPropertyOp22
 70
     1
102
RTVSPropertyOp23
 70
     1
102
RTVSPropertyOp24
 70
     1
102
RTVSPropertyOp25
 70
     1
102
RTVSPropertyOp26
 70
     1
102
RTVSPropertyOp27
 70
     1
102
RTVSPropertyOp28
 70
     1
102
RTVSPropertyOp29
 70
     1
102
RTVSPropertyOp30
 70
     1
102
RTVSPropertyOp31
 70
     1
102
RTVSPropertyOp32
 70
     1
102
RTVSPropertyOp33
 70
     1
102
RTVSPropertyOp34
 70
     1
102
RTVSPropertyOp35
 70
     1
102
RTVSPropertyOp36
 70
     1
102
RTVSPropertyOp37
 70
     1
102
RTVSPropertyOp38
 70
     1
102
RTVSPropertyOp39
 70
     1
102
RTVSPropertyOp40
 70
     1
102
RTVSPropertyOp41
 70
     1
102
RTVSPropertyOp42
 70
     1
102
RTVSPropertyOp43
 70
     1
102
RTVSPropertyOp44
 70
     1
102
RTVSPropertyOp45
 70
     1
102
RTVSPropertyOp46
 70
     1
102
RTVSPropertyOp47
 70
     1
102
RTVSPropertyOp48
 70
     1
102
RTVSPropertyOp49
 70
     1
102
RTVSPropertyOp50
 70
     1
102
RTVSPropertyOp51
 70
     0
102
RTVSPropertyOp52
 70
     0
102
RTVSPropertyOp53
 70
     1
102
RTVSPropertyOp54
 70
     1
102
RTVSPropertyOp55
 70
     1
102
RTVSPropertyOp56
 70
     1
102
RTVSPropertyOp57
 70
     1
102
RTVSPropertyOp58
 70
     1
102
RTVSPropertyOp59
 70
     1
102
RTVSPropertyOp60
 70
     1
102
RTVSPropertyOp61
 70
     1
102
RTVSPropertyOp62
 70
     1
  0
XRECORD
  5
6D60
102
{ACAD_REACTORS
330
6D5F
102
}
330
6D5F
100
AcDbXrecord
280
     1
102
RTVSPost2010Prop28
280
     0
102
RTVSPost2010PropOp28
 70
     1
102
RTVSPost2010Prop29
280
     1
102
RTVSPost2010PropOp29
 70
     1
102
RTVSPost2010Prop30
280
     1
102
RTVSPost2010PropOp30
 70
     1
102
RTVSPost2010Prop31
280
     0
102
RTVSPost2010PropOp31
 70
     1
102
RTVSPost2010Prop32
280
     0
102
RTVSPost2010PropOp32
 70
     1
102
RTVSPost2010Prop33
280
     0
102
RTVSPost2010PropOp33
 70
     1
102
RTVSPost2010Prop34
280
     0
102
RTVSPost2010PropOp34
 70
     1
102
RTVSPost2010Prop35
280
     0
102
RTVSPost2010PropOp35
 70
     1
102
RTVSPost2010Prop36
280
     0
102
RTVSPost2010PropOp36
 70
     1
102
RTVSPost2010Prop37
 90
       50
102
RTVSPost2010PropOp37
 70
     0
102
RTVSPost2010Prop38
140
0.0
102
RTVSPost2010PropOp38
 70
     0
102
RTVSPost2010Prop39
140
1.0
102
RTVSPost2010PropOp39
 70
     0
102
RTVSPost2010Prop40
 90
        0
102
RTVSPost2010PropOp40
 70
     0
102
RTVSPost2010Prop41ColorIndex
 90
       18
102
RTVSPost2010Prop41ColorRGB
 90
        0
102
RTVSPost2010PropOp41
 70
     0
102
RTVSPost2010Prop42
 90
       50
102
RTVSPost2010PropOp42
 70
     0
102
RTVSPost2010Prop43
 90
        3
102
RTVSPost2010PropOp43
 70
     0
102
RTVSPost2010Prop44ColorIndex
 90
        5
102
RTVSPost2010Prop44ColorRGB
 90
      255
102
RTVSPost2010PropOp44
 70
     0
102
RTVSPost2010Prop45
280
     0
102
RTVSPost2010PropOp45
 70
     1
102
RTVSPost2010Prop46
 90
       50
102
RTVSPost2010PropOp46
 70
     0
102
RTVSPost2010Prop47
 90
       50
102
RTVSPost2010PropOp47
 70
     0
102
RTVSPost2010Prop48
 90
       50
102
RTVSPost2010PropOp48
 70
     0
102
RTVSPost2010Prop49
280
     0
102
RTVSPost2010PropOp49
 70
     1
102
RTVSPost2010Prop50
 90
       50
102
RTVSPost2010PropOp50
 70
     0
102
RTVSPost2010Prop51ColorIndex
 90
      256
102
RTVSPost2010Prop51ColorRGB
 90
-16777216
102
RTVSPost2010PropOp51
 70
     0
102
RTVSPost2010Prop52
140
1.0
102
RTVSPost2010PropOp52
 70
     0
102
RTVSPost2010Prop53
 90
        2
102
RTVSPost2010PropOp53
 70
     0
102
RTVSPost2010Prop54
  1
strokes_ogs.tif
102
RTVSPost2010PropOp54
 70
     0
102
RTVSPost2010Prop55
280
     0
102
RTVSPost2010PropOp55
 70
     1
102
RTVSPost2010Prop56
140
1.0
102
RTVSPost2010PropOp56
 70
     0
102
RTVSPost2010Prop57
140
1.0
102
RTVSPost2010PropOp57
 70
     0
102
RTVSPropertyOp0
 70
     0
102
RTVSPropertyOp1
 70
     0
102
RTVSPropertyOp2
 70
     0
102
RTVSPropertyOp3
 70
     0
102
RTVSPropertyOp4
 70
     0
102
RTVSPropertyOp5
 70
     0
102
RTVSPropertyOp6
 70
     0
102
RTVSPropertyOp7
 70
     0
102
RTVSPropertyOp8
 70
     0
102
RTVSPropertyOp9
 70
     0
102
RTVSPropertyOp10
 70
     0
102
RTVSPropertyOp11
 70
     0
102
RTVSPropertyOp12
 70
     0
102
RTVSPropertyOp13
 70
     0
102
RTVSPropertyOp14
 70
     2
102
RTVSPropertyOp15
 70
     0
102
RTVSPropertyOp16
 70
     0
102
RTVSPropertyOp17
 70
     0
102
RTVSPropertyOp18
 70
     0
102
RTVSPropertyOp19
 70
     0
102
RTVSPropertyOp20
 70
     0
102
RTVSPropertyOp21
 70
     0
102
RTVSPropertyOp22
 70
     0
102
RTVSPropertyOp23
 70
     0
102
RTVSPropertyOp24
 70
     0
102
RTVSPropertyOp25
 70
     0
102
RTVSPropertyOp26
 70
     0
102
RTVSPropertyOp27
 70
     0
102
RTVSPropertyOp28
 70
     1
102
RTVSPropertyOp29
 70
     1
102
RTVSPropertyOp30
 70
     1
102
RTVSPropertyOp31
 70
     1
102
RTVSPropertyOp32
 70
     1
102
RTVSPropertyOp33
 70
     1
102
RTVSPropertyOp34
 70
     1
102
RTVSPropertyOp35
 70
     1
102
RTVSPropertyOp36
 70
     1
102
RTVSPropertyOp37
 70
     0
102
RTVSPropertyOp38
 70
     0
102
RTVSPropertyOp39
 70
     0
102
RTVSPropertyOp40
 70
     0
102
RTVSPropertyOp41
 70
     0
102
RTVSPropertyOp42
 70
     0
102
RTVSPropertyOp43
 70
     0
102
RTVSPropertyOp44
 70
     0
102
RTVSPropertyOp45
 70
     1
102
RTVSPropertyOp46
 70
     0
102
RTVSPropertyOp47
 70
     0
102
RTVSPropertyOp48
 70
     0
102
RTVSPropertyOp49
 70
     1
102
RTVSPropertyOp50
 70
     0
102
RTVSPropertyOp51
 70
     0
102
RTVSPropertyOp52
 70
     0
102
RTVSPropertyOp53
 70
     0
102
RTVSPropertyOp54
 70
     0
102
RTVSPropertyOp55
 70
     1
102
RTVSPropertyOp56
 70
     0
102
RTVSPropertyOp57
 70
     0
102
RTVSPropertyOp58
 70
     0
102
RTVSPropertyOp59
 70
     0
102
RTVSPropertyOp60
 70
     0
102
RTVSPropertyOp61
 70
     0
102
RTVSPropertyOp62
 70
     0
  0
XRECORD
  5
6D46
102
{ACAD_REACTORS
330
6D45
102
}
330
6D45
100
AcDbXrecord
280
     1
102
RTVSPost2010Prop28
280
     0
102
RTVSPost2010PropOp28
 70
     1
102
RTVSPost2010Prop29
280
     1
102
RTVSPost2010PropOp29
 70
     1
102
RTVSPost2010Prop30
280
     1
102
RTVSPost2010PropOp30
 70
     1
102
RTVSPost2010Prop31
280
     0
102
RTVSPost2010PropOp31
 70
     1
102
RTVSPost2010Prop32
280
     0
102
RTVSPost2010PropOp32
 70
     1
102
RTVSPost2010Prop33
280
     0
102
RTVSPost2010PropOp33
 70
     1
102
RTVSPost2010Prop34
280
     0
102
RTVSPost2010PropOp34
 70
     1
102
RTVSPost2010Prop35
280
     0
102
RTVSPost2010PropOp35
 70
     1
102
RTVSPost2010Prop36
280
     0
102
RTVSPost2010PropOp36
 70
     1
102
RTVSPost2010Prop37
 90
       50
102
RTVSPost2010PropOp37
 70
     1
102
RTVSPost2010Prop38
140
0.0
102
RTVSPost2010PropOp38
 70
     1
102
RTVSPost2010Prop39
140
1.0
102
RTVSPost2010PropOp39
 70
     1
102
RTVSPost2010Prop40
 90
        0
102
RTVSPost2010PropOp40
 70
     1
102
RTVSPost2010Prop41ColorIndex
 90
       18
102
RTVSPost2010Prop41ColorRGB
 90
        0
102
RTVSPost2010PropOp41
 70
     1
102
RTVSPost2010Prop42
 90
       50
102
RTVSPost2010PropOp42
 70
     1
102
RTVSPost2010Prop43
 90
        3
102
RTVSPost2010PropOp43
 70
     1
102
RTVSPost2010Prop44ColorIndex
 90
        5
102
RTVSPost2010Prop44ColorRGB
 90
      255
102
RTVSPost2010PropOp44
 70
     1
102
RTVSPost2010Prop45
280
     0
102
RTVSPost2010PropOp45
 70
     1
102
RTVSPost2010Prop46
 90
       50
102
RTVSPost2010PropOp46
 70
     1
102
RTVSPost2010Prop47
 90
       50
102
RTVSPost2010PropOp47
 70
     1
102
RTVSPost2010Prop48
 90
       50
102
RTVSPost2010PropOp48
 70
     1
102
RTVSPost2010Prop49
280
     0
102
RTVSPost2010PropOp49
 70
     1
102
RTVSPost2010Prop50
 90
       50
102
RTVSPost2010PropOp50
 70
     1
102
RTVSPost2010Prop51ColorIndex
 90
      256
102
RTVSPost2010Prop51ColorRGB
 90
-16777216
102
RTVSPost2010PropOp51
 70
     0
102
RTVSPost2010Prop52
140
1.0
102
RTVSPost2010PropOp52
 70
     0
102
RTVSPost2010Prop53
 90
        2
102
RTVSPost2010PropOp53
 70
     1
102
RTVSPost2010Prop54
  1
strokes_ogs.tif
102
RTVSPost2010PropOp54
 70
     1
102
RTVSPost2010Prop55
280
     0
102
RTVSPost2010PropOp55
 70
     1
102
RTVSPost2010Prop56
140
1.0
102
RTVSPost2010PropOp56
 70
     1
102
RTVSPost2010Prop57
140
1.0
102
RTVSPost2010PropOp57
 70
     1
102
RTVSPropertyOp0
 70
     1
102
RTVSPropertyOp1
 70
     1
102
RTVSPropertyOp2
 70
     1
102
RTVSPropertyOp3
 70
     1
102
RTVSPropertyOp4
 70
     1
102
RTVSPropertyOp5
 70
     1
102
RTVSPropertyOp6
 70
     1
102
RTVSPropertyOp7
 70
     1
102
RTVSPropertyOp8
 70
     1
102
RTVSPropertyOp9
 70
     1
102
RTVSPropertyOp10
 70
     1
102
RTVSPropertyOp11
 70
     1
102
RTVSPropertyOp12
 70
     1
102
RTVSPropertyOp13
 70
     1
102
RTVSPropertyOp14
 70
     1
102
RTVSPropertyOp15
 70
     1
102
RTVSPropertyOp16
 70
     1
102
RTVSPropertyOp17
 70
     1
102
RTVSPropertyOp18
 70
     1
102
RTVSPropertyOp19
 70
     1
102
RTVSPropertyOp20
 70
     1
102
RTVSPropertyOp21
 70
     1
102
RTVSPropertyOp22
 70
     1
102
RTVSPropertyOp23
 70
     1
102
RTVSPropertyOp24
 70
     1
102
RTVSPropertyOp25
 70
     1
102
RTVSPropertyOp26
 70
     1
102
RTVSPropertyOp27
 70
     1
102
RTVSPropertyOp28
 70
     1
102
RTVSPropertyOp29
 70
     1
102
RTVSPropertyOp30
 70
     1
102
RTVSPropertyOp31
 70
     1
102
RTVSPropertyOp32
 70
     1
102
RTVSPropertyOp33
 70
     1
102
RTVSPropertyOp34
 70
     1
102
RTVSPropertyOp35
 70
     1
102
RTVSPropertyOp36
 70
     1
102
RTVSPropertyOp37
 70
     1
102
RTVSPropertyOp38
 70
     1
102
RTVSPropertyOp39
 70
     1
102
RTVSPropertyOp40
 70
     1
102
RTVSPropertyOp41
 70
     1
102
RTVSPropertyOp42
 70
     1
102
RTVSPropertyOp43
 70
     1
102
RTVSPropertyOp44
 70
     1
102
RTVSPropertyOp45
 70
     1
102
RTVSPropertyOp46
 70
     1
102
RTVSPropertyOp47
 70
     1
102
RTVSPropertyOp48
 70
     1
102
RTVSPropertyOp49
 70
     1
102
RTVSPropertyOp50
 70
     1
102
RTVSPropertyOp51
 70
     0
102
RTVSPropertyOp52
 70
     0
102
RTVSPropertyOp53
 70
     1
102
RTVSPropertyOp54
 70
     1
102
RTVSPropertyOp55
 70
     1
102
RTVSPropertyOp56
 70
     1
102
RTVSPropertyOp57
 70
     1
102
RTVSPropertyOp58
 70
     1
102
RTVSPropertyOp59
 70
     1
102
RTVSPropertyOp60
 70
     1
102
RTVSPropertyOp61
 70
     1
102
RTVSPropertyOp62
 70
     1
  0
XRECORD
  5
6D5C
102
{ACAD_REACTORS
330
6D5B
102
}
330
6D5B
100
AcDbXrecord
280
     1
102
RTVSPost2010Prop28
280
     0
102
RTVSPost2010PropOp28
 70
     1
102
RTVSPost2010Prop29
280
     1
102
RTVSPost2010PropOp29
 70
     1
102
RTVSPost2010Prop30
280
     1
102
RTVSPost2010PropOp30
 70
     1
102
RTVSPost2010Prop31
280
     0
102
RTVSPost2010PropOp31
 70
     1
102
RTVSPost2010Prop32
280
     0
102
RTVSPost2010PropOp32
 70
     1
102
RTVSPost2010Prop33
280
     0
102
RTVSPost2010PropOp33
 70
     1
102
RTVSPost2010Prop34
280
     0
102
RTVSPost2010PropOp34
 70
     1
102
RTVSPost2010Prop35
280
     0
102
RTVSPost2010PropOp35
 70
     1
102
RTVSPost2010Prop36
280
     0
102
RTVSPost2010PropOp36
 70
     1
102
RTVSPost2010Prop37
 90
       50
102
RTVSPost2010PropOp37
 70
     1
102
RTVSPost2010Prop38
140
0.0
102
RTVSPost2010PropOp38
 70
     1
102
RTVSPost2010Prop39
140
1.0
102
RTVSPost2010PropOp39
 70
     1
102
RTVSPost2010Prop40
 90
        0
102
RTVSPost2010PropOp40
 70
     1
102
RTVSPost2010Prop41ColorIndex
 90
       18
102
RTVSPost2010Prop41ColorRGB
 90
        0
102
RTVSPost2010PropOp41
 70
     1
102
RTVSPost2010Prop42
 90
       50
102
RTVSPost2010PropOp42
 70
     1
102
RTVSPost2010Prop43
 90
        3
102
RTVSPost2010PropOp43
 70
     1
102
RTVSPost2010Prop44ColorIndex
 90
        5
102
RTVSPost2010Prop44ColorRGB
 90
      255
102
RTVSPost2010PropOp44
 70
     1
102
RTVSPost2010Prop45
280
     0
102
RTVSPost2010PropOp45
 70
     1
102
RTVSPost2010Prop46
 90
       50
102
RTVSPost2010PropOp46
 70
     1
102
RTVSPost2010Prop47
 90
       50
102
RTVSPost2010PropOp47
 70
     1
102
RTVSPost2010Prop48
 90
       50
102
RTVSPost2010PropOp48
 70
     1
102
RTVSPost2010Prop49
280
     0
102
RTVSPost2010PropOp49
 70
     1
102
RTVSPost2010Prop50
 90
       50
102
RTVSPost2010PropOp50
 70
     1
102
RTVSPost2010Prop51ColorIndex
 90
      256
102
RTVSPost2010Prop51ColorRGB
 90
-16777216
102
RTVSPost2010PropOp51
 70
     0
102
RTVSPost2010Prop52
140
1.0
102
RTVSPost2010PropOp52
 70
     0
102
RTVSPost2010Prop53
 90
        2
102
RTVSPost2010PropOp53
 70
     1
102
RTVSPost2010Prop54
  1
strokes_ogs.tif
102
RTVSPost2010PropOp54
 70
     1
102
RTVSPost2010Prop55
280
     0
102
RTVSPost2010PropOp55
 70
     1
102
RTVSPost2010Prop56
140
1.0
102
RTVSPost2010PropOp56
 70
     1
102
RTVSPost2010Prop57
140
1.0
102
RTVSPost2010PropOp57
 70
     1
102
RTVSPropertyOp0
 70
     1
102
RTVSPropertyOp1
 70
     1
102
RTVSPropertyOp2
 70
     1
102
RTVSPropertyOp3
 70
     1
102
RTVSPropertyOp4
 70
     1
102
RTVSPropertyOp5
 70
     1
102
RTVSPropertyOp6
 70
     1
102
RTVSPropertyOp7
 70
     1
102
RTVSPropertyOp8
 70
     1
102
RTVSPropertyOp9
 70
     1
102
RTVSPropertyOp10
 70
     1
102
RTVSPropertyOp11
 70
     1
102
RTVSPropertyOp12
 70
     1
102
RTVSPropertyOp13
 70
     1
102
RTVSPropertyOp14
 70
     1
102
RTVSPropertyOp15
 70
     1
102
RTVSPropertyOp16
 70
     1
102
RTVSPropertyOp17
 70
     1
102
RTVSPropertyOp18
 70
     1
102
RTVSPropertyOp19
 70
     1
102
RTVSPropertyOp20
 70
     1
102
RTVSPropertyOp21
 70
     1
102
RTVSPropertyOp22
 70
     1
102
RTVSPropertyOp23
 70
     1
102
RTVSPropertyOp24
 70
     1
102
RTVSPropertyOp25
 70
     1
102
RTVSPropertyOp26
 70
     1
102
RTVSPropertyOp27
 70
     1
102
RTVSPropertyOp28
 70
     1
102
RTVSPropertyOp29
 70
     1
102
RTVSPropertyOp30
 70
     1
102
RTVSPropertyOp31
 70
     1
102
RTVSPropertyOp32
 70
     1
102
RTVSPropertyOp33
 70
     1
102
RTVSPropertyOp34
 70
     1
102
RTVSPropertyOp35
 70
     1
102
RTVSPropertyOp36
 70
     1
102
RTVSPropertyOp37
 70
     1
102
RTVSPropertyOp38
 70
     1
102
RTVSPropertyOp39
 70
     1
102
RTVSPropertyOp40
 70
     1
102
RTVSPropertyOp41
 70
     1
102
RTVSPropertyOp42
 70
     1
102
RTVSPropertyOp43
 70
     1
102
RTVSPropertyOp44
 70
     1
102
RTVSPropertyOp45
 70
     1
102
RTVSPropertyOp46
 70
     1
102
RTVSPropertyOp47
 70
     1
102
RTVSPropertyOp48
 70
     1
102
RTVSPropertyOp49
 70
     1
102
RTVSPropertyOp50
 70
     1
102
RTVSPropertyOp51
 70
     0
102
RTVSPropertyOp52
 70
     0
102
RTVSPropertyOp53
 70
     1
102
RTVSPropertyOp54
 70
     1
102
RTVSPropertyOp55
 70
     1
102
RTVSPropertyOp56
 70
     1
102
RTVSPropertyOp57
 70
     1
102
RTVSPropertyOp58
 70
     1
102
RTVSPropertyOp59
 70
     1
102
RTVSPropertyOp60
 70
     1
102
RTVSPropertyOp61
 70
     1
102
RTVSPropertyOp62
 70
     1
  0
XRECORD
  5
6D5A
102
{ACAD_REACTORS
330
6D59
102
}
330
6D59
100
AcDbXrecord
280
     1
102
RTVSPost2010Prop28
280
     0
102
RTVSPost2010PropOp28
 70
     1
102
RTVSPost2010Prop29
280
     1
102
RTVSPost2010PropOp29
 70
     1
102
RTVSPost2010Prop30
280
     1
102
RTVSPost2010PropOp30
 70
     1
102
RTVSPost2010Prop31
280
     0
102
RTVSPost2010PropOp31
 70
     1
102
RTVSPost2010Prop32
280
     0
102
RTVSPost2010PropOp32
 70
     1
102
RTVSPost2010Prop33
280
     0
102
RTVSPost2010PropOp33
 70
     1
102
RTVSPost2010Prop34
280
     0
102
RTVSPost2010PropOp34
 70
     1
102
RTVSPost2010Prop35
280
     0
102
RTVSPost2010PropOp35
 70
     1
102
RTVSPost2010Prop36
280
     0
102
RTVSPost2010PropOp36
 70
     1
102
RTVSPost2010Prop37
 90
       50
102
RTVSPost2010PropOp37
 70
     1
102
RTVSPost2010Prop38
140
0.0
102
RTVSPost2010PropOp38
 70
     1
102
RTVSPost2010Prop39
140
1.0
102
RTVSPost2010PropOp39
 70
     1
102
RTVSPost2010Prop40
 90
        0
102
RTVSPost2010PropOp40
 70
     1
102
RTVSPost2010Prop41ColorIndex
 90
       18
102
RTVSPost2010Prop41ColorRGB
 90
        0
102
RTVSPost2010PropOp41
 70
     1
102
RTVSPost2010Prop42
 90
       50
102
RTVSPost2010PropOp42
 70
     1
102
RTVSPost2010Prop43
 90
        3
102
RTVSPost2010PropOp43
 70
     1
102
RTVSPost2010Prop44ColorIndex
 90
        5
102
RTVSPost2010Prop44ColorRGB
 90
      255
102
RTVSPost2010PropOp44
 70
     1
102
RTVSPost2010Prop45
280
     0
102
RTVSPost2010PropOp45
 70
     1
102
RTVSPost2010Prop46
 90
       50
102
RTVSPost2010PropOp46
 70
     1
102
RTVSPost2010Prop47
 90
       50
102
RTVSPost2010PropOp47
 70
     1
102
RTVSPost2010Prop48
 90
       50
102
RTVSPost2010PropOp48
 70
     1
102
RTVSPost2010Prop49
280
     0
102
RTVSPost2010PropOp49
 70
     1
102
RTVSPost2010Prop50
 90
       50
102
RTVSPost2010PropOp50
 70
     1
102
RTVSPost2010Prop51ColorIndex
 90
      256
102
RTVSPost2010Prop51ColorRGB
 90
-16777216
102
RTVSPost2010PropOp51
 70
     0
102
RTVSPost2010Prop52
140
1.0
102
RTVSPost2010PropOp52
 70
     0
102
RTVSPost2010Prop53
 90
        2
102
RTVSPost2010PropOp53
 70
     1
102
RTVSPost2010Prop54
  1
strokes_ogs.tif
102
RTVSPost2010PropOp54
 70
     1
102
RTVSPost2010Prop55
280
     0
102
RTVSPost2010PropOp55
 70
     1
102
RTVSPost2010Prop56
140
1.0
102
RTVSPost2010PropOp56
 70
     1
102
RTVSPost2010Prop57
140
1.0
102
RTVSPost2010PropOp57
 70
     1
102
RTVSPropertyOp0
 70
     1
102
RTVSPropertyOp1
 70
     1
102
RTVSPropertyOp2
 70
     1
102
RTVSPropertyOp3
 70
     1
102
RTVSPropertyOp4
 70
     1
102
RTVSPropertyOp5
 70
     1
102
RTVSPropertyOp6
 70
     1
102
RTVSPropertyOp7
 70
     1
102
RTVSPropertyOp8
 70
     1
102
RTVSPropertyOp9
 70
     1
102
RTVSPropertyOp10
 70
     1
102
RTVSPropertyOp11
 70
     1
102
RTVSPropertyOp12
 70
     1
102
RTVSPropertyOp13
 70
     1
102
RTVSPropertyOp14
 70
     1
102
RTVSPropertyOp15
 70
     1
102
RTVSPropertyOp16
 70
     1
102
RTVSPropertyOp17
 70
     1
102
RTVSPropertyOp18
 70
     1
102
RTVSPropertyOp19
 70
     1
102
RTVSPropertyOp20
 70
     1
102
RTVSPropertyOp21
 70
     1
102
RTVSPropertyOp22
 70
     1
102
RTVSPropertyOp23
 70
     1
102
RTVSPropertyOp24
 70
     1
102
RTVSPropertyOp25
 70
     1
102
RTVSPropertyOp26
 70
     1
102
RTVSPropertyOp27
 70
     1
102
RTVSPropertyOp28
 70
     1
102
RTVSPropertyOp29
 70
     1
102
RTVSPropertyOp30
 70
     1
102
RTVSPropertyOp31
 70
     1
102
RTVSPropertyOp32
 70
     1
102
RTVSPropertyOp33
 70
     1
102
RTVSPropertyOp34
 70
     1
102
RTVSPropertyOp35
 70
     1
102
RTVSPropertyOp36
 70
     1
102
RTVSPropertyOp37
 70
     1
102
RTVSPropertyOp38
 70
     1
102
RTVSPropertyOp39
 70
     1
102
RTVSPropertyOp40
 70
     1
102
RTVSPropertyOp41
 70
     1
102
RTVSPropertyOp42
 70
     1
102
RTVSPropertyOp43
 70
     1
102
RTVSPropertyOp44
 70
     1
102
RTVSPropertyOp45
 70
     1
102
RTVSPropertyOp46
 70
     1
102
RTVSPropertyOp47
 70
     1
102
RTVSPropertyOp48
 70
     1
102
RTVSPropertyOp49
 70
     1
102
RTVSPropertyOp50
 70
     1
102
RTVSPropertyOp51
 70
     0
102
RTVSPropertyOp52
 70
     0
102
RTVSPropertyOp53
 70
     1
102
RTVSPropertyOp54
 70
     1
102
RTVSPropertyOp55
 70
     1
102
RTVSPropertyOp56
 70
     1
102
RTVSPropertyOp57
 70
     1
102
RTVSPropertyOp58
 70
     1
102
RTVSPropertyOp59
 70
     1
102
RTVSPropertyOp60
 70
     1
102
RTVSPropertyOp61
 70
     1
102
RTVSPropertyOp62
 70
     1
  0
XRECORD
  5
6D54
102
{ACAD_REACTORS
330
6D53
102
}
330
6D53
100
AcDbXrecord
280
     1
102
RTVSPost2010Prop28
280
     0
102
RTVSPost2010PropOp28
 70
     1
102
RTVSPost2010Prop29
280
     1
102
RTVSPost2010PropOp29
 70
     1
102
RTVSPost2010Prop30
280
     1
102
RTVSPost2010PropOp30
 70
     1
102
RTVSPost2010Prop31
280
     0
102
RTVSPost2010PropOp31
 70
     1
102
RTVSPost2010Prop32
280
     0
102
RTVSPost2010PropOp32
 70
     1
102
RTVSPost2010Prop33
280
     0
102
RTVSPost2010PropOp33
 70
     1
102
RTVSPost2010Prop34
280
     0
102
RTVSPost2010PropOp34
 70
     1
102
RTVSPost2010Prop35
280
     0
102
RTVSPost2010PropOp35
 70
     1
102
RTVSPost2010Prop36
280
     0
102
RTVSPost2010PropOp36
 70
     1
102
RTVSPost2010Prop37
 90
       50
102
RTVSPost2010PropOp37
 70
     1
102
RTVSPost2010Prop38
140
0.0
102
RTVSPost2010PropOp38
 70
     1
102
RTVSPost2010Prop39
140
1.0
102
RTVSPost2010PropOp39
 70
     1
102
RTVSPost2010Prop40
 90
        0
102
RTVSPost2010PropOp40
 70
     1
102
RTVSPost2010Prop41ColorIndex
 90
       18
102
RTVSPost2010Prop41ColorRGB
 90
        0
102
RTVSPost2010PropOp41
 70
     1
102
RTVSPost2010Prop42
 90
       50
102
RTVSPost2010PropOp42
 70
     1
102
RTVSPost2010Prop43
 90
        3
102
RTVSPost2010PropOp43
 70
     1
102
RTVSPost2010Prop44ColorIndex
 90
        5
102
RTVSPost2010Prop44ColorRGB
 90
      255
102
RTVSPost2010PropOp44
 70
     1
102
RTVSPost2010Prop45
280
     0
102
RTVSPost2010PropOp45
 70
     1
102
RTVSPost2010Prop46
 90
       50
102
RTVSPost2010PropOp46
 70
     1
102
RTVSPost2010Prop47
 90
       50
102
RTVSPost2010PropOp47
 70
     1
102
RTVSPost2010Prop48
 90
       50
102
RTVSPost2010PropOp48
 70
     1
102
RTVSPost2010Prop49
280
     0
102
RTVSPost2010PropOp49
 70
     1
102
RTVSPost2010Prop50
 90
       50
102
RTVSPost2010PropOp50
 70
     1
102
RTVSPost2010Prop51ColorIndex
 90
      256
102
RTVSPost2010Prop51ColorRGB
 90
-16777216
102
RTVSPost2010PropOp51
 70
     0
102
RTVSPost2010Prop52
140
1.0
102
RTVSPost2010PropOp52
 70
     0
102
RTVSPost2010Prop53
 90
        2
102
RTVSPost2010PropOp53
 70
     1
102
RTVSPost2010Prop54
  1
strokes_ogs.tif
102
RTVSPost2010PropOp54
 70
     1
102
RTVSPost2010Prop55
280
     0
102
RTVSPost2010PropOp55
 70
     1
102
RTVSPost2010Prop56
140
1.0
102
RTVSPost2010PropOp56
 70
     1
102
RTVSPost2010Prop57
140
1.0
102
RTVSPost2010PropOp57
 70
     1
102
RTVSPropertyOp0
 70
     1
102
RTVSPropertyOp1
 70
     1
102
RTVSPropertyOp2
 70
     1
102
RTVSPropertyOp3
 70
     1
102
RTVSPropertyOp4
 70
     1
102
RTVSPropertyOp5
 70
     1
102
RTVSPropertyOp6
 70
     1
102
RTVSPropertyOp7
 70
     1
102
RTVSPropertyOp8
 70
     1
102
RTVSPropertyOp9
 70
     1
102
RTVSPropertyOp10
 70
     1
102
RTVSPropertyOp11
 70
     1
102
RTVSPropertyOp12
 70
     1
102
RTVSPropertyOp13
 70
     1
102
RTVSPropertyOp14
 70
     1
102
RTVSPropertyOp15
 70
     1
102
RTVSPropertyOp16
 70
     1
102
RTVSPropertyOp17
 70
     1
102
RTVSPropertyOp18
 70
     1
102
RTVSPropertyOp19
 70
     1
102
RTVSPropertyOp20
 70
     1
102
RTVSPropertyOp21
 70
     1
102
RTVSPropertyOp22
 70
     1
102
RTVSPropertyOp23
 70
     1
102
RTVSPropertyOp24
 70
     1
102
RTVSPropertyOp25
 70
     1
102
RTVSPropertyOp26
 70
     1
102
RTVSPropertyOp27
 70
     1
102
RTVSPropertyOp28
 70
     1
102
RTVSPropertyOp29
 70
     1
102
RTVSPropertyOp30
 70
     1
102
RTVSPropertyOp31
 70
     1
102
RTVSPropertyOp32
 70
     1
102
RTVSPropertyOp33
 70
     1
102
RTVSPropertyOp34
 70
     1
102
RTVSPropertyOp35
 70
     1
102
RTVSPropertyOp36
 70
     1
102
RTVSPropertyOp37
 70
     1
102
RTVSPropertyOp38
 70
     1
102
RTVSPropertyOp39
 70
     1
102
RTVSPropertyOp40
 70
     1
102
RTVSPropertyOp41
 70
     1
102
RTVSPropertyOp42
 70
     1
102
RTVSPropertyOp43
 70
     1
102
RTVSPropertyOp44
 70
     1
102
RTVSPropertyOp45
 70
     1
102
RTVSPropertyOp46
 70
     1
102
RTVSPropertyOp47
 70
     1
102
RTVSPropertyOp48
 70
     1
102
RTVSPropertyOp49
 70
     1
102
RTVSPropertyOp50
 70
     1
102
RTVSPropertyOp51
 70
     0
102
RTVSPropertyOp52
 70
     0
102
RTVSPropertyOp53
 70
     1
102
RTVSPropertyOp54
 70
     1
102
RTVSPropertyOp55
 70
     1
102
RTVSPropertyOp56
 70
     1
102
RTVSPropertyOp57
 70
     1
102
RTVSPropertyOp58
 70
     1
102
RTVSPropertyOp59
 70
     1
102
RTVSPropertyOp60
 70
     1
102
RTVSPropertyOp61
 70
     1
102
RTVSPropertyOp62
 70
     1
  0
XRECORD
  5
6D56
102
{ACAD_REACTORS
330
6D55
102
}
330
6D55
100
AcDbXrecord
280
     1
102
RTVSPost2010Prop28
280
     0
102
RTVSPost2010PropOp28
 70
     1
102
RTVSPost2010Prop29
280
     1
102
RTVSPost2010PropOp29
 70
     1
102
RTVSPost2010Prop30
280
     1
102
RTVSPost2010PropOp30
 70
     1
102
RTVSPost2010Prop31
280
     0
102
RTVSPost2010PropOp31
 70
     1
102
RTVSPost2010Prop32
280
     0
102
RTVSPost2010PropOp32
 70
     1
102
RTVSPost2010Prop33
280
     0
102
RTVSPost2010PropOp33
 70
     1
102
RTVSPost2010Prop34
280
     0
102
RTVSPost2010PropOp34
 70
     1
102
RTVSPost2010Prop35
280
     0
102
RTVSPost2010PropOp35
 70
     1
102
RTVSPost2010Prop36
280
     0
102
RTVSPost2010PropOp36
 70
     1
102
RTVSPost2010Prop37
 90
       50
102
RTVSPost2010PropOp37
 70
     1
102
RTVSPost2010Prop38
140
0.0
102
RTVSPost2010PropOp38
 70
     1
102
RTVSPost2010Prop39
140
1.0
102
RTVSPost2010PropOp39
 70
     1
102
RTVSPost2010Prop40
 90
        0
102
RTVSPost2010PropOp40
 70
     1
102
RTVSPost2010Prop41ColorIndex
 90
       18
102
RTVSPost2010Prop41ColorRGB
 90
        0
102
RTVSPost2010PropOp41
 70
     1
102
RTVSPost2010Prop42
 90
       50
102
RTVSPost2010PropOp42
 70
     1
102
RTVSPost2010Prop43
 90
        3
102
RTVSPost2010PropOp43
 70
     1
102
RTVSPost2010Prop44ColorIndex
 90
        5
102
RTVSPost2010Prop44ColorRGB
 90
      255
102
RTVSPost2010PropOp44
 70
     1
102
RTVSPost2010Prop45
280
     0
102
RTVSPost2010PropOp45
 70
     1
102
RTVSPost2010Prop46
 90
       50
102
RTVSPost2010PropOp46
 70
     1
102
RTVSPost2010Prop47
 90
       50
102
RTVSPost2010PropOp47
 70
     1
102
RTVSPost2010Prop48
 90
       50
102
RTVSPost2010PropOp48
 70
     1
102
RTVSPost2010Prop49
280
     0
102
RTVSPost2010PropOp49
 70
     1
102
RTVSPost2010Prop50
 90
       50
102
RTVSPost2010PropOp50
 70
     1
102
RTVSPost2010Prop51ColorIndex
 90
      256
102
RTVSPost2010Prop51ColorRGB
 90
-16777216
102
RTVSPost2010PropOp51
 70
     0
102
RTVSPost2010Prop52
140
1.0
102
RTVSPost2010PropOp52
 70
     0
102
RTVSPost2010Prop53
 90
        2
102
RTVSPost2010PropOp53
 70
     1
102
RTVSPost2010Prop54
  1
strokes_ogs.tif
102
RTVSPost2010PropOp54
 70
     1
102
RTVSPost2010Prop55
280
     0
102
RTVSPost2010PropOp55
 70
     1
102
RTVSPost2010Prop56
140
1.0
102
RTVSPost2010PropOp56
 70
     1
102
RTVSPost2010Prop57
140
1.0
102
RTVSPost2010PropOp57
 70
     1
102
RTVSPropertyOp0
 70
     1
102
RTVSPropertyOp1
 70
     1
102
RTVSPropertyOp2
 70
     1
102
RTVSPropertyOp3
 70
     1
102
RTVSPropertyOp4
 70
     1
102
RTVSPropertyOp5
 70
     1
102
RTVSPropertyOp6
 70
     1
102
RTVSPropertyOp7
 70
     1
102
RTVSPropertyOp8
 70
     1
102
RTVSPropertyOp9
 70
     1
102
RTVSPropertyOp10
 70
     1
102
RTVSPropertyOp11
 70
     1
102
RTVSPropertyOp12
 70
     1
102
RTVSPropertyOp13
 70
     1
102
RTVSPropertyOp14
 70
     1
102
RTVSPropertyOp15
 70
     1
102
RTVSPropertyOp16
 70
     1
102
RTVSPropertyOp17
 70
     1
102
RTVSPropertyOp18
 70
     1
102
RTVSPropertyOp19
 70
     1
102
RTVSPropertyOp20
 70
     1
102
RTVSPropertyOp21
 70
     1
102
RTVSPropertyOp22
 70
     1
102
RTVSPropertyOp23
 70
     1
102
RTVSPropertyOp24
 70
     1
102
RTVSPropertyOp25
 70
     1
102
RTVSPropertyOp26
 70
     1
102
RTVSPropertyOp27
 70
     1
102
RTVSPropertyOp28
 70
     1
102
RTVSPropertyOp29
 70
     1
102
RTVSPropertyOp30
 70
     1
102
RTVSPropertyOp31
 70
     1
102
RTVSPropertyOp32
 70
     1
102
RTVSPropertyOp33
 70
     1
102
RTVSPropertyOp34
 70
     1
102
RTVSPropertyOp35
 70
     1
102
RTVSPropertyOp36
 70
     1
102
RTVSPropertyOp37
 70
     1
102
RTVSPropertyOp38
 70
     1
102
RTVSPropertyOp39
 70
     1
102
RTVSPropertyOp40
 70
     1
102
RTVSPropertyOp41
 70
     1
102
RTVSPropertyOp42
 70
     1
102
RTVSPropertyOp43
 70
     1
102
RTVSPropertyOp44
 70
     1
102
RTVSPropertyOp45
 70
     1
102
RTVSPropertyOp46
 70
     1
102
RTVSPropertyOp47
 70
     1
102
RTVSPropertyOp48
 70
     1
102
RTVSPropertyOp49
 70
     1
102
RTVSPropertyOp50
 70
     1
102
RTVSPropertyOp51
 70
     0
102
RTVSPropertyOp52
 70
     0
102
RTVSPropertyOp53
 70
     1
102
RTVSPropertyOp54
 70
     1
102
RTVSPropertyOp55
 70
     1
102
RTVSPropertyOp56
 70
     1
102
RTVSPropertyOp57
 70
     1
102
RTVSPropertyOp58
 70
     1
102
RTVSPropertyOp59
 70
     1
102
RTVSPropertyOp60
 70
     1
102
RTVSPropertyOp61
 70
     1
102
RTVSPropertyOp62
 70
     1
  0
XRECORD
  5
6D4C
102
{ACAD_REACTORS
330
6D4B
102
}
330
6D4B
100
AcDbXrecord
280
     1
102
RTVSPost2010Prop28
280
     0
102
RTVSPost2010PropOp28
 70
     1
102
RTVSPost2010Prop29
280
     1
102
RTVSPost2010PropOp29
 70
     1
102
RTVSPost2010Prop30
280
     1
102
RTVSPost2010PropOp30
 70
     1
102
RTVSPost2010Prop31
280
     0
102
RTVSPost2010PropOp31
 70
     1
102
RTVSPost2010Prop32
280
     0
102
RTVSPost2010PropOp32
 70
     1
102
RTVSPost2010Prop33
280
     0
102
RTVSPost2010PropOp33
 70
     1
102
RTVSPost2010Prop34
280
     0
102
RTVSPost2010PropOp34
 70
     1
102
RTVSPost2010Prop35
280
     0
102
RTVSPost2010PropOp35
 70
     1
102
RTVSPost2010Prop36
280
     0
102
RTVSPost2010PropOp36
 70
     1
102
RTVSPost2010Prop37
 90
       50
102
RTVSPost2010PropOp37
 70
     1
102
RTVSPost2010Prop38
140
0.0
102
RTVSPost2010PropOp38
 70
     1
102
RTVSPost2010Prop39
140
1.0
102
RTVSPost2010PropOp39
 70
     1
102
RTVSPost2010Prop40
 90
        0
102
RTVSPost2010PropOp40
 70
     1
102
RTVSPost2010Prop41ColorIndex
 90
       18
102
RTVSPost2010Prop41ColorRGB
 90
        0
102
RTVSPost2010PropOp41
 70
     1
102
RTVSPost2010Prop42
 90
       50
102
RTVSPost2010PropOp42
 70
     1
102
RTVSPost2010Prop43
 90
        3
102
RTVSPost2010PropOp43
 70
     1
102
RTVSPost2010Prop44ColorIndex
 90
        5
102
RTVSPost2010Prop44ColorRGB
 90
      255
102
RTVSPost2010PropOp44
 70
     1
102
RTVSPost2010Prop45
280
     0
102
RTVSPost2010PropOp45
 70
     1
102
RTVSPost2010Prop46
 90
       50
102
RTVSPost2010PropOp46
 70
     1
102
RTVSPost2010Prop47
 90
       50
102
RTVSPost2010PropOp47
 70
     1
102
RTVSPost2010Prop48
 90
       50
102
RTVSPost2010PropOp48
 70
     1
102
RTVSPost2010Prop49
280
     0
102
RTVSPost2010PropOp49
 70
     1
102
RTVSPost2010Prop50
 90
       50
102
RTVSPost2010PropOp50
 70
     1
102
RTVSPost2010Prop51ColorIndex
 90
      256
102
RTVSPost2010Prop51ColorRGB
 90
-16777216
102
RTVSPost2010PropOp51
 70
     0
102
RTVSPost2010Prop52
140
1.0
102
RTVSPost2010PropOp52
 70
     0
102
RTVSPost2010Prop53
 90
        2
102
RTVSPost2010PropOp53
 70
     1
102
RTVSPost2010Prop54
  1
strokes_ogs.tif
102
RTVSPost2010PropOp54
 70
     1
102
RTVSPost2010Prop55
280
     0
102
RTVSPost2010PropOp55
 70
     1
102
RTVSPost2010Prop56
140
1.0
102
RTVSPost2010PropOp56
 70
     1
102
RTVSPost2010Prop57
140
1.0
102
RTVSPost2010PropOp57
 70
     1
102
RTVSPropertyOp0
 70
     1
102
RTVSPropertyOp1
 70
     1
102
RTVSPropertyOp2
 70
     1
102
RTVSPropertyOp3
 70
     1
102
RTVSPropertyOp4
 70
     1
102
RTVSPropertyOp5
 70
     1
102
RTVSPropertyOp6
 70
     1
102
RTVSPropertyOp7
 70
     1
102
RTVSPropertyOp8
 70
     1
102
RTVSPropertyOp9
 70
     1
102
RTVSPropertyOp10
 70
     1
102
RTVSPropertyOp11
 70
     1
102
RTVSPropertyOp12
 70
     1
102
RTVSPropertyOp13
 70
     1
102
RTVSPropertyOp14
 70
     1
102
RTVSPropertyOp15
 70
     1
102
RTVSPropertyOp16
 70
     1
102
RTVSPropertyOp17
 70
     1
102
RTVSPropertyOp18
 70
     1
102
RTVSPropertyOp19
 70
     1
102
RTVSPropertyOp20
 70
     1
102
RTVSPropertyOp21
 70
     1
102
RTVSPropertyOp22
 70
     1
102
RTVSPropertyOp23
 70
     1
102
RTVSPropertyOp24
 70
     1
102
RTVSPropertyOp25
 70
     1
102
RTVSPropertyOp26
 70
     1
102
RTVSPropertyOp27
 70
     1
102
RTVSPropertyOp28
 70
     1
102
RTVSPropertyOp29
 70
     1
102
RTVSPropertyOp30
 70
     1
102
RTVSPropertyOp31
 70
     1
102
RTVSPropertyOp32
 70
     1
102
RTVSPropertyOp33
 70
     1
102
RTVSPropertyOp34
 70
     1
102
RTVSPropertyOp35
 70
     1
102
RTVSPropertyOp36
 70
     1
102
RTVSPropertyOp37
 70
     1
102
RTVSPropertyOp38
 70
     1
102
RTVSPropertyOp39
 70
     1
102
RTVSPropertyOp40
 70
     1
102
RTVSPropertyOp41
 70
     1
102
RTVSPropertyOp42
 70
     1
102
RTVSPropertyOp43
 70
     1
102
RTVSPropertyOp44
 70
     1
102
RTVSPropertyOp45
 70
     1
102
RTVSPropertyOp46
 70
     1
102
RTVSPropertyOp47
 70
     1
102
RTVSPropertyOp48
 70
     1
102
RTVSPropertyOp49
 70
     1
102
RTVSPropertyOp50
 70
     1
102
RTVSPropertyOp51
 70
     0
102
RTVSPropertyOp52
 70
     0
102
RTVSPropertyOp53
 70
     1
102
RTVSPropertyOp54
 70
     1
102
RTVSPropertyOp55
 70
     1
102
RTVSPropertyOp56
 70
     1
102
RTVSPropertyOp57
 70
     1
102
RTVSPropertyOp58
 70
     1
102
RTVSPropertyOp59
 70
     1
102
RTVSPropertyOp60
 70
     1
102
RTVSPropertyOp61
 70
     1
102
RTVSPropertyOp62
 70
     1
  0
XRECORD
  5
6D40
102
{ACAD_REACTORS
330
6D3F
102
}
330
6D3F
100
AcDbXrecord
280
     1
102
RTVSPost2010Prop28
280
     0
102
RTVSPost2010PropOp28
 70
     1
102
RTVSPost2010Prop29
280
     1
102
RTVSPost2010PropOp29
 70
     1
102
RTVSPost2010Prop30
280
     1
102
RTVSPost2010PropOp30
 70
     1
102
RTVSPost2010Prop31
280
     0
102
RTVSPost2010PropOp31
 70
     1
102
RTVSPost2010Prop32
280
     0
102
RTVSPost2010PropOp32
 70
     1
102
RTVSPost2010Prop33
280
     0
102
RTVSPost2010PropOp33
 70
     1
102
RTVSPost2010Prop34
280
     0
102
RTVSPost2010PropOp34
 70
     1
102
RTVSPost2010Prop35
280
     0
102
RTVSPost2010PropOp35
 70
     1
102
RTVSPost2010Prop36
280
     0
102
RTVSPost2010PropOp36
 70
     1
102
RTVSPost2010Prop37
 90
       50
102
RTVSPost2010PropOp37
 70
     1
102
RTVSPost2010Prop38
140
0.0
102
RTVSPost2010PropOp38
 70
     1
102
RTVSPost2010Prop39
140
1.0
102
RTVSPost2010PropOp39
 70
     1
102
RTVSPost2010Prop40
 90
        0
102
RTVSPost2010PropOp40
 70
     1
102
RTVSPost2010Prop41ColorIndex
 90
       18
102
RTVSPost2010Prop41ColorRGB
 90
        0
102
RTVSPost2010PropOp41
 70
     1
102
RTVSPost2010Prop42
 90
       50
102
RTVSPost2010PropOp42
 70
     1
102
RTVSPost2010Prop43
 90
        3
102
RTVSPost2010PropOp43
 70
     1
102
RTVSPost2010Prop44ColorIndex
 90
        5
102
RTVSPost2010Prop44ColorRGB
 90
      255
102
RTVSPost2010PropOp44
 70
     1
102
RTVSPost2010Prop45
280
     0
102
RTVSPost2010PropOp45
 70
     1
102
RTVSPost2010Prop46
 90
       50
102
RTVSPost2010PropOp46
 70
     1
102
RTVSPost2010Prop47
 90
       50
102
RTVSPost2010PropOp47
 70
     1
102
RTVSPost2010Prop48
 90
       50
102
RTVSPost2010PropOp48
 70
     1
102
RTVSPost2010Prop49
280
     0
102
RTVSPost2010PropOp49
 70
     1
102
RTVSPost2010Prop50
 90
       50
102
RTVSPost2010PropOp50
 70
     1
102
RTVSPost2010Prop51ColorIndex
 90
      256
102
RTVSPost2010Prop51ColorRGB
 90
-16777216
102
RTVSPost2010PropOp51
 70
     0
102
RTVSPost2010Prop52
140
1.0
102
RTVSPost2010PropOp52
 70
     0
102
RTVSPost2010Prop53
 90
        2
102
RTVSPost2010PropOp53
 70
     1
102
RTVSPost2010Prop54
  1
strokes_ogs.tif
102
RTVSPost2010PropOp54
 70
     1
102
RTVSPost2010Prop55
280
     0
102
RTVSPost2010PropOp55
 70
     1
102
RTVSPost2010Prop56
140
1.0
102
RTVSPost2010PropOp56
 70
     1
102
RTVSPost2010Prop57
140
1.0
102
RTVSPost2010PropOp57
 70
     1
102
RTVSPropertyOp0
 70
     1
102
RTVSPropertyOp1
 70
     1
102
RTVSPropertyOp2
 70
     1
102
RTVSPropertyOp3
 70
     1
102
RTVSPropertyOp4
 70
     1
102
RTVSPropertyOp5
 70
     1
102
RTVSPropertyOp6
 70
     1
102
RTVSPropertyOp7
 70
     1
102
RTVSPropertyOp8
 70
     1
102
RTVSPropertyOp9
 70
     1
102
RTVSPropertyOp10
 70
     1
102
RTVSPropertyOp11
 70
     1
102
RTVSPropertyOp12
 70
     1
102
RTVSPropertyOp13
 70
     1
102
RTVSPropertyOp14
 70
     1
102
RTVSPropertyOp15
 70
     1
102
RTVSPropertyOp16
 70
     1
102
RTVSPropertyOp17
 70
     1
102
RTVSPropertyOp18
 70
     1
102
RTVSPropertyOp19
 70
     1
102
RTVSPropertyOp20
 70
     1
102
RTVSPropertyOp21
 70
     1
102
RTVSPropertyOp22
 70
     1
102
RTVSPropertyOp23
 70
     1
102
RTVSPropertyOp24
 70
     1
102
RTVSPropertyOp25
 70
     1
102
RTVSPropertyOp26
 70
     1
102
RTVSPropertyOp27
 70
     1
102
RTVSPropertyOp28
 70
     1
102
RTVSPropertyOp29
 70
     1
102
RTVSPropertyOp30
 70
     1
102
RTVSPropertyOp31
 70
     1
102
RTVSPropertyOp32
 70
     1
102
RTVSPropertyOp33
 70
     1
102
RTVSPropertyOp34
 70
     1
102
RTVSPropertyOp35
 70
     1
102
RTVSPropertyOp36
 70
     1
102
RTVSPropertyOp37
 70
     1
102
RTVSPropertyOp38
 70
     1
102
RTVSPropertyOp39
 70
     1
102
RTVSPropertyOp40
 70
     1
102
RTVSPropertyOp41
 70
     1
102
RTVSPropertyOp42
 70
     1
102
RTVSPropertyOp43
 70
     1
102
RTVSPropertyOp44
 70
     1
102
RTVSPropertyOp45
 70
     1
102
RTVSPropertyOp46
 70
     1
102
RTVSPropertyOp47
 70
     1
102
RTVSPropertyOp48
 70
     1
102
RTVSPropertyOp49
 70
     1
102
RTVSPropertyOp50
 70
     1
102
RTVSPropertyOp51
 70
     0
102
RTVSPropertyOp52
 70
     0
102
RTVSPropertyOp53
 70
     1
102
RTVSPropertyOp54
 70
     1
102
RTVSPropertyOp55
 70
     1
102
RTVSPropertyOp56
 70
     1
102
RTVSPropertyOp57
 70
     1
102
RTVSPropertyOp58
 70
     1
102
RTVSPropertyOp59
 70
     1
102
RTVSPropertyOp60
 70
     1
102
RTVSPropertyOp61
 70
     1
102
RTVSPropertyOp62
 70
     1
  0
XRECORD
  5
6D58
102
{ACAD_REACTORS
330
6D57
102
}
330
6D57
100
AcDbXrecord
280
     1
102
RTVSPost2010Prop28
280
     0
102
RTVSPost2010PropOp28
 70
     1
102
RTVSPost2010Prop29
280
     1
102
RTVSPost2010PropOp29
 70
     1
102
RTVSPost2010Prop30
280
     1
102
RTVSPost2010PropOp30
 70
     1
102
RTVSPost2010Prop31
280
     0
102
RTVSPost2010PropOp31
 70
     1
102
RTVSPost2010Prop32
280
     0
102
RTVSPost2010PropOp32
 70
     1
102
RTVSPost2010Prop33
280
     0
102
RTVSPost2010PropOp33
 70
     1
102
RTVSPost2010Prop34
280
     0
102
RTVSPost2010PropOp34
 70
     1
102
RTVSPost2010Prop35
280
     0
102
RTVSPost2010PropOp35
 70
     1
102
RTVSPost2010Prop36
280
     0
102
RTVSPost2010PropOp36
 70
     1
102
RTVSPost2010Prop37
 90
       50
102
RTVSPost2010PropOp37
 70
     1
102
RTVSPost2010Prop38
140
0.0
102
RTVSPost2010PropOp38
 70
     1
102
RTVSPost2010Prop39
140
1.0
102
RTVSPost2010PropOp39
 70
     1
102
RTVSPost2010Prop40
 90
        0
102
RTVSPost2010PropOp40
 70
     1
102
RTVSPost2010Prop41ColorIndex
 90
       18
102
RTVSPost2010Prop41ColorRGB
 90
        0
102
RTVSPost2010PropOp41
 70
     1
102
RTVSPost2010Prop42
 90
       50
102
RTVSPost2010PropOp42
 70
     1
102
RTVSPost2010Prop43
 90
        3
102
RTVSPost2010PropOp43
 70
     1
102
RTVSPost2010Prop44ColorIndex
 90
        5
102
RTVSPost2010Prop44ColorRGB
 90
      255
102
RTVSPost2010PropOp44
 70
     1
102
RTVSPost2010Prop45
280
     0
102
RTVSPost2010PropOp45
 70
     1
102
RTVSPost2010Prop46
 90
       50
102
RTVSPost2010PropOp46
 70
     1
102
RTVSPost2010Prop47
 90
       50
102
RTVSPost2010PropOp47
 70
     1
102
RTVSPost2010Prop48
 90
       50
102
RTVSPost2010PropOp48
 70
     1
102
RTVSPost2010Prop49
280
     0
102
RTVSPost2010PropOp49
 70
     1
102
RTVSPost2010Prop50
 90
       50
102
RTVSPost2010PropOp50
 70
     1
102
RTVSPost2010Prop51ColorIndex
 90
      256
102
RTVSPost2010Prop51ColorRGB
 90
-16777216
102
RTVSPost2010PropOp51
 70
     0
102
RTVSPost2010Prop52
140
1.0
102
RTVSPost2010PropOp52
 70
     0
102
RTVSPost2010Prop53
 90
        2
102
RTVSPost2010PropOp53
 70
     1
102
RTVSPost2010Prop54
  1
strokes_ogs.tif
102
RTVSPost2010PropOp54
 70
     1
102
RTVSPost2010Prop55
280
     0
102
RTVSPost2010PropOp55
 70
     1
102
RTVSPost2010Prop56
140
1.0
102
RTVSPost2010PropOp56
 70
     1
102
RTVSPost2010Prop57
140
1.0
102
RTVSPost2010PropOp57
 70
     1
102
RTVSPropertyOp0
 70
     1
102
RTVSPropertyOp1
 70
     1
102
RTVSPropertyOp2
 70
     1
102
RTVSPropertyOp3
 70
     1
102
RTVSPropertyOp4
 70
     1
102
RTVSPropertyOp5
 70
     1
102
RTVSPropertyOp6
 70
     1
102
RTVSPropertyOp7
 70
     1
102
RTVSPropertyOp8
 70
     1
102
RTVSPropertyOp9
 70
     1
102
RTVSPropertyOp10
 70
     1
102
RTVSPropertyOp11
 70
     1
102
RTVSPropertyOp12
 70
     1
102
RTVSPropertyOp13
 70
     1
102
RTVSPropertyOp14
 70
     1
102
RTVSPropertyOp15
 70
     1
102
RTVSPropertyOp16
 70
     1
102
RTVSPropertyOp17
 70
     1
102
RTVSPropertyOp18
 70
     1
102
RTVSPropertyOp19
 70
     1
102
RTVSPropertyOp20
 70
     1
102
RTVSPropertyOp21
 70
     1
102
RTVSPropertyOp22
 70
     1
102
RTVSPropertyOp23
 70
     1
102
RTVSPropertyOp24
 70
     1
102
RTVSPropertyOp25
 70
     1
102
RTVSPropertyOp26
 70
     1
102
RTVSPropertyOp27
 70
     1
102
RTVSPropertyOp28
 70
     1
102
RTVSPropertyOp29
 70
     1
102
RTVSPropertyOp30
 70
     1
102
RTVSPropertyOp31
 70
     1
102
RTVSPropertyOp32
 70
     1
102
RTVSPropertyOp33
 70
     1
102
RTVSPropertyOp34
 70
     1
102
RTVSPropertyOp35
 70
     1
102
RTVSPropertyOp36
 70
     1
102
RTVSPropertyOp37
 70
     1
102
RTVSPropertyOp38
 70
     1
102
RTVSPropertyOp39
 70
     1
102
RTVSPropertyOp40
 70
     1
102
RTVSPropertyOp41
 70
     1
102
RTVSPropertyOp42
 70
     1
102
RTVSPropertyOp43
 70
     1
102
RTVSPropertyOp44
 70
     1
102
RTVSPropertyOp45
 70
     1
102
RTVSPropertyOp46
 70
     1
102
RTVSPropertyOp47
 70
     1
102
RTVSPropertyOp48
 70
     1
102
RTVSPropertyOp49
 70
     1
102
RTVSPropertyOp50
 70
     1
102
RTVSPropertyOp51
 70
     0
102
RTVSPropertyOp52
 70
     0
102
RTVSPropertyOp53
 70
     1
102
RTVSPropertyOp54
 70
     1
102
RTVSPropertyOp55
 70
     1
102
RTVSPropertyOp56
 70
     1
102
RTVSPropertyOp57
 70
     1
102
RTVSPropertyOp58
 70
     1
102
RTVSPropertyOp59
 70
     1
102
RTVSPropertyOp60
 70
     1
102
RTVSPropertyOp61
 70
     1
102
RTVSPropertyOp62
 70
     1
  0
ENDSEC
  0
EOF
